0
SECTION
2
HEADER
9
$INSUNITS
70
4
9
$ACADVER
1
AC1014
9
$HANDSEED
5
FFFF
0
ENDSEC
0
SECTION
2
TABLES
0
TABLE
2
VPORT
5
8
100
AcDbSymbolTable
0
ENDTAB
0
TABLE
2
LTYPE
5
5
100
AcDbSymbolTable
0
LTYPE
5
14
100
AcDbSymbolTableRecord
100
AcDbLinetypeTableRecord
2
BYBLOCK
70
0
0
LTYPE
5
15
100
AcDbSymbolTableRecord
100
AcDbLinetypeTableRecord
2
BYLAYER
70
0
0
ENDTAB
0
TABLE
2
LAYER
5
2
100
AcDbSymbolTable
70
2
0
LAYER
5
50
100
AcDbSymbolTableRecord
100
AcDbLayerTableRecord
2
0
70
0
6
CONTINUOUS
0
ENDTAB
0
TABLE
2
STYLE
5
3
100
AcDbSymbolTable
70
1
0
STYLE
5
11
100
AcDbSymbolTableRecord
100
AcDbTextStyleTableRecord
2
STANDARD
70
0
0
ENDTAB
0
TABLE
2
VIEW
5
6
100
AcDbSymbolTable
70
0
0
ENDTAB
0
TABLE
2
UCS
5
7
100
AcDbSymbolTable
70
0
0
ENDTAB
0
TABLE
2
APPID
5
9
100
AcDbSymbolTable
70
2
0
APPID
5
12
100
AcDbSymbolTableRecord
100
AcDbRegAppTableRecord
2
ACAD
70
0
0
ENDTAB
0
TABLE
2
DIMSTYLE
5
A
100
AcDbSymbolTable
70
1
0
ENDTAB
0
TABLE
2
BLOCK_RECORD
5
1
100
AcDbSymbolTable
70
1
0
BLOCK_RECORD
5
1F
100
AcDbSymbolTableRecord
100
AcDbBlockTableRecord
2
*MODEL_SPACE
0
BLOCK_RECORD
5
1B
100
AcDbSymbolTableRecord
100
AcDbBlockTableRecord
2
*PAPER_SPACE
0
ENDTAB
0
ENDSEC
0
SECTION
2
BLOCKS
0
BLOCK
5
20
100
AcDbEntity
100
AcDbBlockBegin
2
*MODEL_SPACE
0
ENDBLK
5
21
100
AcDbEntity
100
AcDbBlockEnd
0
BLOCK
5
1C
100
AcDbEntity
100
AcDbBlockBegin
2
*PAPER_SPACE
0
ENDBLK
5
1D
100
AcDbEntity
100
AcDbBlockEnd
0
ENDSEC
0
SECTION
2
ENTITIES
0
LWPOLYLINE
5
100
100
AcDbEntity
8
0
100
AcDbPolyline
90
9
70
1
43
0.0
10
100
20
1572.4000000000001
10
100
20
100
10
170
20
100
10
170
20
111.19999999999999
10
230
20
111.19999999999999
10
230
20
100
10
300
20
100
10
300
20
111.20000000000005
10
300
20
1572.4000000000001
0
LWPOLYLINE
5
101
100
AcDbEntity
8
0
100
AcDbPolyline
90
4
70
1
43
0.0
10
280.7207336109492
20
152.51261557515537
10
272.94255901789711
20
144.73444098210339
10
230.51615214670463
20
187.16084785329662
10
238.29432673975671
20
194.93902244634859
0
LINE
5
102
100
AcDbEntity
8
0
100
AcDbLine
10
173.94760965178122
20
243.72939034822082
30
0
11
181.72578424483331
21
251.50756494127279
31
0
0
LINE
5
103
100
AcDbEntity
8
0
100
AcDbLine
10
173.94760965178122
20
243.72939034822082
30
0
11
131.52120278058868
21
286.15579721941396
31
0
0
LINE
5
104
100
AcDbEntity
8
0
100
AcDbLine
10
131.52120278058868
20
286.15579721941396
30
0
11
139.29937737364074
21
293.93397181246593
31
0
0
LINE
5
105
100
AcDbEntity
8
0
100
AcDbLine
10
139.29937737364074
20
293.93397181246593
30
0
11
181.72578424483331
21
251.50756494127279
31
0
0
LINE
5
106
100
AcDbEntity
8
0
100
AcDbLine
10
139.29937737364074
20
293.93397181246593
30
0
11
131.52120278058874
21
301.71214640551801
31
0
0
LINE
5
107
100
AcDbEntity
8
0
100
AcDbLine
10
131.52120278058874
20
301.71214640551801
30
0
11
173.94760965178182
21
344.13855327671058
31
0
0
LINE
5
108
100
AcDbEntity
8
0
100
AcDbLine
10
173.94760965178182
20
344.13855327671058
30
0
11
181.72578424483379
21
336.36037868365855
31
0
0
LINE
5
109
100
AcDbEntity
8
0
100
AcDbLine
10
181.72578424483379
20
336.36037868365855
30
0
11
139.29937737364074
21
293.93397181246593
31
0
0
LINE
5
110
100
AcDbEntity
8
0
100
AcDbLine
10
238.29432673975782
20
392.92892117858202
30
0
11
230.51615214670585
21
400.70709577163404
31
0
0
LINE
5
111
100
AcDbEntity
8
0
100
AcDbLine
10
230.51615214670585
20
400.70709577163404
30
0
11
234.40523944323184
21
404.59618306816003
31
0
0
LINE
5
112
100
AcDbEntity
8
0
100
AcDbLine
10
234.40523944323184
20
404.59618306816003
30
0
11
276.83164631442486
21
447.02258993935277
31
0
0
LINE
5
113
100
AcDbEntity
8
0
100
AcDbLine
10
276.83164631442486
20
447.02258993935277
30
0
11
284.60982090747689
21
439.24441534630068
31
0
0
LINE
5
114
100
AcDbEntity
8
0
100
AcDbLine
10
284.60982090747689
20
439.24441534630068
30
0
11
238.29432673975782
21
392.92892117858202
31
0
0
LINE
5
115
100
AcDbEntity
8
0
100
AcDbLine
10
276.83164631442486
20
447.02258993935277
30
0
11
284.60982090747689
21
454.80076453240474
31
0
0
LINE
5
116
100
AcDbEntity
8
0
100
AcDbLine
10
284.60982090747689
20
454.80076453240474
30
0
11
242.18341403628429
21
497.22717140359777
31
0
0
LINE
5
117
100
AcDbEntity
8
0
100
AcDbLine
10
242.18341403628429
20
497.22717140359777
30
0
11
234.40523944323223
21
489.44899681054579
31
0
0
LINE
5
118
100
AcDbEntity
8
0
100
AcDbLine
10
234.40523944323223
20
489.44899681054579
30
0
11
276.83164631442486
21
447.02258993935277
31
0
0
LINE
5
119
100
AcDbEntity
8
0
100
AcDbLine
10
173.94760965178278
20
549.90662660199587
30
0
11
181.72578424483481
21
557.68480119504784
31
0
0
LINE
5
120
100
AcDbEntity
8
0
100
AcDbLine
10
181.72578424483481
20
557.68480119504784
30
0
11
177.8366969483088
21
561.57388849157383
31
0
0
LINE
5
121
100
AcDbEntity
8
0
100
AcDbLine
10
177.8366969483088
20
561.57388849157383
30
0
11
135.41029007711614
21
604.00029536276679
31
0
0
LINE
5
122
100
AcDbEntity
8
0
100
AcDbLine
10
135.41029007711614
20
604.00029536276679
30
0
11
127.6321154840641
21
596.22212076971482
31
0
0
LINE
5
123
100
AcDbEntity
8
0
100
AcDbLine
10
127.6321154840641
20
596.22212076971482
30
0
11
173.94760965178278
21
549.90662660199587
31
0
0
LINE
5
124
100
AcDbEntity
8
0
100
AcDbLine
10
135.41029007711614
20
604.00029536276679
30
0
11
127.63211548406417
21
611.77846995581888
31
0
0
LINE
5
125
100
AcDbEntity
8
0
100
AcDbLine
10
127.63211548406417
20
611.77846995581888
30
0
11
170.0585223552572
21
654.2048768270115
31
0
0
LINE
5
126
100
AcDbEntity
8
0
100
AcDbLine
10
170.0585223552572
20
654.2048768270115
30
0
11
177.8366969483092
21
646.42670223395942
31
0
0
LINE
5
127
100
AcDbEntity
8
0
100
AcDbLine
10
177.8366969483092
20
646.42670223395942
30
0
11
135.41029007711614
21
604.00029536276679
31
0
0
LINE
5
128
100
AcDbEntity
8
0
100
AcDbLine
10
234.40523944323334
20
702.99524472888277
30
0
11
226.62706485018134
21
710.77341932193485
31
0
0
LINE
5
129
100
AcDbEntity
8
0
100
AcDbLine
10
226.62706485018134
20
710.77341932193485
30
0
11
228.77314335753266
21
712.91949782928623
31
0
0
LINE
5
130
100
AcDbEntity
8
0
100
AcDbLine
10
228.77314335753266
20
712.91949782928623
30
0
11
271.1995502287258
21
755.34590470047885
31
0
0
LINE
5
131
100
AcDbEntity
8
0
100
AcDbLine
10
271.1995502287258
20
755.34590470047885
30
0
11
278.97772482177783
21
747.56773010742677
31
0
0
LINE
5
132
100
AcDbEntity
8
0
100
AcDbLine
10
278.97772482177783
20
747.56773010742677
30
0
11
234.40523944323334
21
702.99524472888277
31
0
0
LINE
5
133
100
AcDbEntity
8
0
100
AcDbLine
10
271.1995502287258
20
755.34590470047885
30
0
11
278.97772482177788
21
763.12407929353083
31
0
0
LINE
5
134
100
AcDbEntity
8
0
100
AcDbLine
10
278.97772482177788
20
763.12407929353083
30
0
11
236.55131795058537
21
805.55048616472391
31
0
0
LINE
5
135
100
AcDbEntity
8
0
100
AcDbLine
10
236.55131795058537
20
805.55048616472391
30
0
11
228.77314335753329
21
797.77231157167193
31
0
0
LINE
5
136
100
AcDbEntity
8
0
100
AcDbLine
10
228.77314335753329
20
797.77231157167193
30
0
11
271.1995502287258
21
755.34590470047885
31
0
0
LINE
5
137
100
AcDbEntity
8
0
100
AcDbLine
10
172.20460086260994
20
854.34085406659608
30
0
11
179.98277545566197
21
862.11902865964805
31
0
0
LINE
5
138
100
AcDbEntity
8
0
100
AcDbLine
10
179.98277545566197
20
862.11902865964805
30
0
11
137.55636858446931
21
904.54543553084113
31
0
0
LINE
5
139
100
AcDbEntity
8
0
100
AcDbLine
10
137.55636858446931
20
904.54543553084113
30
0
11
129.77819399141725
21
896.76726093778916
31
0
0
LINE
5
140
100
AcDbEntity
8
0
100
AcDbLine
10
129.77819399141725
20
896.76726093778916
30
0
11
172.20460086260994
21
854.34085406659608
31
0
0
LINE
5
141
100
AcDbEntity
8
0
100
AcDbLine
10
137.55636858446931
20
904.54543553084113
30
0
11
129.77819399141731
21
912.32361012389322
31
0
0
LINE
5
142
100
AcDbEntity
8
0
100
AcDbLine
10
133.66728128794333
20
916.2126974204192
30
0
11
176.09368815913649
21
958.63910429161183
31
0
0
LINE
5
143
100
AcDbEntity
8
0
100
AcDbLine
10
176.09368815913649
20
958.63910429161183
30
0
11
183.87186275218841
21
950.86092969855986
31
0
0
LINE
5
144
100
AcDbEntity
8
0
100
AcDbLine
10
183.87186275218841
20
950.86092969855986
30
0
11
137.55636858446931
21
904.54543553084113
31
0
0
LINE
5
145
100
AcDbEntity
8
0
100
AcDbLine
10
240.44040524711232
20
1007.4294721934835
30
0
11
232.66223065406035
21
1015.2076467865355
31
0
0
LINE
5
146
100
AcDbEntity
8
0
100
AcDbLine
10
232.66223065406035
20
1015.2076467865355
30
0
11
236.55131795058634
21
1019.0967340830615
31
0
0
LINE
5
147
100
AcDbEntity
8
0
100
AcDbLine
10
236.55131795058634
20
1019.0967340830615
30
0
11
278.97772482177913
21
1061.5231409542544
31
0
0
LINE
5
148
100
AcDbEntity
8
0
100
AcDbLine
10
278.97772482177913
20
1061.5231409542544
30
0
11
286.75589941483116
21
1053.7449663612022
31
0
0
LINE
5
149
100
AcDbEntity
8
0
100
AcDbLine
10
286.75589941483116
20
1053.7449663612022
30
0
11
240.44040524711232
21
1007.4294721934835
31
0
0
LINE
5
150
100
AcDbEntity
8
0
100
AcDbLine
10
278.97772482177913
20
1061.5231409542544
30
0
11
286.75589941483116
21
1069.3013155473063
31
0
0
LINE
5
151
100
AcDbEntity
8
0
100
AcDbLine
10
286.75589941483116
20
1069.3013155473063
30
0
11
244.32949254363851
21
1111.7277224184993
31
0
0
LINE
5
152
100
AcDbEntity
8
0
100
AcDbLine
10
278.97772482177913
20
1061.5231409542544
30
0
11
236.55131795058651
21
1103.9495478254473
31
0
0
LINE
5
153
100
AcDbEntity
8
0
100
AcDbLine
10
244.32949254363851
20
1111.7277224184993
30
0
11
236.55131795058651
21
1103.9495478254473
31
0
0
LINE
5
154
100
AcDbEntity
8
0
100
AcDbLine
10
187.76095004871482
20
1168.2962649134233
30
0
11
179.98277545566279
21
1160.5180903203714
31
0
0
LINE
5
155
100
AcDbEntity
8
0
100
AcDbLine
10
187.76095004871482
20
1168.2962649134233
30
0
11
145.33454317752219
21
1210.7226717846163
31
0
0
LINE
5
156
100
AcDbEntity
8
0
100
AcDbLine
10
145.33454317752219
20
1210.7226717846163
30
0
11
137.55636858447014
21
1202.9444971915643
31
0
0
LINE
5
157
100
AcDbEntity
8
0
100
AcDbLine
10
137.55636858447014
20
1202.9444971915643
30
0
11
179.98277545566279
21
1160.5180903203714
31
0
0
LINE
5
158
100
AcDbEntity
8
0
100
AcDbLine
10
145.33454317752219
20
1210.7226717846163
30
0
11
137.55636858447016
21
1218.5008463776685
31
0
0
LINE
5
159
100
AcDbEntity
8
0
100
AcDbLine
10
137.55636858447016
20
1218.5008463776685
30
0
11
179.98277545566327
21
1260.9272532488608
31
0
0
LINE
5
160
100
AcDbEntity
8
0
100
AcDbLine
10
145.33454317752219
20
1210.7226717846163
30
0
11
187.76095004871522
21
1253.1490786558088
31
0
0
LINE
5
161
100
AcDbEntity
8
0
100
AcDbLine
10
187.76095004871522
20
1253.1490786558088
30
0
11
179.98277545566327
21
1260.9272532488608
31
0
0
LINE
5
162
100
AcDbEntity
8
0
100
AcDbLine
10
244.32949254363911
20
1309.7176211507326
30
0
11
236.55131795058713
21
1317.4957957437846
31
0
0
LINE
5
163
100
AcDbEntity
8
0
100
AcDbLine
10
236.55131795058713
20
1317.4957957437846
30
0
11
278.97772482178004
21
1359.9222026149776
31
0
0
LINE
5
164
100
AcDbEntity
8
0
100
AcDbLine
10
244.32949254363911
20
1309.7176211507326
30
0
11
286.75589941483202
21
1352.1440280219256
31
0
0
LINE
5
165
100
AcDbEntity
8
0
100
AcDbLine
10
286.75589941483202
20
1352.1440280219256
30
0
11
278.97772482178004
21
1359.9222026149776
31
0
0
LINE
5
166
100
AcDbEntity
8
0
100
AcDbLine
10
278.97772482178004
20
1359.9222026149776
30
0
11
286.75589941483213
21
1367.7003772080295
31
0
0
LINE
5
167
100
AcDbEntity
8
0
100
AcDbLine
10
286.75589941483213
20
1367.7003772080295
30
0
11
244.32949254363922
21
1410.1267840792225
31
0
0
LINE
5
168
100
AcDbEntity
8
0
100
AcDbLine
10
278.97772482178004
20
1359.9222026149776
30
0
11
236.55131795058736
21
1402.3486094861707
31
0
0
LINE
5
169
100
AcDbEntity
8
0
100
AcDbLine
10
244.32949254363922
20
1410.1267840792225
30
0
11
236.55131795058736
21
1402.3486094861707
31
0
0
LWPOLYLINE
5
170
100
AcDbEntity
8
0
100
AcDbPolyline
90
4
70
1
43
0.0
10
179.98277545566401
20
1458.9171519810948
10
187.76095004871615
20
1466.6953265741467
10
145.33454317752373
20
1509.1217334453399
10
137.55636858447164
20
1501.343558852288
0
LINE
5
171
100
AcDbEntity
8
0
100
AcDbLine
10
133.66728128794333
20
916.2126974204192
30
0
11
129.77819399141731
21
912.32361012389322
31
0
0
ENDSEC
0
SECTION
2
OBJECTS
0
DICTIONARY
5
C
100
AcDbDictionary
3
ACAD_GROUP
350
D
3
ACAD_MLINESTYLE
350
17
0
DICTIONARY
5
D
100
AcDbDictionary
0
DICTIONARY
5
1A
330
C
100
AcDbDictionary
0
DICTIONARY
5
17
100
AcDbDictionary
0
ENDSEC
0
EOF
