0
SECTION
2
HEADER
9
$INSUNITS
70
4
0
ENDSEC
0
SECTION
2
TABLES
0
TABLE
2
LTYPE
0
LTYPE
72
65
70
64
2
CONTINUOUS
3
______
73
0
40
0
0
ENDTAB
0
TABLE
2
LAYER
0
ENDTAB
0
ENDSEC
0
SECTION
2
ENTITIES
0
LINE
8
front_outsideCutPath
10
0
20
73
11
0
21
20.9268293
0
LINE
8
front_outsideCutPath
10
0
20
20.9268293
11
0
21
3
0
LINE
8
front_outsideCutPath
10
0
20
3
11
62.195122
21
3
0
LINE
8
front_outsideCutPath
10
62.195122
20
3
11
62.195122
21
5.8
0
LINE
8
front_outsideCutPath
10
62.195122
20
5.8
11
96.3414634
21
5.8
0
LINE
8
front_outsideCutPath
10
96.3414634
20
5.8
11
96.3414634
21
3
0
LINE
8
front_outsideCutPath
10
96.3414634
20
3
11
130.4878049
21
3
0
LINE
8
front_outsideCutPath
10
130.4878049
20
3
11
130.4878049
21
5.8
0
LINE
8
front_outsideCutPath
10
130.4878049
20
5.8
11
164.6341463
21
5.8
0
LINE
8
front_outsideCutPath
10
164.6341463
20
5.8
11
164.6341463
21
3
0
LINE
8
front_outsideCutPath
10
164.6341463
20
3
11
198.7804878
21
3
0
LINE
8
front_outsideCutPath
10
198.7804878
20
3
11
198.7804878
21
5.8
0
LINE
8
front_outsideCutPath
10
198.7804878
20
5.8
11
232.9268293
21
5.8
0
LINE
8
front_outsideCutPath
10
232.9268293
20
5.8
11
232.9268293
21
3
0
LINE
8
front_outsideCutPath
10
232.9268293
20
3
11
267.0731707
21
3
0
LINE
8
front_outsideCutPath
10
267.0731707
20
3
11
267.0731707
21
5.8
0
LINE
8
front_outsideCutPath
10
267.0731707
20
5.8
11
301.2195122
21
5.8
0
LINE
8
front_outsideCutPath
10
301.2195122
20
5.8
11
301.2195122
21
3
0
LINE
8
front_outsideCutPath
10
301.2195122
20
3
11
335.3658537
21
3
0
LINE
8
front_outsideCutPath
10
335.3658537
20
3
11
335.3658537
21
5.8
0
LINE
8
front_outsideCutPath
10
335.3658537
20
5.8
11
369.5121951
21
5.8
0
LINE
8
front_outsideCutPath
10
369.5121951
20
5.8
11
369.5121951
21
3
0
LINE
8
front_outsideCutPath
10
369.5121951
20
3
11
403.6585366
21
3
0
LINE
8
front_outsideCutPath
10
403.6585366
20
3
11
403.6585366
21
5.8
0
LINE
8
front_outsideCutPath
10
403.6585366
20
5.8
11
437.804878
21
5.8
0
LINE
8
front_outsideCutPath
10
437.804878
20
5.8
11
437.804878
21
3
0
LINE
8
front_outsideCutPath
10
437.804878
20
3
11
471.9512195
21
3
0
LINE
8
front_outsideCutPath
10
471.9512195
20
3
11
500
21
3
0
LINE
8
front_outsideCutPath
10
500
20
3
11
500
21
55.0731707
0
LINE
8
front_outsideCutPath
10
500
20
55.0731707
11
500
21
73
0
LINE
8
front_outsideCutPath
10
500
20
73
11
437.804878
21
73
0
LINE
8
front_outsideCutPath
10
437.804878
20
73
11
437.804878
21
70.2
0
LINE
8
front_outsideCutPath
10
437.804878
20
70.2
11
403.6585366
21
70.2
0
LINE
8
front_outsideCutPath
10
403.6585366
20
70.2
11
403.6585366
21
73
0
LINE
8
front_outsideCutPath
10
403.6585366
20
73
11
369.5121951
21
73
0
LINE
8
front_outsideCutPath
10
369.5121951
20
73
11
369.5121951
21
70.2
0
LINE
8
front_outsideCutPath
10
369.5121951
20
70.2
11
335.3658537
21
70.2
0
LINE
8
front_outsideCutPath
10
335.3658537
20
70.2
11
335.3658537
21
73
0
LINE
8
front_outsideCutPath
10
335.3658537
20
73
11
301.2195122
21
73
0
LINE
8
front_outsideCutPath
10
301.2195122
20
73
11
301.2195122
21
70.2
0
LINE
8
front_outsideCutPath
10
301.2195122
20
70.2
11
267.0731707
21
70.2
0
LINE
8
front_outsideCutPath
10
267.0731707
20
70.2
11
267.0731707
21
73
0
LINE
8
front_outsideCutPath
10
267.0731707
20
73
11
232.9268293
21
73
0
LINE
8
front_outsideCutPath
10
232.9268293
20
73
11
232.9268293
21
70.2
0
LINE
8
front_outsideCutPath
10
232.9268293
20
70.2
11
198.7804878
21
70.2
0
LINE
8
front_outsideCutPath
10
198.7804878
20
70.2
11
198.7804878
21
73
0
LINE
8
front_outsideCutPath
10
198.7804878
20
73
11
164.6341463
21
73
0
LINE
8
front_outsideCutPath
10
164.6341463
20
73
11
164.6341463
21
70.2
0
LINE
8
front_outsideCutPath
10
164.6341463
20
70.2
11
130.4878049
21
70.2
0
LINE
8
front_outsideCutPath
10
130.4878049
20
70.2
11
130.4878049
21
73
0
LINE
8
front_outsideCutPath
10
130.4878049
20
73
11
96.3414634
21
73
0
LINE
8
front_outsideCutPath
10
96.3414634
20
73
11
96.3414634
21
70.2
0
LINE
8
front_outsideCutPath
10
96.3414634
20
70.2
11
62.195122
21
70.2
0
LINE
8
front_outsideCutPath
10
62.195122
20
70.2
11
62.195122
21
73
0
LINE
8
front_outsideCutPath
10
62.195122
20
73
11
28.0487805
21
73
0
LINE
8
front_outsideCutPath
10
28.0487805
20
73
11
0
21
73
0
LINE
8
front_labelLayer
10
238.402832
20
40.204738
11
238.402832
21
39.3229021
0
LINE
8
front_labelLayer
10
238.402832
20
39.3229021
11
236.4956054
21
39.3229021
0
LINE
8
front_labelLayer
10
236.4956054
20
39.3229021
11
236.4956054
21
32.7125505
0
LINE
8
front_labelLayer
10
236.4956054
20
32.7125505
11
235.3608398
21
32.7125505
0
LINE
8
front_labelLayer
10
235.3608398
20
32.7125505
11
235.3608398
21
39.3229021
0
LINE
8
front_labelLayer
10
235.3608398
20
39.3229021
11
234.0209961
21
39.3229021
0
LINE
8
front_labelLayer
10
234.0209961
20
39.3229021
11
234.0209961
21
39.8355974
0
LINE
8
front_labelLayer
10
234.0209961
20
39.8355974
11
235.3608398
21
40.2457537
0
LINE
8
front_labelLayer
10
235.3608398
20
40.2457537
11
235.3608398
21
40.6627458
0
LINE
8
front_labelLayer
10
239.168457
20
43.1852068
11
238.8745117
21
42.2760271
0
LINE
8
front_labelLayer
10
236.4956054
20
40.6900896
11
236.4956054
21
40.204738
0
LINE
8
front_labelLayer
10
236.4956054
20
40.204738
11
238.402832
21
40.204738
0
ARC
8
front_labelLayer
10
239.9596562
20
40.7156153
40
4.5991203
50
167.5776087
51
180.6586619
0
ARC
8
front_labelLayer
10
237.7969941
20
41.2198223
40
2.3787816
50
141.7433856
51
168.2322179
0
ARC
8
front_labelLayer
10
237.4448712
20
41.4036041
40
1.9898496
50
98.2551562
51
139.6203409
0
ARC
8
front_labelLayer
10
237.7540403
20
39.9753719
40
3.4491501
50
89.6696689
51
99.9314626
0
ARC
8
front_labelLayer
10
237.7549024
20
39.7703003
40
3.6542138
50
81.5640841
51
89.7017242
0
ARC
8
front_labelLayer
10
237.4980066
20
37.978047
40
5.4647706
50
75.9739939
51
81.6564835
0
ARC
8
front_labelLayer
10
237.0571156
20
36.1493399
40
7.3458279
50
73.2964127
51
76.0946049
0
ARC
8
front_labelLayer
10
237.1681873
20
37.0365469
40
5.5103263
50
71.9612942
51
76.5918413
0
ARC
8
front_labelLayer
10
237.5956745
20
38.8499937
40
3.6471833
50
76.5183428
51
83.0216867
0
ARC
8
front_labelLayer
10
237.7445897
20
40.0475626
40
2.4403946
50
83.0760388
51
89.792729
0
ARC
8
front_labelLayer
10
237.739687
20
40.9576468
40
1.5303559
50
89.485912
51
103.4197276
0
ARC
8
front_labelLayer
10
237.6017144
20
41.4877239
40
0.9827945
50
102.7677244
51
144.3380364
0
ARC
8
front_labelLayer
10
237.8796687
20
41.3088854
40
1.3129943
50
145.0688437
51
162.1802081
0
ARC
8
front_labelLayer
10
238.8327016
20
40.9882373
40
2.3184702
50
161.8437796
51
171.7846758
0
ARC
8
front_labelLayer
10
240.3870931
20
40.7547735
40
3.8902815
50
171.6527826
51
178.4383421
0
ARC
8
front_labelLayer
10
241.8530572
20
40.6922562
40
5.3574523
50
178.1972574
51
180.0231708
0
LINE
8
front_labelLayer
10
244.0834961
20
40.2594255
11
243.9262695
21
39.2066912
0
LINE
8
front_labelLayer
10
240.9047851
20
36.7320818
11
240.9047851
21
32.7125505
0
LINE
8
front_labelLayer
10
240.9047851
20
32.7125505
11
239.7700195
21
32.7125505
0
LINE
8
front_labelLayer
10
239.7700195
20
32.7125505
11
239.7700195
21
40.204738
0
LINE
8
front_labelLayer
10
239.7700195
20
40.204738
11
240.7065429
21
40.204738
0
LINE
8
front_labelLayer
10
240.7065429
20
40.204738
11
240.8364258
21
38.8170427
0
LINE
8
front_labelLayer
10
240.8364258
20
38.8170427
11
240.8911133
21
38.8170427
0
ARC
8
front_labelLayer
10
243.1996357
20
35.1319501
40
5.2095197
50
84.9922805
51
90.1281026
0
ARC
8
front_labelLayer
10
243.3247434
20
36.533628
40
3.8022721
50
78.4892118
51
85.0266028
0
ARC
8
front_labelLayer
10
242.8391692
20
34.3251368
40
5.0011359
50
77.4453531
51
81.6360748
0
ARC
8
front_labelLayer
10
243.0570458
20
35.8269503
40
3.4836043
50
81.5884637
51
87.1916172
0
ARC
8
front_labelLayer
10
243.1043813
20
36.6478119
40
2.6614187
50
87.343603
51
89.9660771
0
ARC
8
front_labelLayer
10
243.0933815
20
37.3430573
40
1.9662132
50
89.633545
51
137.0880786
0
ARC
8
front_labelLayer
10
243.575928
20
36.8004192
40
2.6899805
50
135.6208846
51
138.8376967
0
ARC
8
front_labelLayer
10
243.5052171
20
36.869441
40
2.5913218
50
138.9575682
51
174.5422324
0
ARC
8
front_labelLayer
10
244.3491642
20
36.7373886
40
3.4443831
50
173.690773
51
180.088276
0
ARC
8
front_labelLayer
10
244.2298458
20
36.9360152
40
3.8321533
50
139.4139569
51
150.6032769
0
ARC
8
front_labelLayer
10
243.5427312
20
37.5247975
40
2.9272825
50
124.2321503
51
139.4161004
0
ARC
8
front_labelLayer
10
243.1753407
20
38.0793711
40
2.2621209
50
89.6796558
51
124.440558
0
ARC
8
front_labelLayer
10
246.0902693
20
36.4259637
40
5.861524
50
349.1761909
51
0.3862729
0
ARC
8
front_labelLayer
10
248.063702
20
36.0325559
40
3.8493546
50
330.2507088
51
349.4116471
0
ARC
8
front_labelLayer
10
248.6710189
20
35.716898
40
3.1655655
50
318.1440001
51
329.7566115
0
ARC
8
front_labelLayer
10
248.7806406
20
35.6290484
40
3.0253078
50
278.8959153
51
317.9979093
0
ARC
8
front_labelLayer
10
248.4982072
20
36.9822161
40
4.4064263
50
269.7503032
51
279.8033163
0
ARC
8
front_labelLayer
10
248.4524035
20
36.219787
40
3.6440523
50
253.5436996
51
270.4182448
0
ARC
8
front_labelLayer
10
248.3310999
20
35.7505544
40
3.1597214
50
238.8115596
51
253.2428403
0
ARC
8
front_labelLayer
10
248.2919511
20
35.6718258
40
3.0721068
50
207.7946966
51
238.6757966
0
ARC
8
front_labelLayer
10
248.8539165
20
36.0159834
40
3.7299584
50
205.6561277
51
208.4460612
0
ARC
8
front_labelLayer
10
249.2864003
20
36.196163
40
4.1978887
50
188.9102454
51
205.3171387
0
ARC
8
front_labelLayer
10
250.7446186
20
36.4431364
40
5.6767915
50
179.774483
51
189.0932695
0
ARC
8
front_labelLayer
10
250.9597066
20
36.5053876
40
5.8919707
50
169.2442972
51
180.3880773
0
ARC
8
front_labelLayer
10
248.9588367
20
36.9008877
40
3.8524732
50
150.7111458
51
169.4695545
0
ARC
8
front_labelLayer
10
248.3201011
20
37.2289028
40
3.1350326
50
138.1759582
51
150.2287544
0
ARC
8
front_labelLayer
10
248.2138513
20
37.3104354
40
3.0015028
50
99.1759372
51
137.9832667
0
ARC
8
front_labelLayer
10
248.5062901
20
35.9341825
40
4.4073224
50
89.732647
51
100.0759761
0
ARC
8
front_labelLayer
10
248.564738
20
36.5285447
40
3.8131002
50
73.5222821
51
90.5692341
0
ARC
8
front_labelLayer
10
248.7883527
20
37.340999
40
2.9706297
50
41.144574
51
73.2133806
0
ARC
8
front_labelLayer
10
248.3614882
20
36.9741155
40
3.5334789
50
13.5014392
51
41.0703409
0
ARC
8
front_labelLayer
10
246.7122991
20
36.5425457
40
5.2379639
50
1.1277214
51
13.8799942
0
ARC
8
front_labelLayer
10
245.2917124
20
36.4664145
40
6.659948
50
359.9919625
51
1.5420266
0
ARC
8
front_labelLayer
10
251.9900172
20
36.4359914
40
5.7464406
50
179.705976
51
187.9160775
0
ARC
8
front_labelLayer
10
249.882404
20
36.1332362
40
3.6172277
50
187.7639454
51
200.0976771
0
ARC
8
front_labelLayer
10
248.7213248
20
35.7078162
40
2.3806654
50
200.0845957
51
216.9131344
0
ARC
8
front_labelLayer
10
248.2973369
20
35.4050701
40
1.8598792
50
217.3009555
51
261.7099096
0
ARC
8
front_labelLayer
10
248.4941656
20
36.3443229
40
2.8183221
50
260.5033339
51
270.2476575
0
ARC
8
front_labelLayer
10
248.5317333
20
36.1616718
40
2.6357669
50
269.4481633
51
284.7255819
0
ARC
8
front_labelLayer
10
248.7403908
20
35.3878289
40
1.83431
50
284.5662452
51
322.6333705
0
ARC
8
front_labelLayer
10
248.2525367
20
35.7402807
40
2.4360009
50
323.0089379
51
342.6390522
0
ARC
8
front_labelLayer
10
246.8571739
20
36.1963261
40
3.9039219
50
342.3615629
51
353.7537587
0
ARC
8
front_labelLayer
10
244.7985279
20
36.4444689
40
5.9773881
50
353.5363068
51
0.2014024
0
ARC
8
front_labelLayer
10
245.1139329
20
36.4943775
40
5.6620198
50
359.7075784
51
7.8972558
0
ARC
8
front_labelLayer
10
247.187523
20
36.7916427
40
3.5672649
50
7.7440168
51
20.0690008
0
ARC
8
front_labelLayer
10
248.3430162
20
37.2156645
40
2.3364301
50
20.0256952
51
37.4350367
0
ARC
8
front_labelLayer
10
248.7263964
20
37.4877042
40
1.8667248
50
37.9577773
51
80.4006162
0
ARC
8
front_labelLayer
10
248.5085353
20
36.5156275
40
2.8620059
50
79.3453524
51
90.3175004
0
ARC
8
front_labelLayer
10
248.4681951
20
36.6770826
40
2.700618
50
89.4806154
51
103.880483
0
ARC
8
front_labelLayer
10
248.2412735
20
37.541204
40
1.8073392
50
103.4685271
51
142.3118771
0
ARC
8
front_labelLayer
10
248.6824277
20
37.2309539
40
2.3462468
50
142.902585
51
162.3749539
0
ARC
8
front_labelLayer
10
250.0725135
20
36.7677137
40
3.8113983
50
162.065342
51
173.1674679
0
ARC
8
front_labelLayer
10
252.24
20
36.4912645
40
5.9964032
50
173.0086168
51
180.2463704
0
LINE
8
front_labelLayer
10
260.2026367
20
32.7125505
11
259.0678711
21
32.7125505
0
LINE
8
front_labelLayer
10
259.0678711
20
32.7125505
11
259.0678711
21
37.5592302
0
LINE
8
front_labelLayer
10
255.0756836
20
36.6432146
11
255.0756836
21
32.7125505
0
LINE
8
front_labelLayer
10
255.0756836
20
32.7125505
11
253.9409179
21
32.7125505
0
LINE
8
front_labelLayer
10
253.9409179
20
32.7125505
11
253.9409179
21
40.204738
0
LINE
8
front_labelLayer
10
253.9409179
20
40.204738
11
254.8637695
21
40.204738
0
LINE
8
front_labelLayer
10
254.8637695
20
40.204738
11
255.0483398
21
39.1793474
0
LINE
8
front_labelLayer
10
255.0483398
20
39.1793474
11
255.1030273
21
39.1793474
0
LINE
8
front_labelLayer
10
260.2026367
20
37.6002458
11
260.2026367
21
32.7125505
0
ARC
8
front_labelLayer
10
255.8602373
20
37.5776274
40
3.2076865
50
359.6713871
51
8.6877291
0
ARC
8
front_labelLayer
10
257.0490928
20
37.7661725
40
2.0040036
50
8.4931351
51
22.6580017
0
ARC
8
front_labelLayer
10
257.6531141
20
38.0171858
40
1.3499028
50
22.7024279
51
42.3419359
0
ARC
8
front_labelLayer
10
257.7210107
20
38.047728
40
1.2793555
50
43.3790815
51
71.5386109
0
ARC
8
front_labelLayer
10
257.4671182
20
37.3382894
40
2.0327477
50
71.0827832
51
84.3691443
0
ARC
8
front_labelLayer
10
257.3531482
20
36.3692952
40
3.0083048
50
84.0197753
51
90.1510991
0
ARC
8
front_labelLayer
10
257.3208382
20
35.9432535
40
3.4344226
50
89.5933257
51
100.371776
0
ARC
8
front_labelLayer
10
257.0781325
20
37.216661
40
2.1381479
50
100.1176748
51
118.160228
0
ARC
8
front_labelLayer
10
256.833546
20
37.6962799
40
1.5999069
50
118.5439802
51
139.1926479
0
ARC
8
front_labelLayer
10
257.0468069
20
37.5531808
40
1.8551042
50
140.1518875
51
160.314645
0
ARC
8
front_labelLayer
10
258.334655
20
37.0708072
40
3.23024
50
159.9534303
51
171.3801069
0
ARC
8
front_labelLayer
10
260.4383881
20
36.7326405
40
5.3609279
50
171.176589
51
178.3217552
0
ARC
8
front_labelLayer
10
262.3449679
20
36.6462219
40
7.269285
50
178.0810088
51
180.023703
0
ARC
8
front_labelLayer
10
257.0442179
20
37.9499266
40
2.297759
50
116.9443015
51
147.6525552
0
ARC
8
front_labelLayer
10
257.283655
20
37.5493656
40
2.7635174
50
115.8073672
51
117.6065612
0
ARC
8
front_labelLayer
10
257.4056534
20
37.2648153
40
3.0728312
50
94.3226649
51
115.5454386
0
ARC
8
front_labelLayer
10
257.4792022
20
36.6258222
40
3.7156356
50
89.9578812
51
94.7108953
0
ARC
8
front_labelLayer
10
257.5096
20
35.8612876
40
4.4802546
50
80.5585377
51
90.3538143
0
ARC
8
front_labelLayer
10
257.7895898
20
37.4830916
40
2.8345089
50
65.1094216
51
80.7638377
0
ARC
8
front_labelLayer
10
258.1168803
20
38.2080325
40
2.0391697
50
46.5584325
51
64.878223
0
ARC
8
front_labelLayer
10
258.1430759
20
38.2835479
40
1.9666027
50
19.3848669
51
45.5997074
0
ARC
8
front_labelLayer
10
257.0053257
20
37.856645
40
3.1816473
50
6.9633735
51
19.8363186
0
ARC
8
front_labelLayer
10
255.2505447
20
37.6207155
40
4.9521342
50
359.7631671
51
7.2115336
0
LINE
8
front_labelLayer
10
265.9790039
20
33.649074
11
265.9790039
21
32.7809099
0
LINE
8
front_labelLayer
10
262.6157226
20
34.8658708
11
262.6157226
21
39.3229021
0
LINE
8
front_labelLayer
10
262.6157226
20
39.3229021
11
261.5424804
21
39.3229021
0
LINE
8
front_labelLayer
10
261.5424804
20
39.3229021
11
261.5424804
21
39.8697771
0
LINE
8
front_labelLayer
10
261.5424804
20
39.8697771
11
262.6157226
21
40.3414568
0
LINE
8
front_labelLayer
10
262.6157226
20
40.3414568
11
263.0942383
21
41.9410662
0
LINE
8
front_labelLayer
10
263.0942383
20
41.9410662
11
263.7504883
21
41.9410662
0
LINE
8
front_labelLayer
10
263.7504883
20
41.9410662
11
263.7504883
21
40.204738
0
LINE
8
front_labelLayer
10
263.7504883
20
40.204738
11
265.9243164
21
40.204738
0
LINE
8
front_labelLayer
10
265.9243164
20
40.204738
11
265.9243164
21
39.3229021
0
LINE
8
front_labelLayer
10
265.9243164
20
39.3229021
11
263.7504883
21
39.3229021
0
LINE
8
front_labelLayer
10
263.7504883
20
39.3229021
11
263.7504883
21
34.9137224
0
ARC
8
front_labelLayer
10
264.9613968
20
37.2390513
40
3.7267042
50
269.880333
51
278.3028589
0
ARC
8
front_labelLayer
10
264.9968826
20
36.9490398
40
3.4346148
50
278.4157178
51
279.0083293
0
ARC
8
front_labelLayer
10
264.5786089
20
39.6211443
40
6.1392554
50
278.9590685
51
280.5103537
0
ARC
8
front_labelLayer
10
264.9771767
20
37.4825121
40
3.9638016
50
280.4848283
51
282.6267515
0
ARC
8
front_labelLayer
10
265.3266744
20
35.9297468
40
2.3721909
50
282.587809
51
285.5793814
0
ARC
8
front_labelLayer
10
265.5020656
20
35.2847602
40
1.7038017
50
285.7232732
51
286.2557847
0
ARC
8
front_labelLayer
10
265.5019164
20
33.7899767
40
1.1161667
50
287.9888515
51
295.3048159
0
ARC
8
front_labelLayer
10
265.2326961
20
34.6044989
40
1.9740213
50
283.3070047
51
288.1197382
0
ARC
8
front_labelLayer
10
264.9483011
20
35.7908232
40
3.1939546
50
280.0070333
51
283.3734583
0
ARC
8
front_labelLayer
10
264.7576604
20
36.8255623
40
4.2460865
50
279.1865642
51
280.114103
0
ARC
8
front_labelLayer
10
264.6412473
20
37.4876249
40
4.9182512
50
275.5259953
51
279.2939952
0
ARC
8
front_labelLayer
10
264.772858
20
36.1128997
40
3.5372414
50
270.8932023
51
275.5484028
0
ARC
8
front_labelLayer
10
264.7894062
20
35.4826413
40
2.9068095
50
270.0028502
51
270.7607212
0
ARC
8
front_labelLayer
10
264.7437588
20
35.5393148
40
2.9638368
50
253.7847806
51
270.8852679
0
ARC
8
front_labelLayer
10
264.392623
20
34.3418109
40
1.7159191
50
190.3817648
51
253.8772427
0
ARC
8
front_labelLayer
10
266.1823606
20
34.8257241
40
3.5668638
50
179.3550945
51
192.8477568
0
ARC
8
front_labelLayer
10
266.0354792
20
34.8994302
40
2.2850357
50
179.6416289
51
189.7505893
0
ARC
8
front_labelLayer
10
265.2288252
20
34.755554
40
1.4656766
50
189.5479729
51
205.7873393
0
ARC
8
front_labelLayer
10
264.8973137
20
34.6026834
40
1.1006946
50
206.1293965
51
221.4084054
0
ARC
8
front_labelLayer
10
264.8601461
20
34.5744819
40
1.0541708
50
221.5949335
51
262.350513
0
ARC
8
front_labelLayer
10
264.9485489
20
35.0290859
40
1.5167391
50
261.3266421
51
270.1913104
0
LINE
8
left_outsideCutPath
10
503
20
73
11
503
21
20.9268293
0
LINE
8
left_outsideCutPath
10
503
20
20.9268293
11
503
21
3
0
LINE
8
left_outsideCutPath
10
503
20
3
11
562.395122
21
3
0
LINE
8
left_outsideCutPath
10
562.395122
20
3
11
562.395122
21
5.8
0
LINE
8
left_outsideCutPath
10
562.395122
20
5.8
11
596.5414634
21
5.8
0
LINE
8
left_outsideCutPath
10
596.5414634
20
5.8
11
596.5414634
21
3
0
LINE
8
left_outsideCutPath
10
596.5414634
20
3
11
630.6878049
21
3
0
LINE
8
left_outsideCutPath
10
630.6878049
20
3
11
630.6878049
21
5.8
0
LINE
8
left_outsideCutPath
10
630.6878049
20
5.8
11
664.8341463
21
5.8
0
LINE
8
left_outsideCutPath
10
664.8341463
20
5.8
11
664.8341463
21
3
0
LINE
8
left_outsideCutPath
10
664.8341463
20
3
11
698.9804878
21
3
0
LINE
8
left_outsideCutPath
10
698.9804878
20
3
11
698.9804878
21
5.8
0
LINE
8
left_outsideCutPath
10
698.9804878
20
5.8
11
733.1268293
21
5.8
0
LINE
8
left_outsideCutPath
10
733.1268293
20
5.8
11
733.1268293
21
3
0
LINE
8
left_outsideCutPath
10
733.1268293
20
3
11
767.2731707
21
3
0
LINE
8
left_outsideCutPath
10
767.2731707
20
3
11
767.2731707
21
5.8
0
LINE
8
left_outsideCutPath
10
767.2731707
20
5.8
11
801.4195122
21
5.8
0
LINE
8
left_outsideCutPath
10
801.4195122
20
5.8
11
801.4195122
21
3
0
LINE
8
left_outsideCutPath
10
801.4195122
20
3
11
835.5658537
21
3
0
LINE
8
left_outsideCutPath
10
835.5658537
20
3
11
835.5658537
21
5.8
0
LINE
8
left_outsideCutPath
10
835.5658537
20
5.8
11
869.7121951
21
5.8
0
LINE
8
left_outsideCutPath
10
869.7121951
20
5.8
11
869.7121951
21
3
0
LINE
8
left_outsideCutPath
10
869.7121951
20
3
11
903.8585366
21
3
0
LINE
8
left_outsideCutPath
10
903.8585366
20
3
11
903.8585366
21
5.8
0
LINE
8
left_outsideCutPath
10
903.8585366
20
5.8
11
938.004878
21
5.8
0
LINE
8
left_outsideCutPath
10
938.004878
20
5.8
11
938.004878
21
3
0
LINE
8
left_outsideCutPath
10
938.004878
20
3
11
972.1512195
21
3
0
LINE
8
left_outsideCutPath
10
972.1512195
20
3
11
997.4
21
3
0
LINE
8
left_outsideCutPath
10
997.4
20
3
11
997.4
21
55.0731707
0
LINE
8
left_outsideCutPath
10
997.4
20
55.0731707
11
997.4
21
73
0
LINE
8
left_outsideCutPath
10
997.4
20
73
11
938.004878
21
73
0
LINE
8
left_outsideCutPath
10
938.004878
20
73
11
938.004878
21
70.2
0
LINE
8
left_outsideCutPath
10
938.004878
20
70.2
11
903.8585366
21
70.2
0
LINE
8
left_outsideCutPath
10
903.8585366
20
70.2
11
903.8585366
21
73
0
LINE
8
left_outsideCutPath
10
903.8585366
20
73
11
869.7121951
21
73
0
LINE
8
left_outsideCutPath
10
869.7121951
20
73
11
869.7121951
21
70.2
0
LINE
8
left_outsideCutPath
10
869.7121951
20
70.2
11
835.5658537
21
70.2
0
LINE
8
left_outsideCutPath
10
835.5658537
20
70.2
11
835.5658537
21
73
0
LINE
8
left_outsideCutPath
10
835.5658537
20
73
11
801.4195122
21
73
0
LINE
8
left_outsideCutPath
10
801.4195122
20
73
11
801.4195122
21
70.2
0
LINE
8
left_outsideCutPath
10
801.4195122
20
70.2
11
767.2731707
21
70.2
0
LINE
8
left_outsideCutPath
10
767.2731707
20
70.2
11
767.2731707
21
73
0
LINE
8
left_outsideCutPath
10
767.2731707
20
73
11
733.1268293
21
73
0
LINE
8
left_outsideCutPath
10
733.1268293
20
73
11
733.1268293
21
70.2
0
LINE
8
left_outsideCutPath
10
733.1268293
20
70.2
11
698.9804878
21
70.2
0
LINE
8
left_outsideCutPath
10
698.9804878
20
70.2
11
698.9804878
21
73
0
LINE
8
left_outsideCutPath
10
698.9804878
20
73
11
664.8341463
21
73
0
LINE
8
left_outsideCutPath
10
664.8341463
20
73
11
664.8341463
21
70.2
0
LINE
8
left_outsideCutPath
10
664.8341463
20
70.2
11
630.6878049
21
70.2
0
LINE
8
left_outsideCutPath
10
630.6878049
20
70.2
11
630.6878049
21
73
0
LINE
8
left_outsideCutPath
10
630.6878049
20
73
11
596.5414634
21
73
0
LINE
8
left_outsideCutPath
10
596.5414634
20
73
11
596.5414634
21
70.2
0
LINE
8
left_outsideCutPath
10
596.5414634
20
70.2
11
562.395122
21
70.2
0
LINE
8
left_outsideCutPath
10
562.395122
20
70.2
11
562.395122
21
73
0
LINE
8
left_outsideCutPath
10
562.395122
20
73
11
528.2487805
21
73
0
LINE
8
left_outsideCutPath
10
528.2487805
20
73
11
503
21
73
0
LINE
8
left_labelLayer
10
741.5422851
20
43.3492693
11
741.5422851
21
32.7125505
0
LINE
8
left_labelLayer
10
741.5422851
20
32.7125505
11
740.4075195
21
32.7125505
0
LINE
8
left_labelLayer
10
740.4075195
20
32.7125505
11
740.4075195
21
43.3492693
0
LINE
8
left_labelLayer
10
740.4075195
20
43.3492693
11
741.5422851
21
43.3492693
0
LINE
8
left_labelLayer
10
749.868457
20
36.9713396
11
749.868457
21
36.2535662
0
LINE
8
left_labelLayer
10
749.868457
20
36.2535662
11
744.7073242
21
36.2535662
0
LINE
8
left_labelLayer
10
749.5471679
20
34.0729021
11
749.5471679
21
33.0611833
0
LINE
8
left_labelLayer
10
744.7346679
20
37.1764177
11
748.6516601
21
37.1764177
0
ARC
8
left_labelLayer
10
747.0762619
20
36.9853138
40
4.4096399
50
256.0087726
51
270.4848157
0
ARC
8
left_labelLayer
10
746.7551534
20
35.7387102
40
3.1224009
50
223.5465853
51
256.1956961
0
ARC
8
left_labelLayer
10
746.932292
20
35.8674565
40
3.3396159
50
194.0877148
51
223.0538222
0
ARC
8
left_labelLayer
10
748.5553943
20
36.3113152
40
5.0220656
50
181.3574649
51
194.4919866
0
ARC
8
left_labelLayer
10
750.0133761
20
36.3958441
40
6.4818333
50
179.9887139
51
181.7991367
0
ARC
8
left_labelLayer
10
749.4900409
20
36.4370906
40
5.958632
50
168.9539236
51
180.3843356
0
ARC
8
left_labelLayer
10
747.543981
20
36.8333413
40
3.9727375
50
149.4071081
51
169.1853678
0
ARC
8
left_labelLayer
10
747.0017586
20
37.1198296
40
3.3603139
50
140.1055833
51
148.9067461
0
ARC
8
left_labelLayer
10
746.6686595
20
37.4269348
40
2.9078647
50
92.4762642
51
140.5386399
0
ARC
8
left_labelLayer
10
746.8170955
20
36.330022
40
4.0114357
50
89.9638161
51
93.9176498
0
ARC
8
left_labelLayer
10
746.8525134
20
36.8844127
40
3.4572005
50
74.2126017
51
90.5449991
0
ARC
8
left_labelLayer
10
747.0690481
20
37.6822239
40
2.6305864
50
41.2064794
51
74.0232656
0
ARC
8
left_labelLayer
10
746.6589743
20
37.3273357
40
3.1728943
50
11.5994196
51
41.1496074
0
ARC
8
left_labelLayer
10
745.2499721
20
37.0023924
40
4.6185892
50
359.6147719
51
12.0336375
0
ARC
8
left_labelLayer
10
749.2609322
20
36.3445528
40
4.5545169
50
181.1446877
51
190.8007182
0
ARC
8
left_labelLayer
10
747.6541611
20
36.0276518
40
2.9168424
50
190.6005858
51
206.0275174
0
ARC
8
left_labelLayer
10
746.9432574
20
35.691568
40
2.1305849
50
206.2950165
51
222.5558023
0
ARC
8
left_labelLayer
10
746.8802668
20
35.6585875
40
2.0619611
50
223.0645067
51
258.1401454
0
ARC
8
left_labelLayer
10
747.1310385
20
36.691171
40
3.124217
50
257.5312068
51
270.4319176
0
ARC
8
left_labelLayer
10
747.133836
20
39.5603327
40
5.9933259
50
270.1984057
51
292.2090353
0
ARC
8
left_labelLayer
10
746.8459505
20
40.3870665
40
6.8676959
50
291.8255403
51
293.1613769
0
ARC
8
left_labelLayer
10
746.8322482
20
39.3091963
40
6.8123751
50
287.9022912
51
293.4861663
0
ARC
8
left_labelLayer
10
747.3264065
20
37.7845472
40
5.2096449
50
281.9936107
51
287.8850986
0
ARC
8
left_labelLayer
10
747.4461851
20
37.3540442
40
4.7637297
50
275.9054696
51
281.6603956
0
ARC
8
left_labelLayer
10
747.2064316
20
39.5919369
40
7.0144182
50
271.9119517
51
275.9726943
0
ARC
8
left_labelLayer
10
747.1189064
20
41.8213782
40
9.245548
50
269.9669556
51
271.9930979
0
ARC
8
left_labelLayer
10
746.784182
20
37.1544774
40
2.2368901
50
89.442246
51
106.2089531
0
ARC
8
left_labelLayer
10
746.6496076
20
37.6451566
40
1.7281675
50
106.4656868
51
137.9176544
0
ARC
8
left_labelLayer
10
747.0354341
20
37.3063359
40
2.2416093
50
138.0994736
51
160.5866397
0
ARC
8
left_labelLayer
10
748.027206
20
36.9414803
40
3.2982971
50
160.3353523
51
172.5315129
0
ARC
8
left_labelLayer
10
749.0034818
20
36.7850435
40
4.2867173
50
172.154426
51
174.7616419
0
ARC
8
left_labelLayer
10
744.784841
20
37.1983832
40
3.8668816
50
359.6745349
51
8.9224611
0
ARC
8
left_labelLayer
10
746.1665675
20
37.4235152
40
2.4669711
50
8.7342183
51
23.2771808
0
ARC
8
left_labelLayer
10
746.8225242
20
37.6988681
40
1.7556041
50
23.4821513
51
39.7071819
0
ARC
8
left_labelLayer
10
746.9836542
20
37.8194454
40
1.5546442
50
40.0822796
51
80.6243371
0
ARC
8
left_labelLayer
10
746.8178028
20
37.0591829
40
2.3321085
50
79.6468703
51
90.2910314
0
LINE
8
left_labelLayer
10
755.1799804
20
40.204738
11
755.1799804
21
39.3229021
0
LINE
8
left_labelLayer
10
755.1799804
20
39.3229021
11
753.2727539
21
39.3229021
0
LINE
8
left_labelLayer
10
753.2727539
20
39.3229021
11
753.2727539
21
32.7125505
0
LINE
8
left_labelLayer
10
753.2727539
20
32.7125505
11
752.1379883
21
32.7125505
0
LINE
8
left_labelLayer
10
752.1379883
20
32.7125505
11
752.1379883
21
39.3229021
0
LINE
8
left_labelLayer
10
752.1379883
20
39.3229021
11
750.7981445
21
39.3229021
0
LINE
8
left_labelLayer
10
750.7981445
20
39.3229021
11
750.7981445
21
39.8355974
0
LINE
8
left_labelLayer
10
750.7981445
20
39.8355974
11
752.1379883
21
40.2457537
0
LINE
8
left_labelLayer
10
752.1379883
20
40.2457537
11
752.1379883
21
40.6627458
0
LINE
8
left_labelLayer
10
755.9456054
20
43.1852068
11
755.6516601
21
42.2760271
0
LINE
8
left_labelLayer
10
753.2727539
20
40.6900896
11
753.2727539
21
40.204738
0
LINE
8
left_labelLayer
10
753.2727539
20
40.204738
11
755.1799804
21
40.204738
0
ARC
8
left_labelLayer
10
756.7368047
20
40.7156153
40
4.5991203
50
167.5776087
51
180.6586619
0
ARC
8
left_labelLayer
10
754.5741426
20
41.2198223
40
2.3787816
50
141.7433856
51
168.2322179
0
ARC
8
left_labelLayer
10
754.2220196
20
41.4036041
40
1.9898496
50
98.2551562
51
139.6203409
0
ARC
8
left_labelLayer
10
754.5311887
20
39.9753719
40
3.4491501
50
89.6696689
51
99.9314626
0
ARC
8
left_labelLayer
10
754.5320508
20
39.7703003
40
3.6542138
50
81.5640841
51
89.7017242
0
ARC
8
left_labelLayer
10
754.2751551
20
37.978047
40
5.4647706
50
75.9739939
51
81.6564835
0
ARC
8
left_labelLayer
10
753.834264
20
36.1493399
40
7.3458279
50
73.2964127
51
76.0946049
0
ARC
8
left_labelLayer
10
753.9453358
20
37.0365469
40
5.5103263
50
71.9612942
51
76.5918413
0
ARC
8
left_labelLayer
10
754.372823
20
38.8499937
40
3.6471833
50
76.5183428
51
83.0216867
0
ARC
8
left_labelLayer
10
754.5217381
20
40.0475626
40
2.4403946
50
83.0760388
51
89.792729
0
ARC
8
left_labelLayer
10
754.5168354
20
40.9576468
40
1.5303559
50
89.485912
51
103.4197276
0
ARC
8
left_labelLayer
10
754.3788628
20
41.4877239
40
0.9827945
50
102.7677244
51
144.3380364
0
ARC
8
left_labelLayer
10
754.6568171
20
41.3088854
40
1.3129943
50
145.0688437
51
162.1802081
0
ARC
8
left_labelLayer
10
755.60985
20
40.9882373
40
2.3184702
50
161.8437796
51
171.7846758
0
ARC
8
left_labelLayer
10
757.1642416
20
40.7547735
40
3.8902815
50
171.6527826
51
178.4383421
0
ARC
8
left_labelLayer
10
758.6302057
20
40.6922562
40
5.3574523
50
178.1972574
51
180.0231708
0
LINE
8
left_labelLayer
10
759.9924804
20
33.649074
11
759.9924804
21
32.7809099
0
LINE
8
left_labelLayer
10
756.6291992
20
34.8658708
11
756.6291992
21
39.3229021
0
LINE
8
left_labelLayer
10
756.6291992
20
39.3229021
11
755.555957
21
39.3229021
0
LINE
8
left_labelLayer
10
755.555957
20
39.3229021
11
755.555957
21
39.8697771
0
LINE
8
left_labelLayer
10
755.555957
20
39.8697771
11
756.6291992
21
40.3414568
0
LINE
8
left_labelLayer
10
756.6291992
20
40.3414568
11
757.1077148
21
41.9410662
0
LINE
8
left_labelLayer
10
757.1077148
20
41.9410662
11
757.7639648
21
41.9410662
0
LINE
8
left_labelLayer
10
757.7639648
20
41.9410662
11
757.7639648
21
40.204738
0
LINE
8
left_labelLayer
10
757.7639648
20
40.204738
11
759.9377929
21
40.204738
0
LINE
8
left_labelLayer
10
759.9377929
20
40.204738
11
759.9377929
21
39.3229021
0
LINE
8
left_labelLayer
10
759.9377929
20
39.3229021
11
757.7639648
21
39.3229021
0
LINE
8
left_labelLayer
10
757.7639648
20
39.3229021
11
757.7639648
21
34.9137224
0
ARC
8
left_labelLayer
10
758.9748733
20
37.2390513
40
3.7267042
50
269.880333
51
278.3028589
0
ARC
8
left_labelLayer
10
759.0103592
20
36.9490398
40
3.4346148
50
278.4157178
51
279.0083293
0
ARC
8
left_labelLayer
10
758.5920854
20
39.6211443
40
6.1392554
50
278.9590685
51
280.5103537
0
ARC
8
left_labelLayer
10
758.9906533
20
37.4825121
40
3.9638016
50
280.4848283
51
282.6267515
0
ARC
8
left_labelLayer
10
759.340151
20
35.9297468
40
2.3721909
50
282.587809
51
285.5793814
0
ARC
8
left_labelLayer
10
759.5155422
20
35.2847602
40
1.7038017
50
285.7232732
51
286.2557847
0
ARC
8
left_labelLayer
10
759.515393
20
33.7899767
40
1.1161667
50
287.9888515
51
295.3048159
0
ARC
8
left_labelLayer
10
759.2461727
20
34.6044989
40
1.9740213
50
283.3070047
51
288.1197382
0
ARC
8
left_labelLayer
10
758.9617777
20
35.7908232
40
3.1939546
50
280.0070333
51
283.3734583
0
ARC
8
left_labelLayer
10
758.771137
20
36.8255623
40
4.2460865
50
279.1865642
51
280.114103
0
ARC
8
left_labelLayer
10
758.6547239
20
37.4876249
40
4.9182512
50
275.5259953
51
279.2939952
0
ARC
8
left_labelLayer
10
758.7863346
20
36.1128997
40
3.5372414
50
270.8932023
51
275.5484028
0
ARC
8
left_labelLayer
10
758.8028827
20
35.4826413
40
2.9068095
50
270.0028502
51
270.7607212
0
ARC
8
left_labelLayer
10
758.7572354
20
35.5393148
40
2.9638368
50
253.7847806
51
270.8852679
0
ARC
8
left_labelLayer
10
758.4060996
20
34.3418109
40
1.7159191
50
190.3817648
51
253.8772427
0
ARC
8
left_labelLayer
10
760.1958371
20
34.8257241
40
3.5668638
50
179.3550945
51
192.8477568
0
ARC
8
left_labelLayer
10
760.0489558
20
34.8994302
40
2.2850357
50
179.6416289
51
189.7505893
0
ARC
8
left_labelLayer
10
759.2423017
20
34.755554
40
1.4656766
50
189.5479729
51
205.7873393
0
ARC
8
left_labelLayer
10
758.9107902
20
34.6026834
40
1.1006946
50
206.1293965
51
221.4084054
0
ARC
8
left_labelLayer
10
758.8736227
20
34.5744819
40
1.0541708
50
221.5949335
51
262.350513
0
ARC
8
left_labelLayer
10
758.9620254
20
35.0290859
40
1.5167391
50
261.3266421
51
270.1913104
0
LINE
8
top_outsideCutPath
10
1003.2
20
500.2
11
1003.2
21
440.804878
0
LINE
8
top_outsideCutPath
10
1003.2
20
440.804878
11
1000.4
21
440.804878
0
LINE
8
top_outsideCutPath
10
1000.4
20
440.804878
11
1000.4
21
406.6585366
0
LINE
8
top_outsideCutPath
10
1000.4
20
406.6585366
11
1003.2
21
406.6585366
0
LINE
8
top_outsideCutPath
10
1003.2
20
406.6585366
11
1003.2
21
372.5121951
0
LINE
8
top_outsideCutPath
10
1003.2
20
372.5121951
11
1000.4
21
372.5121951
0
LINE
8
top_outsideCutPath
10
1000.4
20
372.5121951
11
1000.4
21
338.3658537
0
LINE
8
top_outsideCutPath
10
1000.4
20
338.3658537
11
1003.2
21
338.3658537
0
LINE
8
top_outsideCutPath
10
1003.2
20
338.3658537
11
1003.2
21
304.2195122
0
LINE
8
top_outsideCutPath
10
1003.2
20
304.2195122
11
1000.4
21
304.2195122
0
LINE
8
top_outsideCutPath
10
1000.4
20
304.2195122
11
1000.4
21
270.0731707
0
LINE
8
top_outsideCutPath
10
1000.4
20
270.0731707
11
1003.2
21
270.0731707
0
LINE
8
top_outsideCutPath
10
1003.2
20
270.0731707
11
1003.2
21
235.9268293
0
LINE
8
top_outsideCutPath
10
1003.2
20
235.9268293
11
1000.4
21
235.9268293
0
LINE
8
top_outsideCutPath
10
1000.4
20
235.9268293
11
1000.4
21
201.7804878
0
LINE
8
top_outsideCutPath
10
1000.4
20
201.7804878
11
1003.2
21
201.7804878
0
LINE
8
top_outsideCutPath
10
1003.2
20
201.7804878
11
1003.2
21
167.6341463
0
LINE
8
top_outsideCutPath
10
1003.2
20
167.6341463
11
1000.4
21
167.6341463
0
LINE
8
top_outsideCutPath
10
1000.4
20
167.6341463
11
1000.4
21
133.4878049
0
LINE
8
top_outsideCutPath
10
1000.4
20
133.4878049
11
1003.2
21
133.4878049
0
LINE
8
top_outsideCutPath
10
1003.2
20
133.4878049
11
1003.2
21
99.3414634
0
LINE
8
top_outsideCutPath
10
1003.2
20
99.3414634
11
1000.4
21
99.3414634
0
LINE
8
top_outsideCutPath
10
1000.4
20
99.3414634
11
1000.4
21
65.195122
0
LINE
8
top_outsideCutPath
10
1000.4
20
65.195122
11
1003.2
21
65.195122
0
LINE
8
top_outsideCutPath
10
1003.2
20
65.195122
11
1003.2
21
31.0487805
0
LINE
8
top_outsideCutPath
10
1003.2
20
31.0487805
11
1003.2
21
5.8
0
LINE
8
top_outsideCutPath
10
1003.2
20
5.8
11
1062.595122
21
5.8
0
LINE
8
top_outsideCutPath
10
1062.595122
20
5.8
11
1062.595122
21
3
0
LINE
8
top_outsideCutPath
10
1062.595122
20
3
11
1096.7414634
21
3
0
LINE
8
top_outsideCutPath
10
1096.7414634
20
3
11
1096.7414634
21
5.8
0
LINE
8
top_outsideCutPath
10
1096.7414634
20
5.8
11
1130.8878049
21
5.8
0
LINE
8
top_outsideCutPath
10
1130.8878049
20
5.8
11
1130.8878049
21
3
0
LINE
8
top_outsideCutPath
10
1130.8878049
20
3
11
1165.0341463
21
3
0
LINE
8
top_outsideCutPath
10
1165.0341463
20
3
11
1165.0341463
21
5.8
0
LINE
8
top_outsideCutPath
10
1165.0341463
20
5.8
11
1199.1804878
21
5.8
0
LINE
8
top_outsideCutPath
10
1199.1804878
20
5.8
11
1199.1804878
21
3
0
LINE
8
top_outsideCutPath
10
1199.1804878
20
3
11
1233.3268293
21
3
0
LINE
8
top_outsideCutPath
10
1233.3268293
20
3
11
1233.3268293
21
5.8
0
LINE
8
top_outsideCutPath
10
1233.3268293
20
5.8
11
1267.4731707
21
5.8
0
LINE
8
top_outsideCutPath
10
1267.4731707
20
5.8
11
1267.4731707
21
3
0
LINE
8
top_outsideCutPath
10
1267.4731707
20
3
11
1301.6195122
21
3
0
LINE
8
top_outsideCutPath
10
1301.6195122
20
3
11
1301.6195122
21
5.8
0
LINE
8
top_outsideCutPath
10
1301.6195122
20
5.8
11
1335.7658537
21
5.8
0
LINE
8
top_outsideCutPath
10
1335.7658537
20
5.8
11
1335.7658537
21
3
0
LINE
8
top_outsideCutPath
10
1335.7658537
20
3
11
1369.9121951
21
3
0
LINE
8
top_outsideCutPath
10
1369.9121951
20
3
11
1369.9121951
21
5.8
0
LINE
8
top_outsideCutPath
10
1369.9121951
20
5.8
11
1404.0585366
21
5.8
0
LINE
8
top_outsideCutPath
10
1404.0585366
20
5.8
11
1404.0585366
21
3
0
LINE
8
top_outsideCutPath
10
1404.0585366
20
3
11
1438.204878
21
3
0
LINE
8
top_outsideCutPath
10
1438.204878
20
3
11
1438.204878
21
5.8
0
LINE
8
top_outsideCutPath
10
1438.204878
20
5.8
11
1472.3512195
21
5.8
0
LINE
8
top_outsideCutPath
10
1472.3512195
20
5.8
11
1497.6
21
5.8
0
LINE
8
top_outsideCutPath
10
1497.6
20
5.8
11
1497.6
21
65.195122
0
LINE
8
top_outsideCutPath
10
1497.6
20
65.195122
11
1500.4
21
65.195122
0
LINE
8
top_outsideCutPath
10
1500.4
20
65.195122
11
1500.4
21
99.3414634
0
LINE
8
top_outsideCutPath
10
1500.4
20
99.3414634
11
1497.6
21
99.3414634
0
LINE
8
top_outsideCutPath
10
1497.6
20
99.3414634
11
1497.6
21
133.4878049
0
LINE
8
top_outsideCutPath
10
1497.6
20
133.4878049
11
1500.4
21
133.4878049
0
LINE
8
top_outsideCutPath
10
1500.4
20
133.4878049
11
1500.4
21
167.6341463
0
LINE
8
top_outsideCutPath
10
1500.4
20
167.6341463
11
1497.6
21
167.6341463
0
LINE
8
top_outsideCutPath
10
1497.6
20
167.6341463
11
1497.6
21
201.7804878
0
LINE
8
top_outsideCutPath
10
1497.6
20
201.7804878
11
1500.4
21
201.7804878
0
LINE
8
top_outsideCutPath
10
1500.4
20
201.7804878
11
1500.4
21
235.9268293
0
LINE
8
top_outsideCutPath
10
1500.4
20
235.9268293
11
1497.6
21
235.9268293
0
LINE
8
top_outsideCutPath
10
1497.6
20
235.9268293
11
1497.6
21
270.0731707
0
LINE
8
top_outsideCutPath
10
1497.6
20
270.0731707
11
1500.4
21
270.0731707
0
LINE
8
top_outsideCutPath
10
1500.4
20
270.0731707
11
1500.4
21
304.2195122
0
LINE
8
top_outsideCutPath
10
1500.4
20
304.2195122
11
1497.6
21
304.2195122
0
LINE
8
top_outsideCutPath
10
1497.6
20
304.2195122
11
1497.6
21
338.3658537
0
LINE
8
top_outsideCutPath
10
1497.6
20
338.3658537
11
1500.4
21
338.3658537
0
LINE
8
top_outsideCutPath
10
1500.4
20
338.3658537
11
1500.4
21
372.5121951
0
LINE
8
top_outsideCutPath
10
1500.4
20
372.5121951
11
1497.6
21
372.5121951
0
LINE
8
top_outsideCutPath
10
1497.6
20
372.5121951
11
1497.6
21
406.6585366
0
LINE
8
top_outsideCutPath
10
1497.6
20
406.6585366
11
1500.4
21
406.6585366
0
LINE
8
top_outsideCutPath
10
1500.4
20
406.6585366
11
1500.4
21
440.804878
0
LINE
8
top_outsideCutPath
10
1500.4
20
440.804878
11
1497.6
21
440.804878
0
LINE
8
top_outsideCutPath
10
1497.6
20
440.804878
11
1497.6
21
474.9512195
0
LINE
8
top_outsideCutPath
10
1497.6
20
474.9512195
11
1497.6
21
500.2
0
LINE
8
top_outsideCutPath
10
1497.6
20
500.2
11
1438.204878
21
500.2
0
LINE
8
top_outsideCutPath
10
1438.204878
20
500.2
11
1438.204878
21
503
0
LINE
8
top_outsideCutPath
10
1438.204878
20
503
11
1404.0585366
21
503
0
LINE
8
top_outsideCutPath
10
1404.0585366
20
503
11
1404.0585366
21
500.2
0
LINE
8
top_outsideCutPath
10
1404.0585366
20
500.2
11
1369.9121951
21
500.2
0
LINE
8
top_outsideCutPath
10
1369.9121951
20
500.2
11
1369.9121951
21
503
0
LINE
8
top_outsideCutPath
10
1369.9121951
20
503
11
1335.7658537
21
503
0
LINE
8
top_outsideCutPath
10
1335.7658537
20
503
11
1335.7658537
21
500.2
0
LINE
8
top_outsideCutPath
10
1335.7658537
20
500.2
11
1301.6195122
21
500.2
0
LINE
8
top_outsideCutPath
10
1301.6195122
20
500.2
11
1301.6195122
21
503
0
LINE
8
top_outsideCutPath
10
1301.6195122
20
503
11
1267.4731707
21
503
0
LINE
8
top_outsideCutPath
10
1267.4731707
20
503
11
1267.4731707
21
500.2
0
LINE
8
top_outsideCutPath
10
1267.4731707
20
500.2
11
1233.3268293
21
500.2
0
LINE
8
top_outsideCutPath
10
1233.3268293
20
500.2
11
1233.3268293
21
503
0
LINE
8
top_outsideCutPath
10
1233.3268293
20
503
11
1199.1804878
21
503
0
LINE
8
top_outsideCutPath
10
1199.1804878
20
503
11
1199.1804878
21
500.2
0
LINE
8
top_outsideCutPath
10
1199.1804878
20
500.2
11
1165.0341463
21
500.2
0
LINE
8
top_outsideCutPath
10
1165.0341463
20
500.2
11
1165.0341463
21
503
0
LINE
8
top_outsideCutPath
10
1165.0341463
20
503
11
1130.8878049
21
503
0
LINE
8
top_outsideCutPath
10
1130.8878049
20
503
11
1130.8878049
21
500.2
0
LINE
8
top_outsideCutPath
10
1130.8878049
20
500.2
11
1096.7414634
21
500.2
0
LINE
8
top_outsideCutPath
10
1096.7414634
20
500.2
11
1096.7414634
21
503
0
LINE
8
top_outsideCutPath
10
1096.7414634
20
503
11
1062.595122
21
503
0
LINE
8
top_outsideCutPath
10
1062.595122
20
503
11
1062.595122
21
500.2
0
LINE
8
top_outsideCutPath
10
1062.595122
20
500.2
11
1028.4487805
21
500.2
0
LINE
8
top_outsideCutPath
10
1028.4487805
20
500.2
11
1003.2
21
500.2
0
LINE
8
top_labelLayer
10
1207.1378677
20
238.7421875
11
1207.1378677
21
232.5410156
0
LINE
8
top_labelLayer
10
1183.1144302
20
247.4335938
11
1183.1144302
21
279.2695313
0
LINE
8
top_labelLayer
10
1183.1144302
20
279.2695313
11
1175.4484146
21
279.2695313
0
LINE
8
top_labelLayer
10
1175.4484146
20
279.2695313
11
1175.4484146
21
283.1757813
0
LINE
8
top_labelLayer
10
1175.4484146
20
283.1757813
11
1183.1144302
21
286.5449219
0
LINE
8
top_labelLayer
10
1183.1144302
20
286.5449219
11
1186.532399
21
297.9707031
0
LINE
8
top_labelLayer
10
1186.532399
20
297.9707031
11
1191.219899
21
297.9707031
0
LINE
8
top_labelLayer
10
1191.219899
20
297.9707031
11
1191.219899
21
285.5683594
0
LINE
8
top_labelLayer
10
1191.219899
20
285.5683594
11
1206.7472427
21
285.5683594
0
LINE
8
top_labelLayer
10
1206.7472427
20
285.5683594
11
1206.7472427
21
279.2695313
0
LINE
8
top_labelLayer
10
1206.7472427
20
279.2695313
11
1191.219899
21
279.2695313
0
LINE
8
top_labelLayer
10
1191.219899
20
279.2695313
11
1191.219899
21
247.7753906
0
ARC
8
top_labelLayer
10
1199.8692366
20
264.3850315
40
26.6194645
50
269.880353
51
278.3028319
0
ARC
8
top_labelLayer
10
1200.1219606
20
262.3190404
40
24.5386807
50
278.4155255
51
279.0079989
0
ARC
8
top_labelLayer
10
1197.1357561
20
281.3957246
40
43.8476555
50
278.9589883
51
280.510421
0
ARC
8
top_labelLayer
10
1199.9822894
20
266.1222367
40
28.3111843
50
280.4847796
51
282.6268302
0
ARC
8
top_labelLayer
10
1202.4787478
20
255.031218
40
16.9426852
50
282.5876655
51
285.5795091
0
ARC
8
top_labelLayer
10
1203.7305172
20
250.4274778
40
12.1719368
50
285.723895
51
286.2563222
0
ARC
8
top_labelLayer
10
1203.7301112
20
239.7486159
40
7.9725972
50
287.9888198
51
295.3048044
0
ARC
8
top_labelLayer
10
1201.8072055
20
245.5662855
40
14.0997709
50
283.3069213
51
288.1197849
0
ARC
8
top_labelLayer
10
1199.7758337
20
254.0397625
40
22.8133151
50
280.0069919
51
283.3735123
0
ARC
8
top_labelLayer
10
1198.4168096
20
261.4148936
40
30.3124538
50
279.1862731
51
280.114324
0
ARC
8
top_labelLayer
10
1197.582365
20
266.1611889
40
35.1311524
50
275.5260332
51
279.2939486
0
ARC
8
top_labelLayer
10
1198.5225121
20
256.3413415
40
25.2664099
50
270.8932519
51
275.5483788
0
ARC
8
top_labelLayer
10
1198.6406166
20
251.8555489
40
20.779377
50
270.0031911
51
270.7604621
0
ARC
8
top_labelLayer
10
1198.3146939
20
252.2439473
40
21.1703023
50
253.7847968
51
270.8852519
0
ARC
8
top_labelLayer
10
1195.8065761
20
243.6903088
40
12.2565651
50
190.3817651
51
253.8772409
0
ARC
8
top_labelLayer
10
1208.5904013
20
247.1468306
40
25.4775849
50
179.3550934
51
192.8477632
0
ARC
8
top_labelLayer
10
1207.54131
20
247.6733105
40
16.3217303
50
179.6416557
51
189.7505868
0
ARC
8
top_labelLayer
10
1201.7794276
20
246.64561
40
10.4690967
50
189.5479566
51
205.7873567
0
ARC
8
top_labelLayer
10
1199.4115287
20
245.5536985
40
7.8621287
50
206.1294332
51
221.4083941
0
ARC
8
top_labelLayer
10
1199.1460256
20
245.35224
40
7.5297883
50
221.5949173
51
262.3505176
0
ARC
8
top_labelLayer
10
1199.7774736
20
248.5993714
40
10.8338067
50
261.3266132
51
270.1913178
0
ARC
8
top_labelLayer
10
1222.1555241
20
258.5771197
40
41.8680606
50
349.1761914
51
0.3862648
0
ARC
8
top_labelLayer
10
1236.2515085
20
255.7670579
40
27.4953857
50
330.2507059
51
349.4116472
0
ARC
8
top_labelLayer
10
1240.5895422
20
253.5123186
40
22.6111094
50
318.1439739
51
329.7566225
0
ARC
8
top_labelLayer
10
1241.3724931
20
252.8848613
40
21.6093412
50
278.895918
51
317.9979127
0
ARC
8
top_labelLayer
10
1239.3551206
20
262.550269
40
31.4743961
50
269.7502871
51
279.8033249
0
ARC
8
top_labelLayer
10
1239.0279422
20
257.1044151
40
26.0289367
50
253.5436958
51
270.4182462
0
ARC
8
top_labelLayer
10
1238.1614937
20
253.7527671
40
22.5694454
50
238.8115558
51
253.2428321
0
ARC
8
top_labelLayer
10
1237.8818564
20
253.1904179
40
21.9436234
50
207.7947013
51
238.6757967
0
ARC
8
top_labelLayer
10
1241.8945563
20
255.6479889
40
26.6410536
50
205.6560265
51
208.4461177
0
ARC
8
top_labelLayer
10
1244.9850536
20
256.9356797
40
29.9849102
50
188.9102462
51
205.3171448
0
ARC
8
top_labelLayer
10
1255.4007788
20
258.6997681
40
40.5483817
50
179.7744713
51
189.0932876
0
ARC
8
top_labelLayer
10
1256.9372336
20
259.1444282
40
42.0854875
50
169.2442938
51
180.3880785
0
ARC
8
top_labelLayer
10
1242.6453425
20
261.9694197
40
27.5176864
50
150.7111503
51
169.4695447
0
ARC
8
top_labelLayer
10
1238.0829294
20
264.3123836
40
22.3930975
50
138.1759462
51
150.2287379
0
ARC
8
top_labelLayer
10
1237.3239975
20
264.8947743
40
21.4393011
50
99.175936
51
137.9832744
0
ARC
8
top_labelLayer
10
1239.4128418
20
255.0644286
40
31.480836
50
89.7326363
51
100.0759779
0
ARC
8
top_labelLayer
10
1239.8303273
20
259.3098315
40
27.2364345
50
73.5222743
51
90.5692232
0
ARC
8
top_labelLayer
10
1241.4275833
20
265.1130868
40
21.2187771
50
41.1445665
51
73.213383
0
ARC
8
top_labelLayer
10
1238.3785527
20
262.4924865
40
25.2391297
50
13.5014357
51
41.070343
0
ARC
8
top_labelLayer
10
1226.5986545
20
259.4098446
40
37.4139996
50
1.1277189
51
13.8800014
0
ARC
8
top_labelLayer
10
1216.452268
20
258.8661072
40
47.5703657
50
359.9918914
51
1.5419781
0
ARC
8
top_labelLayer
10
1264.2965235
20
258.6487304
40
41.0459151
50
179.705961
51
187.9160805
0
ARC
8
top_labelLayer
10
1249.2421763
20
256.486188
40
25.8372832
50
187.7639281
51
200.0976876
0
ARC
8
top_labelLayer
10
1240.9487838
20
253.4474785
40
17.0047248
50
200.084593
51
216.9131589
0
ARC
8
top_labelLayer
10
1237.920324
20
251.2850169
40
13.2848511
50
217.3009551
51
261.7099103
0
ARC
8
top_labelLayer
10
1239.326238
20
257.9938924
40
20.1307993
50
260.5033169
51
270.2476758
0
ARC
8
top_labelLayer
10
1239.5945851
20
256.6893222
40
18.8269142
50
269.4481612
51
284.7255738
0
ARC
8
top_labelLayer
10
1241.0850003
20
251.1618589
40
13.1022063
50
284.5662324
51
322.6333816
0
ARC
8
top_labelLayer
10
1237.6003259
20
253.67938
40
17.400005
50
323.0089276
51
342.6390439
0
ARC
8
top_labelLayer
10
1227.6334362
20
256.9368451
40
27.8851654
50
342.3615696
51
353.7537616
0
ARC
8
top_labelLayer
10
1212.9289041
20
258.7092845
40
42.6955556
50
353.5363091
51
0.201416
0
ARC
8
top_labelLayer
10
1215.1818606
20
259.0657931
40
40.442862
50
359.7075643
51
7.8972693
0
ARC
8
top_labelLayer
10
1229.9931662
20
261.1891301
40
25.4803769
50
7.743991
51
20.0690171
0
ARC
8
top_labelLayer
10
1238.2466138
20
264.2178354
40
16.6887779
50
20.0257019
51
37.4350519
0
ARC
8
top_labelLayer
10
1240.9850369
20
266.1609793
40
13.3337445
50
37.9577653
51
80.4006184
0
ARC
8
top_labelLayer
10
1239.4288785
20
259.2175588
40
20.4429113
50
79.3453423
51
90.317484
0
ARC
8
top_labelLayer
10
1239.1407342
20
260.3708684
40
19.2900805
50
89.4805968
51
103.8805005
0
ARC
8
top_labelLayer
10
1237.5198694
20
266.5431216
40
12.9095603
50
103.4685239
51
142.3118906
0
ARC
8
top_labelLayer
10
1240.6709612
20
264.32705
40
16.7588926
50
142.9025762
51
162.3749603
0
ARC
8
top_labelLayer
10
1250.6000513
20
261.0182059
40
27.2241664
50
162.0653142
51
173.1674842
0
ARC
8
top_labelLayer
10
1266.082116
20
259.0435573
40
42.8313632
50
173.008614
51
180.2463825
0
LINE
8
top_labelLayer
10
1286.3370865
20
238.9375
11
1285.751149
21
238.9375
0
LINE
8
top_labelLayer
10
1286.3370865
20
230.0507813
11
1286.3370865
21
208.0292969
0
LINE
8
top_labelLayer
10
1286.3370865
20
208.0292969
11
1278.2316177
21
208.0292969
0
LINE
8
top_labelLayer
10
1278.2316177
20
208.0292969
11
1278.2316177
21
285.5683594
0
LINE
8
top_labelLayer
10
1278.2316177
20
285.5683594
11
1284.8234146
21
285.5683594
0
LINE
8
top_labelLayer
10
1284.8234146
20
285.5683594
11
1285.9464615
21
278.2441406
0
LINE
8
top_labelLayer
10
1285.9464615
20
278.2441406
11
1286.3370865
21
278.2441406
0
LINE
8
top_labelLayer
10
1286.3370865
20
260.6660156
11
1286.3370865
21
258.859375
0
ARC
8
top_labelLayer
10
1302.9972732
20
255.6614316
40
24.5856397
50
255.7755391
51
270.3185479
0
ARC
8
top_labelLayer
10
1302.2956641
20
252.5442627
40
21.3918135
50
245.9801595
51
255.5455807
0
ARC
8
top_labelLayer
10
1300.9367257
20
249.3840422
40
17.9521504
50
215.5850189
51
245.836166
0
ARC
8
top_labelLayer
10
1209.6487042
20
229.3207065
40
76.7076581
50
2.950325
51
7.202089
0
ARC
8
top_labelLayer
10
1222.0593959
20
230.0150752
40
64.2777005
50
0.0318277
51
2.9015948
0
ARC
8
top_labelLayer
10
1304.1918256
20
265.7047342
40
21.8180756
50
132.3565073
51
144.9195826
0
ARC
8
top_labelLayer
10
1300.8494725
20
269.3511394
40
16.8716253
50
115.4006109
51
132.3118378
0
ARC
8
top_labelLayer
10
1302.1532121
20
266.1773359
40
20.2986829
50
97.7066278
51
114.882147
0
ARC
8
top_labelLayer
10
1303.0637309
20
260.2722646
40
26.2727513
50
89.8468406
51
97.9474327
0
ARC
8
top_labelLayer
10
1303.3848228
20
261.7008419
40
24.8453464
50
74.1923567
51
90.5785205
0
ARC
8
top_labelLayer
10
1305.1039808
20
267.9503476
40
18.3639366
50
38.0523434
51
74.0417322
0
ARC
8
top_labelLayer
10
1300.3622435
20
264.3160075
40
24.3380227
50
16.3355975
51
37.9090599
0
ARC
8
top_labelLayer
10
1287.9055364
20
260.4792663
40
37.37142
50
4.5766589
51
16.6088728
0
ARC
8
top_labelLayer
10
1272.5698572
20
258.9511841
40
52.7809808
50
359.9003377
51
4.9018144
0
ARC
8
top_labelLayer
10
1277.8273274
20
258.5789949
40
47.524258
50
350.6562818
51
0.3380314
0
ARC
8
top_labelLayer
10
1294.3950589
20
255.7610061
40
30.7189596
50
335.8305974
51
350.8254832
0
ARC
8
top_labelLayer
10
1301.682905
20
252.6154719
40
22.7823652
50
321.3161469
51
335.5436126
0
ARC
8
top_labelLayer
10
1304.4691031
20
250.3451439
40
19.1884589
50
274.0640055
51
321.408102
0
ARC
8
top_labelLayer
10
1303.1711103
20
258.5671302
40
27.4909834
50
269.9225757
51
275.5481607
0
ARC
8
top_labelLayer
10
1301.7951388
20
256.3057343
40
23.3550186
50
89.5904317
51
100.3501737
0
ARC
8
top_labelLayer
10
1300.1297539
20
265.0546869
40
14.4493717
50
100.0868132
51
118.1917889
0
ARC
8
top_labelLayer
10
1298.4237068
20
268.3820412
40
10.7109764
50
118.5569468
51
141.0243384
0
ARC
8
top_labelLayer
10
1301.0233857
20
266.5482683
40
13.8870079
50
141.8890401
51
160.5973131
0
ARC
8
top_labelLayer
10
1310.159696
20
263.1958877
40
23.61846
50
160.2895685
51
171.2453053
0
ARC
8
top_labelLayer
10
1325.1815213
20
260.7738809
40
38.8340553
50
171.0868461
51
178.3247515
0
ARC
8
top_labelLayer
10
1337.9201148
20
260.1684815
40
51.5854278
50
178.0662525
51
179.4473818
0
ARC
8
top_labelLayer
10
1339.9293968
20
258.6501067
40
53.5927189
50
179.7762715
51
185.7075271
0
ARC
8
top_labelLayer
10
1318.7996597
20
256.4729923
40
32.3512826
50
185.592481
51
194.205073
0
ARC
8
top_labelLayer
10
1305.2642231
20
252.9600739
40
18.3678563
50
193.9430413
51
208.0218375
0
ARC
8
top_labelLayer
10
1299.7877324
20
250.1740333
40
12.2250047
50
208.5536543
51
217.5605319
0
ARC
8
top_labelLayer
10
1299.3415431
20
249.9884508
40
11.7588381
50
218.1690475
51
253.8047165
0
ARC
8
top_labelLayer
10
1301.5225771
20
256.7127945
40
18.8259277
50
253.1382383
51
266.8483175
0
ARC
8
top_labelLayer
10
1302.1341774
20
263.9254761
40
26.0622051
50
266.3775733
51
270.0510508
0
ARC
8
top_labelLayer
10
1302.3419623
20
251.5194423
40
13.6574082
50
269.2256933
51
292.0430346
0
ARC
8
top_labelLayer
10
1302.5262382
20
250.4212557
40
12.5726539
50
293.1429622
51
324.1353923
0
ARC
8
top_labelLayer
10
1299.7879049
20
252.7396333
40
16.1524143
50
323.1616068
51
325.0152697
0
ARC
8
top_labelLayer
10
1296.8566534
20
254.5571296
40
19.5970157
50
325.5753812
51
344.1504636
0
ARC
8
top_labelLayer
10
1286.7156592
20
257.5549114
40
30.1714183
50
343.9336247
51
355.1137478
0
ARC
8
top_labelLayer
10
1273.7702048
20
258.868502
40
43.1822068
50
354.8402182
51
0.117464
0
ARC
8
top_labelLayer
10
1276.0501993
20
259.1634601
40
40.9026425
50
359.7108365
51
7.8610405
0
ARC
8
top_labelLayer
10
1290.9224086
20
261.2834517
40
25.8803225
50
7.7149636
51
19.8859701
0
ARC
8
top_labelLayer
10
1299.1017173
20
264.2378546
40
17.1837967
50
19.89914
51
35.8980181
0
ARC
8
top_labelLayer
10
1302.7500616
20
267.0008314
40
12.6087449
50
35.4481617
51
85.2266593
0
ARC
8
top_labelLayer
10
1301.9879
20
262.2212869
40
17.4388886
50
84.0378989
51
90.0848108
0
LINE
8
back_outsideCutPath
10
0
20
146
11
0
21
93.9268293
0
LINE
8
back_outsideCutPath
10
0
20
93.9268293
11
0
21
76
0
LINE
8
back_outsideCutPath
10
0
20
76
11
62.195122
21
76
0
LINE
8
back_outsideCutPath
10
62.195122
20
76
11
62.195122
21
78.8
0
LINE
8
back_outsideCutPath
10
62.195122
20
78.8
11
96.3414634
21
78.8
0
LINE
8
back_outsideCutPath
10
96.3414634
20
78.8
11
96.3414634
21
76
0
LINE
8
back_outsideCutPath
10
96.3414634
20
76
11
130.4878049
21
76
0
LINE
8
back_outsideCutPath
10
130.4878049
20
76
11
130.4878049
21
78.8
0
LINE
8
back_outsideCutPath
10
130.4878049
20
78.8
11
164.6341463
21
78.8
0
LINE
8
back_outsideCutPath
10
164.6341463
20
78.8
11
164.6341463
21
76
0
LINE
8
back_outsideCutPath
10
164.6341463
20
76
11
198.7804878
21
76
0
LINE
8
back_outsideCutPath
10
198.7804878
20
76
11
198.7804878
21
78.8
0
LINE
8
back_outsideCutPath
10
198.7804878
20
78.8
11
232.9268293
21
78.8
0
LINE
8
back_outsideCutPath
10
232.9268293
20
78.8
11
232.9268293
21
76
0
LINE
8
back_outsideCutPath
10
232.9268293
20
76
11
267.0731707
21
76
0
LINE
8
back_outsideCutPath
10
267.0731707
20
76
11
267.0731707
21
78.8
0
LINE
8
back_outsideCutPath
10
267.0731707
20
78.8
11
301.2195122
21
78.8
0
LINE
8
back_outsideCutPath
10
301.2195122
20
78.8
11
301.2195122
21
76
0
LINE
8
back_outsideCutPath
10
301.2195122
20
76
11
335.3658537
21
76
0
LINE
8
back_outsideCutPath
10
335.3658537
20
76
11
335.3658537
21
78.8
0
LINE
8
back_outsideCutPath
10
335.3658537
20
78.8
11
369.5121951
21
78.8
0
LINE
8
back_outsideCutPath
10
369.5121951
20
78.8
11
369.5121951
21
76
0
LINE
8
back_outsideCutPath
10
369.5121951
20
76
11
403.6585366
21
76
0
LINE
8
back_outsideCutPath
10
403.6585366
20
76
11
403.6585366
21
78.8
0
LINE
8
back_outsideCutPath
10
403.6585366
20
78.8
11
437.804878
21
78.8
0
LINE
8
back_outsideCutPath
10
437.804878
20
78.8
11
437.804878
21
76
0
LINE
8
back_outsideCutPath
10
437.804878
20
76
11
471.9512195
21
76
0
LINE
8
back_outsideCutPath
10
471.9512195
20
76
11
500
21
76
0
LINE
8
back_outsideCutPath
10
500
20
76
11
500
21
128.0731707
0
LINE
8
back_outsideCutPath
10
500
20
128.0731707
11
500
21
146
0
LINE
8
back_outsideCutPath
10
500
20
146
11
437.804878
21
146
0
LINE
8
back_outsideCutPath
10
437.804878
20
146
11
437.804878
21
143.2
0
LINE
8
back_outsideCutPath
10
437.804878
20
143.2
11
403.6585366
21
143.2
0
LINE
8
back_outsideCutPath
10
403.6585366
20
143.2
11
403.6585366
21
146
0
LINE
8
back_outsideCutPath
10
403.6585366
20
146
11
369.5121951
21
146
0
LINE
8
back_outsideCutPath
10
369.5121951
20
146
11
369.5121951
21
143.2
0
LINE
8
back_outsideCutPath
10
369.5121951
20
143.2
11
335.3658537
21
143.2
0
LINE
8
back_outsideCutPath
10
335.3658537
20
143.2
11
335.3658537
21
146
0
LINE
8
back_outsideCutPath
10
335.3658537
20
146
11
301.2195122
21
146
0
LINE
8
back_outsideCutPath
10
301.2195122
20
146
11
301.2195122
21
143.2
0
LINE
8
back_outsideCutPath
10
301.2195122
20
143.2
11
267.0731707
21
143.2
0
LINE
8
back_outsideCutPath
10
267.0731707
20
143.2
11
267.0731707
21
146
0
LINE
8
back_outsideCutPath
10
267.0731707
20
146
11
232.9268293
21
146
0
LINE
8
back_outsideCutPath
10
232.9268293
20
146
11
232.9268293
21
143.2
0
LINE
8
back_outsideCutPath
10
232.9268293
20
143.2
11
198.7804878
21
143.2
0
LINE
8
back_outsideCutPath
10
198.7804878
20
143.2
11
198.7804878
21
146
0
LINE
8
back_outsideCutPath
10
198.7804878
20
146
11
164.6341463
21
146
0
LINE
8
back_outsideCutPath
10
164.6341463
20
146
11
164.6341463
21
143.2
0
LINE
8
back_outsideCutPath
10
164.6341463
20
143.2
11
130.4878049
21
143.2
0
LINE
8
back_outsideCutPath
10
130.4878049
20
143.2
11
130.4878049
21
146
0
LINE
8
back_outsideCutPath
10
130.4878049
20
146
11
96.3414634
21
146
0
LINE
8
back_outsideCutPath
10
96.3414634
20
146
11
96.3414634
21
143.2
0
LINE
8
back_outsideCutPath
10
96.3414634
20
143.2
11
62.195122
21
143.2
0
LINE
8
back_outsideCutPath
10
62.195122
20
143.2
11
62.195122
21
146
0
LINE
8
back_outsideCutPath
10
62.195122
20
146
11
28.0487805
21
146
0
LINE
8
back_outsideCutPath
10
28.0487805
20
146
11
0
21
146
0
LINE
8
back_labelLayer
10
236.6220703
20
106.7139444
11
236.5400391
21
106.7139444
0
LINE
8
back_labelLayer
10
236.5400391
20
106.7139444
11
236.3007813
21
105.7500772
0
LINE
8
back_labelLayer
10
236.3007813
20
105.7500772
11
235.4873047
21
105.7500772
0
LINE
8
back_labelLayer
10
235.4873047
20
105.7500772
11
235.4873047
21
116.386796
0
LINE
8
back_labelLayer
10
235.4873047
20
116.386796
11
236.6220703
21
116.386796
0
LINE
8
back_labelLayer
10
236.6220703
20
116.386796
11
236.6220703
21
113.8028116
0
LINE
8
back_labelLayer
10
236.5673828
20
112.2442179
11
236.6220703
21
112.2442179
0
ARC
8
back_labelLayer
10
239.0076742
20
109.8972397
40
3.468239
50
74.2393378
51
90.5623781
0
ARC
8
back_labelLayer
10
239.2370063
20
110.7385548
40
2.596274
50
38.5631196
51
74.0670406
0
ARC
8
back_labelLayer
10
238.646835
20
110.279661
40
3.3438178
50
16.4709216
51
38.407539
0
ARC
8
back_labelLayer
10
236.9466338
20
109.7465267
40
5.1254912
50
5.1338466
51
16.7973459
0
ARC
8
back_labelLayer
10
234.8003165
20
109.5185272
40
7.2836844
50
359.8779124
51
5.409378
0
ARC
8
back_labelLayer
10
235.4306878
20
109.4637546
40
6.6534124
50
350.6562969
51
0.3380228
0
ARC
8
back_labelLayer
10
237.750188
20
109.0692348
40
4.3006527
50
335.8305943
51
350.8254858
0
ARC
8
back_labelLayer
10
238.7704955
20
108.6288539
40
3.1895187
50
321.3161197
51
335.543641
0
ARC
8
back_labelLayer
10
239.1605527
20
108.3110147
40
2.6863843
50
274.0640035
51
321.4080983
0
ARC
8
back_labelLayer
10
238.9788357
20
109.4620774
40
3.8487223
50
269.9225448
51
275.5481523
0
ARC
8
back_labelLayer
10
238.9544958
20
109.0552941
40
3.4419889
50
255.7755471
51
270.3185591
0
ARC
8
back_labelLayer
10
238.8562795
20
108.6189149
40
2.9948789
50
245.9801989
51
255.5455399
0
ARC
8
back_labelLayer
10
238.6660209
20
108.1764618
40
2.5133029
50
215.5850331
51
245.8361583
0
ARC
8
back_labelLayer
10
212.9631947
20
113.7828047
40
23.6588841
50
358.112327
51
0.0484515
0
ARC
8
back_labelLayer
10
219.5479092
20
113.5617377
40
17.0704613
50
355.7238524
51
358.1259058
0
ARC
8
back_labelLayer
10
222.4450264
20
113.3627301
40
14.1665811
50
355.4715398
51
355.6528085
0
ARC
8
back_labelLayer
10
238.7383587
20
110.7684729
40
2.5800193
50
95.1835114
51
145.1108966
0
ARC
8
back_labelLayer
10
238.9651326
20
109.4896705
40
3.8756504
50
89.8743367
51
96.8145301
0
ARC
8
back_labelLayer
10
238.7858134
20
109.2264219
40
3.1887829
50
89.5731335
51
100.7324378
0
ARC
8
back_labelLayer
10
238.5497544
20
110.4190702
40
1.973062
50
100.446944
51
119.6700712
0
ARC
8
back_labelLayer
10
238.3308561
20
110.8283258
40
1.5091588
50
120.1402758
51
142.4248779
0
ARC
8
back_labelLayer
10
238.6930047
20
110.5887536
40
1.9425194
50
143.3382366
51
161.2559979
0
ARC
8
back_labelLayer
10
240.2074666
20
110.0510711
40
3.5495104
50
160.8926721
51
171.2333942
0
ARC
8
back_labelLayer
10
242.7356248
20
109.6432205
40
6.1103194
50
171.0667692
51
177.8456727
0
ARC
8
back_labelLayer
10
245.3649289
20
109.5094928
40
8.7428612
50
177.6176499
51
180.0425051
0
ARC
8
back_labelLayer
10
244.1249772
20
109.4737073
40
7.5029641
50
179.7762555
51
185.7075242
0
ARC
8
back_labelLayer
10
241.1668362
20
109.1689138
40
4.5291852
50
185.59248
51
194.2050613
0
ARC
8
back_labelLayer
10
239.2718629
20
108.6771022
40
2.5714929
50
193.94302
51
208.0218544
0
ARC
8
back_labelLayer
10
238.5051602
20
108.287059
40
1.7115001
50
208.5536605
51
217.5605407
0
ARC
8
back_labelLayer
10
238.4426938
20
108.2610766
40
1.6462364
50
218.169033
51
253.8047229
0
ARC
8
back_labelLayer
10
238.7480398
20
109.2024901
40
2.6356344
50
253.1382494
51
266.848305
0
ARC
8
back_labelLayer
10
238.833666
20
110.2122553
40
3.6487032
50
266.3775207
51
270.0510039
0
ARC
8
back_labelLayer
10
238.8611196
20
108.8255715
40
2.2621473
50
269.3869083
51
285.8630602
0
ARC
8
back_labelLayer
10
239.0291827
20
108.2181662
40
1.631941
50
286.0163033
51
326.8497284
0
ARC
8
back_labelLayer
10
238.2180258
20
108.755528
40
2.6049303
50
326.7105004
51
343.6661902
0
ARC
8
back_labelLayer
10
236.6995769
20
109.2195157
40
4.1926222
50
343.4171562
51
353.6369239
0
ARC
8
back_labelLayer
10
234.4061478
20
109.491649
40
6.5021035
50
353.4934709
51
0.2205605
0
ARC
8
back_labelLayer
10
234.2039367
20
109.5438145
40
6.7043213
50
359.768095
51
6.3095117
0
ARC
8
back_labelLayer
10
236.7293277
20
109.8336163
40
4.1623916
50
6.1648728
51
16.0396328
0
ARC
8
back_labelLayer
10
238.356141
20
110.3130375
40
2.4664694
50
15.7779331
51
32.0151359
0
ARC
8
back_labelLayer
10
238.8632928
20
110.6034496
40
1.8826272
50
32.7035799
51
35.5241557
0
ARC
8
back_labelLayer
10
239.0489719
20
110.7354193
40
1.6548281
50
35.5408388
51
79.8011227
0
ARC
8
back_labelLayer
10
238.8267454
20
109.7906932
40
2.6244794
50
78.6781199
51
90.3749563
0
LINE
8
back_labelLayer
10
249.5146484
20
105.7500772
11
248.6738281
21
105.7500772
0
LINE
8
back_labelLayer
10
248.6738281
20
105.7500772
11
248.4482422
21
106.8164835
0
LINE
8
back_labelLayer
10
248.4482422
20
106.8164835
11
248.3935547
21
106.8164835
0
LINE
8
back_labelLayer
10
247.1357422
20
110.2002725
11
248.4072266
21
110.2412882
0
LINE
8
back_labelLayer
10
248.4072266
20
110.2412882
11
248.4072266
21
110.7061319
0
LINE
8
back_labelLayer
10
244.6953125
20
111.8545694
11
244.3466797
21
112.7227335
0
LINE
8
back_labelLayer
10
249.5146484
20
110.8633585
11
249.5146484
21
105.7500772
0
LINE
8
back_labelLayer
10
248.3798828
20
108.7578897
11
248.3798828
21
109.4346475
0
LINE
8
back_labelLayer
10
248.3798828
20
109.4346475
11
247.2451172
21
109.386796
0
ARC
8
back_labelLayer
10
244.7014741
20
109.7315597
40
4.7041607
50
314.7445176
51
321.7072009
0
ARC
8
back_labelLayer
10
245.8572124
20
108.5572419
40
3.0565254
50
304.8485525
51
314.8530715
0
ARC
8
back_labelLayer
10
246.4124018
20
107.7669882
40
2.0907553
50
294.3932833
51
304.7371132
0
ARC
8
back_labelLayer
10
246.2227278
20
108.2584519
40
2.6168567
50
281.2979568
51
293.7313615
0
ARC
8
back_labelLayer
10
245.9719851
20
109.473678
40
3.8576649
50
272.9335051
51
281.4139143
0
ARC
8
back_labelLayer
10
245.8888734
20
110.720147
40
5.1067901
50
269.953913
51
273.1490593
0
ARC
8
back_labelLayer
10
245.8601665
20
109.0957186
40
3.482447
50
258.6719692
51
270.4047259
0
ARC
8
back_labelLayer
10
245.6182691
20
107.9385828
40
2.3003602
50
238.3273043
51
258.918391
0
ARC
8
back_labelLayer
10
245.4515675
20
107.6344601
40
1.9540848
50
227.7689252
51
237.8050539
0
ARC
8
back_labelLayer
10
245.3994355
20
107.5616824
40
1.8651867
50
192.0827787
51
227.452065
0
ARC
8
back_labelLayer
10
246.3610467
20
107.7987283
40
2.855277
50
179.5457276
51
192.6949331
0
ARC
8
back_labelLayer
10
245.4677165
20
107.9021112
40
1.963518
50
115.4904586
51
182.3568144
0
ARC
8
back_labelLayer
10
246.4510677
20
106.0984431
40
4.0163527
50
101.3568156
51
117.0798646
0
ARC
8
back_labelLayer
10
247.2407911
20
102.4079895
40
7.7902029
50
92.4696303
51
101.7064831
0
ARC
8
back_labelLayer
10
247.4678025
20
99.119791
40
11.0854561
50
91.7165284
51
92.909544
0
ARC
8
back_labelLayer
10
245.1479622
20
110.7235782
40
3.2593111
50
359.6933087
51
8.0035736
0
ARC
8
back_labelLayer
10
246.3808776
20
110.9031866
40
2.0134067
50
7.8273077
51
20.6041288
0
ARC
8
back_labelLayer
10
247.0785892
20
111.1700941
40
1.2664049
50
20.409425
51
41.4479798
0
ARC
8
back_labelLayer
10
247.1816741
20
111.2267578
40
1.1519173
50
42.7295429
51
71.0380396
0
ARC
8
back_labelLayer
10
246.9389749
20
110.5668505
40
1.8549386
50
70.5716665
51
83.9928384
0
ARC
8
back_labelLayer
10
246.8230318
20
109.6250424
40
2.8037589
50
83.6506748
51
90.1753076
0
ARC
8
back_labelLayer
10
246.8433695
20
108.7343545
40
3.6945469
50
90.4484456
51
103.7665443
0
ARC
8
back_labelLayer
10
247.2778316
20
106.9022143
40
5.5774606
50
103.6226615
51
112.432005
0
ARC
8
back_labelLayer
10
248.022503
20
105.0219605
40
7.5996541
50
112.2121929
51
115.9641162
0
ARC
8
back_labelLayer
10
246.8299452
20
108.1175468
40
5.2320505
50
106.3568698
51
118.3349814
0
ARC
8
back_labelLayer
10
247.0527128
20
107.4294622
40
5.9550548
50
104.5161755
51
106.5490421
0
ARC
8
back_labelLayer
10
246.8893654
20
108.1100844
40
5.2552313
50
90.0714441
51
104.6521028
0
ARC
8
back_labelLayer
10
246.9099897
20
108.5727735
40
4.7926151
50
81.5679579
51
90.3249059
0
ARC
8
back_labelLayer
10
247.1870938
20
110.3780148
40
2.9662692
50
68.2273253
51
81.7494273
0
ARC
8
back_labelLayer
10
247.5730507
20
111.338307
40
1.9313218
50
47.8683216
51
68.2934062
0
ARC
8
back_labelLayer
10
247.6356912
20
111.4633828
40
1.7969337
50
19.233112
51
46.6741017
0
ARC
8
back_labelLayer
10
246.5921846
20
111.0751962
40
2.9101609
50
6.3379004
51
19.6815429
0
ARC
8
back_labelLayer
10
245.0496304
20
110.8787357
40
4.4650447
50
359.8026779
51
6.6583764
0
ARC
8
back_labelLayer
10
246.1332966
20
109.6741436
40
3.124346
50
269.5792197
51
282.0413496
0
ARC
8
back_labelLayer
10
246.3611961
20
108.663274
40
2.0882088
50
281.7120961
51
306.4594024
0
ARC
8
back_labelLayer
10
246.4622846
20
108.497045
40
1.894523
50
306.9880185
51
313.856031
0
ARC
8
back_labelLayer
10
246.450228
20
108.4936432
40
1.9004555
50
314.1891948
51
347.4269885
0
ARC
8
back_labelLayer
10
245.498239
20
108.7322071
40
2.8816606
50
346.9177675
51
0.2824599
0
ARC
8
back_labelLayer
10
244.7257127
20
108.7579463
40
3.6541701
50
359.8191646
51
359.9991123
0
ARC
8
back_labelLayer
10
247.5150502
20
101.0589699
40
8.3321996
50
91.8565001
51
96.4478188
0
ARC
8
back_labelLayer
10
247.1392852
20
104.3105823
40
5.0589641
50
96.354523
51
102.9953434
0
ARC
8
back_labelLayer
10
246.6292278
20
106.4776538
40
2.832714
50
102.7995391
51
113.2433411
0
ARC
8
back_labelLayer
10
246.2087548
20
107.4832638
40
1.7428198
50
113.5886903
51
121.6805012
0
ARC
8
back_labelLayer
10
245.9166142
20
107.9281872
40
1.2108597
50
120.9734143
51
172.4179805
0
ARC
8
back_labelLayer
10
246.4876282
20
107.8141316
40
1.7923273
50
171.2122209
51
180.2057797
0
ARC
8
back_labelLayer
10
246.3169636
20
107.7942951
40
1.6217064
50
179.5265898
51
192.7787582
0
ARC
8
back_labelLayer
10
245.7683697
20
107.6613121
40
1.0573194
50
192.3264131
51
222.058015
0
ARC
8
back_labelLayer
10
245.7275926
20
107.6369393
40
1.0107588
50
222.580655
51
229.2545804
0
ARC
8
back_labelLayer
10
245.8654559
20
107.814441
40
1.2352732
50
229.7837091
51
254.2724375
0
ARC
8
back_labelLayer
10
246.0491065
20
108.4264375
40
1.8741702
50
253.9396673
51
266.4534052
0
ARC
8
back_labelLayer
10
246.1077198
20
109.1020589
40
2.5521782
50
266.078334
51
270.0590819
0
LINE
8
back_labelLayer
10
256.8496094
20
112.989335
11
256.5009766
21
112.0254679
0
LINE
8
back_labelLayer
10
256.7402344
20
107.0078897
11
256.7402344
21
106.0030069
0
ARC
8
back_labelLayer
10
254.8104846
20
109.8542782
40
4.2410741
50
256.4243836
51
270.4889924
0
ARC
8
back_labelLayer
10
254.471584
20
108.531574
40
2.8758378
50
221.797633
51
256.8020447
0
ARC
8
back_labelLayer
10
254.7997709
20
108.7740581
40
3.2823379
50
196.0166575
51
221.1349209
0
ARC
8
back_labelLayer
10
256.4492035
20
109.2782109
40
5.0069332
50
183.5913572
51
196.353963
0
ARC
8
back_labelLayer
10
258.297001
20
109.4409967
40
6.8614579
50
179.9388522
51
183.9814909
0
ARC
8
back_labelLayer
10
257.6965951
20
109.4886319
40
6.261178
50
169.8978279
51
180.3689006
0
ARC
8
back_labelLayer
10
255.5169446
20
109.8918375
40
4.0446223
50
153.0875237
51
170.1051465
0
ARC
8
back_labelLayer
10
254.6899356
20
110.2870042
40
3.1283922
50
138.6550159
51
152.6853574
0
ARC
8
back_labelLayer
10
254.5355798
20
110.3994888
40
2.9382561
50
101.4912806
51
138.3133984
0
ARC
8
back_labelLayer
10
254.8899378
20
108.9246866
40
4.4544114
50
89.5891971
51
102.1787641
0
ARC
8
back_labelLayer
10
254.9171852
20
108.2581069
40
5.1208788
50
77.7702438
51
89.947527
0
ARC
8
back_labelLayer
10
254.8202811
20
107.7234665
40
5.6639439
50
74.6796864
51
77.9578863
0
ARC
8
back_labelLayer
10
255.343814
20
109.6201381
40
3.6963494
50
70.0945506
51
74.7385796
0
ARC
8
back_labelLayer
10
255.8418299
20
110.9849507
40
2.2435206
50
63.5033828
51
70.18613
0
ARC
8
back_labelLayer
10
256.0756205
20
111.4749292
40
1.7007304
50
62.9291444
51
63.1877828
0
ARC
8
back_labelLayer
10
254.6368572
20
107.3341281
40
5.0481293
50
68.3294381
51
74.8831584
0
ARC
8
back_labelLayer
10
254.3705459
20
106.389858
40
6.0291846
50
74.780132
51
77.4497313
0
ARC
8
back_labelLayer
10
254.6501522
20
107.7022902
40
4.6873706
50
77.2998592
51
81.7345597
0
ARC
8
back_labelLayer
10
254.8540828
20
109.123304
40
3.2518013
50
81.6910099
51
87.5079454
0
ARC
8
back_labelLayer
10
254.8934317
20
109.8589623
40
2.5151386
50
87.6748027
51
89.9749509
0
ARC
8
back_labelLayer
10
254.8382781
20
109.857652
40
2.5170773
50
88.719412
51
112.5667711
0
ARC
8
back_labelLayer
10
254.6594222
20
110.4489947
40
1.9033771
50
114.4265732
51
161.6632831
0
ARC
8
back_labelLayer
10
256.436177
20
109.7535547
40
3.8100447
50
160.1418542
51
175.1368081
0
ARC
8
back_labelLayer
10
258.8816352
20
109.4789505
40
6.2703298
50
174.5309971
51
180.1549668
0
ARC
8
back_labelLayer
10
258.1068774
20
109.4336127
40
5.4956225
50
179.7041316
51
188.0743768
0
ARC
8
back_labelLayer
10
256.1274349
20
109.1439987
40
3.4951353
50
187.931536
51
200.3885188
0
ARC
8
back_labelLayer
10
255.0571123
20
108.7475002
40
2.3537329
50
200.4183375
51
216.6392871
0
ARC
8
back_labelLayer
10
254.6084156
20
108.4267377
40
1.8023017
50
216.9695437
51
261.3102971
0
ARC
8
back_labelLayer
10
254.8064369
20
109.3499536
40
2.7454144
50
260.1359669
51
270.2691991
0
ARC
8
back_labelLayer
10
254.7972948
20
111.3547899
40
4.7502716
50
270.2658517
51
286.2891313
0
ARC
8
back_labelLayer
10
254.5085134
20
112.4317435
40
5.8650462
50
286.0460805
51
292.3654053
0
ARC
8
back_labelLayer
10
255.2775796
20
108.880398
40
3.2278071
50
282.034417
51
296.9454483
0
ARC
8
back_labelLayer
10
254.9456173
20
110.3764291
40
4.7601902
50
272.5980603
51
282.1878245
0
ARC
8
back_labelLayer
10
254.8504219
20
111.8364576
40
6.2231004
50
269.9655455
51
272.8642863
0
LINE
8
back_labelLayer
10
259.5839844
20
109.5850382
11
259.6386719
21
109.5850382
0
LINE
8
back_labelLayer
10
260.5341797
20
110.6787882
11
262.9541016
21
113.2422647
0
LINE
8
back_labelLayer
10
262.9541016
20
113.2422647
11
264.3007813
21
113.2422647
0
LINE
8
back_labelLayer
10
264.3007813
20
113.2422647
11
261.265625
21
110.0498819
0
LINE
8
back_labelLayer
10
261.265625
20
110.0498819
11
264.5126953
21
105.7500772
0
LINE
8
back_labelLayer
10
264.5126953
20
105.7500772
11
263.1386719
21
105.7500772
0
LINE
8
back_labelLayer
10
263.1386719
20
105.7500772
11
260.4931641
21
109.2910929
0
LINE
8
back_labelLayer
10
260.4931641
20
109.2910929
11
259.6386719
21
108.5528116
0
LINE
8
back_labelLayer
10
259.6386719
20
108.5528116
11
259.6386719
21
105.7500772
0
LINE
8
back_labelLayer
10
259.6386719
20
105.7500772
11
258.5175781
21
105.7500772
0
LINE
8
back_labelLayer
10
258.5175781
20
105.7500772
11
258.5175781
21
116.386796
0
LINE
8
back_labelLayer
10
258.5175781
20
116.386796
11
259.6386719
21
116.386796
0
LINE
8
back_labelLayer
10
259.6386719
20
116.386796
11
259.6386719
21
110.7471475
0
ARC
8
back_labelLayer
10
265.1219052
20
105.703771
40
6.7178927
50
142.323435
51
144.707507
0
ARC
8
back_labelLayer
10
268.699468
20
102.9442953
40
11.2360403
50
140.4331604
51
142.3365211
0
ARC
8
back_labelLayer
10
273.3605003
20
99.1074469
40
17.2731378
50
139.2798929
51
140.4703685
0
ARC
8
back_labelLayer
10
278.7514315
20
94.4716074
40
24.3832108
50
138.3417535
51
139.2877031
0
ARC
8
back_labelLayer
10
252.0769001
20
110.7612911
40
7.561785
50
358.2739475
51
359.8928342
0
ARC
8
back_labelLayer
10
246.1916927
20
110.9253242
40
13.4492694
50
357.5042058
51
358.3306422
0
ARC
8
back_labelLayer
10
237.387676
20
111.3142045
40
22.2618696
50
356.6325355
51
357.4909992
0
ARC
8
back_labelLayer
10
222.756076
20
112.1675481
40
36.9183315
50
356.032902
51
356.6443039
0
ARC
8
back_labelLayer
10
212.9260582
20
112.8307466
40
46.7706822
50
356.0206913
51
356.0555244
0
LINE
8
right_outsideCutPath
10
503
20
146
11
503
21
93.9268293
0
LINE
8
right_outsideCutPath
10
503
20
93.9268293
11
503
21
76
0
LINE
8
right_outsideCutPath
10
503
20
76
11
562.395122
21
76
0
LINE
8
right_outsideCutPath
10
562.395122
20
76
11
562.395122
21
78.8
0
LINE
8
right_outsideCutPath
10
562.395122
20
78.8
11
596.5414634
21
78.8
0
LINE
8
right_outsideCutPath
10
596.5414634
20
78.8
11
596.5414634
21
76
0
LINE
8
right_outsideCutPath
10
596.5414634
20
76
11
630.6878049
21
76
0
LINE
8
right_outsideCutPath
10
630.6878049
20
76
11
630.6878049
21
78.8
0
LINE
8
right_outsideCutPath
10
630.6878049
20
78.8
11
664.8341463
21
78.8
0
LINE
8
right_outsideCutPath
10
664.8341463
20
78.8
11
664.8341463
21
76
0
LINE
8
right_outsideCutPath
10
664.8341463
20
76
11
698.9804878
21
76
0
LINE
8
right_outsideCutPath
10
698.9804878
20
76
11
698.9804878
21
78.8
0
LINE
8
right_outsideCutPath
10
698.9804878
20
78.8
11
733.1268293
21
78.8
0
LINE
8
right_outsideCutPath
10
733.1268293
20
78.8
11
733.1268293
21
76
0
LINE
8
right_outsideCutPath
10
733.1268293
20
76
11
767.2731707
21
76
0
LINE
8
right_outsideCutPath
10
767.2731707
20
76
11
767.2731707
21
78.8
0
LINE
8
right_outsideCutPath
10
767.2731707
20
78.8
11
801.4195122
21
78.8
0
LINE
8
right_outsideCutPath
10
801.4195122
20
78.8
11
801.4195122
21
76
0
LINE
8
right_outsideCutPath
10
801.4195122
20
76
11
835.5658537
21
76
0
LINE
8
right_outsideCutPath
10
835.5658537
20
76
11
835.5658537
21
78.8
0
LINE
8
right_outsideCutPath
10
835.5658537
20
78.8
11
869.7121951
21
78.8
0
LINE
8
right_outsideCutPath
10
869.7121951
20
78.8
11
869.7121951
21
76
0
LINE
8
right_outsideCutPath
10
869.7121951
20
76
11
903.8585366
21
76
0
LINE
8
right_outsideCutPath
10
903.8585366
20
76
11
903.8585366
21
78.8
0
LINE
8
right_outsideCutPath
10
903.8585366
20
78.8
11
938.004878
21
78.8
0
LINE
8
right_outsideCutPath
10
938.004878
20
78.8
11
938.004878
21
76
0
LINE
8
right_outsideCutPath
10
938.004878
20
76
11
972.1512195
21
76
0
LINE
8
right_outsideCutPath
10
972.1512195
20
76
11
997.4
21
76
0
LINE
8
right_outsideCutPath
10
997.4
20
76
11
997.4
21
128.0731707
0
LINE
8
right_outsideCutPath
10
997.4
20
128.0731707
11
997.4
21
146
0
LINE
8
right_outsideCutPath
10
997.4
20
146
11
938.004878
21
146
0
LINE
8
right_outsideCutPath
10
938.004878
20
146
11
938.004878
21
143.2
0
LINE
8
right_outsideCutPath
10
938.004878
20
143.2
11
903.8585366
21
143.2
0
LINE
8
right_outsideCutPath
10
903.8585366
20
143.2
11
903.8585366
21
146
0
LINE
8
right_outsideCutPath
10
903.8585366
20
146
11
869.7121951
21
146
0
LINE
8
right_outsideCutPath
10
869.7121951
20
146
11
869.7121951
21
143.2
0
LINE
8
right_outsideCutPath
10
869.7121951
20
143.2
11
835.5658537
21
143.2
0
LINE
8
right_outsideCutPath
10
835.5658537
20
143.2
11
835.5658537
21
146
0
LINE
8
right_outsideCutPath
10
835.5658537
20
146
11
801.4195122
21
146
0
LINE
8
right_outsideCutPath
10
801.4195122
20
146
11
801.4195122
21
143.2
0
LINE
8
right_outsideCutPath
10
801.4195122
20
143.2
11
767.2731707
21
143.2
0
LINE
8
right_outsideCutPath
10
767.2731707
20
143.2
11
767.2731707
21
146
0
LINE
8
right_outsideCutPath
10
767.2731707
20
146
11
733.1268293
21
146
0
LINE
8
right_outsideCutPath
10
733.1268293
20
146
11
733.1268293
21
143.2
0
LINE
8
right_outsideCutPath
10
733.1268293
20
143.2
11
698.9804878
21
143.2
0
LINE
8
right_outsideCutPath
10
698.9804878
20
143.2
11
698.9804878
21
146
0
LINE
8
right_outsideCutPath
10
698.9804878
20
146
11
664.8341463
21
146
0
LINE
8
right_outsideCutPath
10
664.8341463
20
146
11
664.8341463
21
143.2
0
LINE
8
right_outsideCutPath
10
664.8341463
20
143.2
11
630.6878049
21
143.2
0
LINE
8
right_outsideCutPath
10
630.6878049
20
143.2
11
630.6878049
21
146
0
LINE
8
right_outsideCutPath
10
630.6878049
20
146
11
596.5414634
21
146
0
LINE
8
right_outsideCutPath
10
596.5414634
20
146
11
596.5414634
21
143.2
0
LINE
8
right_outsideCutPath
10
596.5414634
20
143.2
11
562.395122
21
143.2
0
LINE
8
right_outsideCutPath
10
562.395122
20
143.2
11
562.395122
21
146
0
LINE
8
right_outsideCutPath
10
562.395122
20
146
11
528.2487805
21
146
0
LINE
8
right_outsideCutPath
10
528.2487805
20
146
11
503
21
146
0
LINE
8
right_labelLayer
10
740.0315429
20
114.9101976
11
739.8743164
21
113.8574632
0
LINE
8
right_labelLayer
10
736.852832
20
111.3828539
11
736.852832
21
107.3633226
0
LINE
8
right_labelLayer
10
736.852832
20
107.3633226
11
735.7180664
21
107.3633226
0
LINE
8
right_labelLayer
10
735.7180664
20
107.3633226
11
735.7180664
21
114.8555101
0
LINE
8
right_labelLayer
10
735.7180664
20
114.8555101
11
736.6545898
21
114.8555101
0
LINE
8
right_labelLayer
10
736.6545898
20
114.8555101
11
736.7844726
21
113.4678148
0
LINE
8
right_labelLayer
10
736.7844726
20
113.4678148
11
736.8391601
21
113.4678148
0
ARC
8
right_labelLayer
10
739.1476826
20
109.7827222
40
5.2095197
50
84.9922805
51
90.1281026
0
ARC
8
right_labelLayer
10
739.2727903
20
111.1844001
40
3.8022721
50
78.4892118
51
85.0266028
0
ARC
8
right_labelLayer
10
738.7872161
20
108.9759089
40
5.0011359
50
77.4453531
51
81.6360748
0
ARC
8
right_labelLayer
10
739.0050926
20
110.4777224
40
3.4836043
50
81.5884637
51
87.1916172
0
ARC
8
right_labelLayer
10
739.0524281
20
111.298584
40
2.6614187
50
87.343603
51
89.9660771
0
ARC
8
right_labelLayer
10
739.0414284
20
111.9938293
40
1.9662132
50
89.633545
51
137.0880786
0
ARC
8
right_labelLayer
10
739.5239748
20
111.4511913
40
2.6899805
50
135.6208846
51
138.8376967
0
ARC
8
right_labelLayer
10
739.4532639
20
111.5202131
40
2.5913218
50
138.9575682
51
174.5422324
0
ARC
8
right_labelLayer
10
740.297211
20
111.3881607
40
3.4443831
50
173.690773
51
180.088276
0
ARC
8
right_labelLayer
10
740.1778926
20
111.5867873
40
3.8321533
50
139.4139569
51
150.6032769
0
ARC
8
right_labelLayer
10
739.4907781
20
112.1755696
40
2.9272825
50
124.2321503
51
139.4161004
0
ARC
8
right_labelLayer
10
739.1233875
20
112.7301431
40
2.2621209
50
89.6796558
51
124.440558
0
LINE
8
right_labelLayer
10
742.5676758
20
114.8555101
11
742.5676758
21
107.3633226
0
LINE
8
right_labelLayer
10
742.5676758
20
107.3633226
11
741.4329101
21
107.3633226
0
LINE
8
right_labelLayer
10
741.4329101
20
107.3633226
11
741.4329101
21
114.8555101
0
LINE
8
right_labelLayer
10
741.4329101
20
114.8555101
11
742.5676758
21
114.8555101
0
ARC
8
right_labelLayer
10
742.5946502
20
116.893562
40
1.2574673
50
170.8452163
51
180.3544232
0
ARC
8
right_labelLayer
10
742.123907
20
116.9722701
40
0.7802028
50
155.9679425
51
171.0515188
0
ARC
8
right_labelLayer
10
741.8958953
20
117.0734256
40
0.5307606
50
133.7880053
51
155.9171968
0
ARC
8
right_labelLayer
10
741.9800746
20
116.9803617
40
0.6562053
50
92.6445984
51
133.4710562
0
ARC
8
right_labelLayer
10
742.006667
20
116.7714516
40
0.8662852
50
89.9694495
51
93.7640683
0
ARC
8
right_labelLayer
10
742.0174895
20
116.9692273
40
0.6685896
50
46.3708268
51
90.8879086
0
ARC
8
right_labelLayer
10
742.0840317
20
117.0379226
40
0.5729539
50
17.7251651
51
46.447386
0
ARC
8
right_labelLayer
10
741.7737354
20
116.9310686
40
0.9010812
50
4.9427616
51
18.1900646
0
ARC
8
right_labelLayer
10
741.3790315
20
116.8883961
40
1.2980219
50
359.8846802
51
5.3182222
0
ARC
8
right_labelLayer
10
741.5029864
20
116.8778117
40
1.1740914
50
349.8344885
51
0.3890313
0
ARC
8
right_labelLayer
10
741.9304264
20
116.7980736
40
0.7392946
50
332.6322469
51
350.0705922
0
ARC
8
right_labelLayer
10
742.096791
20
116.7159247
40
0.5537977
50
313.6154129
51
332.2677055
0
ARC
8
right_labelLayer
10
742.0166166
20
116.7889269
40
0.6620003
50
269.1788137
51
314.2807543
0
ARC
8
right_labelLayer
10
741.9996083
20
116.8477786
40
0.7208233
50
250.4999877
51
270.5977941
0
ARC
8
right_labelLayer
10
741.9777942
20
116.7662076
40
0.6366845
50
225.1300598
51
249.900094
0
ARC
8
right_labelLayer
10
741.9436395
20
116.7284793
40
0.5858551
50
197.7934038
51
224.8942123
0
ARC
8
right_labelLayer
10
742.2633025
20
116.8380237
40
0.9237257
50
184.9925162
51
198.2040143
0
ARC
8
right_labelLayer
10
742.6769569
20
116.8829904
40
1.3397529
50
179.8805475
51
185.3687565
0
LINE
8
right_labelLayer
10
748.5149414
20
114.8555101
11
751.1057617
21
114.8555101
0
LINE
8
right_labelLayer
10
751.1057617
20
114.8555101
11
751.1057617
21
114.1377367
0
LINE
8
right_labelLayer
10
751.1057617
20
114.1377367
11
749.7180664
21
113.9736742
0
LINE
8
right_labelLayer
10
747.1614258
20
108.5527757
11
748.4875976
21
108.5527757
0
LINE
8
right_labelLayer
10
748.1252929
20
107.5342211
11
746.7649414
21
107.5342211
0
ARC
8
right_labelLayer
10
748.2719913
20
112.8292668
40
1.8441262
50
29.4583899
51
38.3576928
0
ARC
8
right_labelLayer
10
747.5183814
20
112.3990611
40
2.7118786
50
23.1845857
51
29.5421993
0
ARC
8
right_labelLayer
10
746.7992597
20
112.0801565
40
3.4984904
50
21.250764
51
23.3489485
0
ARC
8
right_labelLayer
10
748.0215612
20
112.5662775
40
2.1831298
50
6.8504834
51
20.9871999
0
ARC
8
right_labelLayer
10
747.4067233
20
112.4829125
40
2.8035378
50
359.8710707
51
7.0432591
0
ARC
8
right_labelLayer
10
747.6089969
20
112.4495549
40
2.6013976
50
342.5649813
51
0.5957642
0
ARC
8
right_labelLayer
10
748.088773
20
112.317071
40
2.1040399
50
310.6097891
51
342.0923727
0
ARC
8
right_labelLayer
10
747.8197335
20
112.6300136
40
2.5167322
50
284.9315715
51
310.622275
0
ARC
8
right_labelLayer
10
747.4830599
20
113.809764
40
3.7434573
50
272.5334887
51
285.2579632
0
ARC
8
right_labelLayer
10
747.3964938
20
114.9922078
40
4.9286908
50
269.969238
51
272.9312225
0
ARC
8
right_labelLayer
10
747.3857549
20
113.7104597
40
3.6469508
50
263.4836655
51
270.1271414
0
ARC
8
right_labelLayer
10
747.3263331
20
113.1461056
40
3.0795032
50
259.4962756
51
263.3904775
0
ARC
8
right_labelLayer
10
747.6940022
20
108.3253682
40
2.0192621
50
117.3935069
51
128.409576
0
ARC
8
right_labelLayer
10
747.174168
20
108.9702584
40
1.1909897
50
128.0882098
51
147.1400171
0
ARC
8
right_labelLayer
10
746.8941071
20
109.1582012
40
0.8537838
50
147.5369056
51
180.2592377
0
ARC
8
right_labelLayer
10
746.628423
20
109.1470698
40
0.5881359
50
179.2918987
51
198.3580601
0
ARC
8
right_labelLayer
10
746.5183056
20
109.11813
40
0.4745628
50
199.2291826
51
239.5690844
0
ARC
8
right_labelLayer
10
746.6094745
20
109.2440575
40
0.6294943
50
238.21939
51
239.8458331
0
ARC
8
right_labelLayer
10
746.6824471
20
109.3941266
40
0.7960065
50
240.7302187
51
254.5027001
0
ARC
8
right_labelLayer
10
746.8996997
20
110.1427699
40
1.5755074
50
254.163701
51
262.2123658
0
ARC
8
right_labelLayer
10
747.0717942
20
111.3447748
40
2.7897559
50
262.0555877
51
267.2082786
0
ARC
8
right_labelLayer
10
747.1549258
20
112.8696035
40
4.3168327
50
267.0919379
51
270.0862714
0
ARC
8
right_labelLayer
10
748.5124032
20
103.9077728
40
4.6450691
50
81.5744142
51
90.3059725
0
ARC
8
right_labelLayer
10
748.7671946
20
105.5694727
40
2.9639833
50
68.3671447
51
81.7399081
0
ARC
8
right_labelLayer
10
749.0999789
20
106.4199498
40
2.0507302
50
52.1879575
51
68.2500741
0
ARC
8
right_labelLayer
10
749.3328371
20
106.7337103
40
1.6601134
50
8.6201404
51
51.8982523
0
ARC
8
right_labelLayer
10
748.5167222
20
106.5610283
40
2.4933613
50
359.743038
51
9.7326308
0
ARC
8
right_labelLayer
10
748.5532692
20
106.5189648
40
2.4569835
50
340.5268753
51
0.7201554
0
ARC
8
right_labelLayer
10
748.9142588
20
106.4290829
40
2.0869834
50
302.9903662
51
339.5494514
0
ARC
8
right_labelLayer
10
748.5353443
20
106.9105875
40
2.6977433
50
303.1868614
51
304.1721738
0
ARC
8
right_labelLayer
10
748.1821453
20
107.5220934
40
3.4030625
50
286.2542245
51
302.5279972
0
ARC
8
right_labelLayer
10
747.5394462
20
109.6420147
40
5.6181901
50
276.4939739
51
286.4953572
0
ARC
8
right_labelLayer
10
747.1384375
20
112.9941973
40
8.9942387
50
269.7545196
51
276.6169724
0
ARC
8
right_labelLayer
10
747.0699525
20
110.3577384
40
6.3577676
50
262.5634575
51
270.2699069
0
ARC
8
right_labelLayer
10
746.7585612
20
108.0497306
40
4.0288827
50
251.2101996
51
262.7063985
0
ARC
8
right_labelLayer
10
746.3097395
20
106.7323709
40
2.6371653
50
235.966808
51
251.2229009
0
ARC
8
right_labelLayer
10
745.8340289
20
106.0537184
40
1.8085718
50
208.9036409
51
236.4231421
0
ARC
8
right_labelLayer
10
745.8777013
20
106.0354107
40
1.8383303
50
182.2079927
51
207.7461421
0
ARC
8
right_labelLayer
10
746.4337568
20
106.0909404
40
2.3963545
50
179.9785321
51
183.0225045
0
ARC
8
right_labelLayer
10
745.7722467
20
106.1222796
40
1.7351114
50
138.3916128
51
181.0052658
0
ARC
8
right_labelLayer
10
745.9554774
20
105.9576099
40
1.9814603
50
113.8121489
51
138.3496291
0
ARC
8
right_labelLayer
10
746.3030459
20
105.207061
40
2.8084848
50
102.2871017
51
114.1172537
0
ARC
8
right_labelLayer
10
746.1938311
20
109.0228848
40
1.1777406
50
216.5861785
51
245.4968495
0
ARC
8
right_labelLayer
10
746.3623567
20
109.1658675
40
1.3983561
50
215.4650017
51
217.1746986
0
ARC
8
right_labelLayer
10
746.0816036
20
108.9630833
40
1.052037
50
182.1767416
51
215.3415283
0
ARC
8
right_labelLayer
10
746.3315703
20
108.9899009
40
1.3029569
50
179.9835158
51
182.9376808
0
ARC
8
right_labelLayer
10
746.326236
20
109.0012446
40
1.2976691
50
161.7225735
51
180.4843133
0
ARC
8
right_labelLayer
10
746.1835559
20
109.0401784
40
1.1500034
50
144.4963048
51
161.3350725
0
ARC
8
right_labelLayer
10
746.5638834
20
108.756726
40
1.6242663
50
132.725854
51
144.1479611
0
ARC
8
right_labelLayer
10
747.1734485
20
108.1057852
40
2.5160452
50
125.2212506
51
132.8655393
0
ARC
8
right_labelLayer
10
747.7862672
20
107.254817
40
3.5646753
50
121.235262
51
125.3795272
0
ARC
8
right_labelLayer
10
746.6998881
20
112.1403482
40
1.989337
50
215.1640948
51
247.4747805
0
ARC
8
right_labelLayer
10
747.0711915
20
112.4400131
40
2.4656592
50
212.4714357
51
215.887654
0
ARC
8
right_labelLayer
10
746.9735797
20
112.3701742
40
2.3458219
50
183.0160907
51
212.3123227
0
ARC
8
right_labelLayer
10
747.488378
20
112.4275504
40
2.8630853
50
179.9759469
51
183.620659
0
ARC
8
right_labelLayer
10
747.9036998
20
112.4564439
40
3.2785238
50
166.8195634
51
180.4839473
0
ARC
8
right_labelLayer
10
746.8160868
20
112.7310441
40
2.1570351
50
132.328774
51
167.3340942
0
ARC
8
right_labelLayer
10
746.9615958
20
112.5218874
40
2.4098762
50
106.218897
51
131.5377661
0
ARC
8
right_labelLayer
10
747.3297619
20
111.3297928
40
3.6574167
50
93.6329931
51
106.5408645
0
ARC
8
right_labelLayer
10
747.4499502
20
109.9804935
40
5.0117384
50
89.9380272
51
94.0268187
0
ARC
8
right_labelLayer
10
747.4694103
20
110.6426237
40
4.3496278
50
82.5852137
51
90.1849333
0
ARC
8
right_labelLayer
10
747.602314
20
111.6709355
40
3.3127637
50
74.0088897
51
82.5694254
0
ARC
8
right_labelLayer
10
746.2707292
20
106.0900098
40
1.1396823
50
179.2207223
51
200.935548
0
ARC
8
right_labelLayer
10
746.1352008
20
106.0586288
40
1.0020704
50
202.0286944
51
236.1457339
0
ARC
8
right_labelLayer
10
746.3394094
20
106.3179007
40
1.3313832
50
235.0633147
51
238.5042378
0
ARC
8
right_labelLayer
10
746.5769265
20
106.7421289
40
1.8173013
50
239.106623
51
254.4862555
0
ARC
8
right_labelLayer
10
746.8935325
20
107.8337784
40
2.9538893
50
254.2323937
51
263.4937356
0
ARC
8
right_labelLayer
10
747.0924116
20
109.518266
40
4.6500681
50
263.4108634
51
270.1457289
0
ARC
8
right_labelLayer
10
747.1134463
20
110.5953001
40
5.7270946
50
269.9078851
51
270.0012798
0
ARC
8
right_labelLayer
10
747.140768
20
112.4966716
40
7.6285147
50
269.7957542
51
275.399094
0
ARC
8
right_labelLayer
10
747.42628
20
109.5655858
40
4.6835758
50
275.2956986
51
283.3516237
0
ARC
8
right_labelLayer
10
747.8914377
20
107.6497032
40
2.7120791
50
283.1370437
51
295.8573082
0
ARC
8
right_labelLayer
10
748.2361008
20
106.8972612
40
1.8847369
50
296.4047309
51
301.8008251
0
ARC
8
right_labelLayer
10
748.371234
20
106.7109937
40
1.655304
50
301.2230944
51
318.6238135
0
ARC
8
right_labelLayer
10
748.6760248
20
106.4294468
40
1.2405297
50
319.0765449
51
1.1407057
0
ARC
8
right_labelLayer
10
748.3810352
20
106.4663045
40
1.5353215
50
359.5461455
51
10.990409
0
ARC
8
right_labelLayer
10
748.974091
20
106.5869303
40
0.9301615
50
10.6608268
51
30.9362411
0
ARC
8
right_labelLayer
10
749.1621176
20
106.6912793
40
0.7152753
50
31.5095663
51
58.0777848
0
ARC
8
right_labelLayer
10
748.9858894
20
106.3757361
40
1.0764203
50
58.9971959
51
73.8586886
0
ARC
8
right_labelLayer
10
748.6296806
20
105.209612
40
2.2956737
50
73.4100451
51
81.5907118
0
ARC
8
right_labelLayer
10
748.3278778
20
103.256546
40
4.2718979
50
81.4172238
51
86.575694
0
ARC
8
right_labelLayer
10
748.1429284
20
100.3139154
40
7.2203271
50
86.5054159
51
90.1399435
0
ARC
8
right_labelLayer
10
746.7487117
20
104.9257837
40
2.6084879
50
89.6435104
51
100.0209376
0
ARC
8
right_labelLayer
10
746.5847627
20
105.8176453
40
1.7017154
50
99.8102777
51
116.8229761
0
ARC
8
right_labelLayer
10
746.4250575
20
106.1544394
40
1.3291277
50
117.2304233
51
130.5023669
0
ARC
8
right_labelLayer
10
746.3430631
20
106.2598213
40
1.1957594
50
130.7944874
51
169.0413389
0
ARC
8
right_labelLayer
10
746.9468976
20
106.1176162
40
1.8157858
50
168.2580579
51
180.3820025
0
ARC
8
right_labelLayer
10
747.9613617
20
112.4391541
40
2.2150398
50
179.5617623
51
191.6528743
0
ARC
8
right_labelLayer
10
747.1912141
20
112.2727618
40
1.4271764
50
191.3555091
51
213.366034
0
ARC
8
right_labelLayer
10
747.0062614
20
112.1659678
40
1.2140381
50
213.9573788
51
227.7971745
0
ARC
8
right_labelLayer
10
747.1671745
20
112.3611285
40
1.4667505
50
228.2620598
51
254.7341302
0
ARC
8
right_labelLayer
10
747.372748
20
113.0658339
40
2.2007541
50
254.4016189
51
267.4348587
0
ARC
8
right_labelLayer
10
747.4263764
20
113.7849647
40
2.9216425
50
267.015382
51
270.0323752
0
ARC
8
right_labelLayer
10
747.4614351
20
113.3352411
40
2.4721443
50
269.2256988
51
284.3773336
0
ARC
8
right_labelLayer
10
747.798385
20
112.1613059
40
1.2517948
50
282.779672
51
346.4828462
0
ARC
8
right_labelLayer
10
746.7909991
20
112.4466559
40
2.2983562
50
345.4361933
51
0.746596
0
ARC
8
right_labelLayer
10
746.6493927
20
112.5114966
40
2.4400169
50
359.1806299
51
15.043191
0
ARC
8
right_labelLayer
10
747.7550059
20
112.8340165
40
1.2888166
50
13.9535718
51
77.6673788
0
ARC
8
right_labelLayer
10
747.4377929
20
111.6972541
40
2.4680119
50
76.1095331
51
90.7028248
0
ARC
8
right_labelLayer
10
747.3903121
20
111.7840895
40
2.3810531
50
89.5859322
51
101.3334331
0
ARC
8
right_labelLayer
10
747.2201554
20
112.5956613
40
1.5518854
50
101.0620683
51
121.9738771
0
ARC
8
right_labelLayer
10
747.1005603
20
112.8108008
40
1.3061148
50
122.5210037
51
134.9967115
0
ARC
8
right_labelLayer
10
747.1498071
20
112.7812907
40
1.361875
50
135.5840028
51
163.001572
0
ARC
8
right_labelLayer
10
747.8689851
20
112.5455715
40
2.1185999
50
162.5912293
51
175.7343007
0
ARC
8
right_labelLayer
10
748.7315167
20
112.4605997
40
2.9851334
50
175.3392958
51
180.0864421
0
LINE
8
right_labelLayer
10
758.9055664
20
107.3633226
11
757.7708008
21
107.3633226
0
LINE
8
right_labelLayer
10
757.7708008
20
107.3633226
11
757.7708008
21
112.2100023
0
LINE
8
right_labelLayer
10
753.7786133
20
111.2803148
11
753.7786133
21
107.3633226
0
LINE
8
right_labelLayer
10
753.7786133
20
107.3633226
11
752.6438476
21
107.3633226
0
LINE
8
right_labelLayer
10
752.6438476
20
107.3633226
11
752.6438476
21
118.0000414
0
LINE
8
right_labelLayer
10
752.6438476
20
118.0000414
11
753.7786133
21
118.0000414
0
LINE
8
right_labelLayer
10
753.7786133
20
118.0000414
11
753.7786133
21
114.7803148
0
LINE
8
right_labelLayer
10
753.7239258
20
113.8164476
11
753.7922851
21
113.8164476
0
LINE
8
right_labelLayer
10
758.9055664
20
112.2510179
11
758.9055664
21
107.3633226
0
ARC
8
right_labelLayer
10
754.563167
20
112.2283995
40
3.2076865
50
359.6713871
51
8.6877291
0
ARC
8
right_labelLayer
10
755.7520224
20
112.4169446
40
2.0040036
50
8.4931351
51
22.6580017
0
ARC
8
right_labelLayer
10
756.3560438
20
112.6679579
40
1.3499028
50
22.7024279
51
42.3419359
0
ARC
8
right_labelLayer
10
756.4239404
20
112.6985001
40
1.2793555
50
43.3790815
51
71.5386109
0
ARC
8
right_labelLayer
10
756.1700479
20
111.9890615
40
2.0327477
50
71.0827832
51
84.3691443
0
ARC
8
right_labelLayer
10
756.0560779
20
111.0200673
40
3.0083048
50
84.0197753
51
90.1510991
0
ARC
8
right_labelLayer
10
756.0236875
20
110.5944841
40
3.4339647
50
89.5919316
51
100.3595035
0
ARC
8
right_labelLayer
10
755.7805322
20
111.8723016
40
2.1332725
50
100.1067826
51
118.0847333
0
ARC
8
right_labelLayer
10
755.5332241
20
112.3575817
40
1.5887393
50
118.4551234
51
139.6706035
0
ARC
8
right_labelLayer
10
755.7815095
20
112.187875
40
1.8881069
50
140.6208301
51
160.5048649
0
ARC
8
right_labelLayer
10
757.0902337
20
111.7033915
40
3.2835473
50
160.1567202
51
171.5312809
0
ARC
8
right_labelLayer
10
759.2077663
20
111.3678925
40
5.4274368
50
171.3202203
51
178.3406682
0
ARC
8
right_labelLayer
10
761.1020855
20
111.2832555
40
7.3234728
50
178.1079302
51
180.0230068
0
ARC
8
right_labelLayer
10
743.5704412
20
114.7681515
40
10.2081793
50
357.8674175
51
0.0682693
0
ARC
8
right_labelLayer
10
747.0385718
20
114.6358319
40
6.7375277
50
354.9828147
51
357.8943914
0
ARC
8
right_labelLayer
10
749.3283731
20
114.4364413
40
4.4390624
50
351.9713819
51
354.9618167
0
ARC
8
right_labelLayer
10
755.7143849
20
112.6141073
40
2.2671766
50
119.8315768
51
147.9725862
0
ARC
8
right_labelLayer
10
755.9888921
20
112.1924202
40
2.7696862
50
116.6657598
51
120.4183366
0
ARC
8
right_labelLayer
10
756.0401789
20
112.057722
40
2.9131112
50
96.6652735
51
116.378235
0
ARC
8
right_labelLayer
10
756.1506227
20
111.2957338
40
3.6828296
50
89.8927027
51
96.9959408
0
ARC
8
right_labelLayer
10
756.1859408
20
110.3747333
40
4.6039114
50
80.6863018
51
90.3537056
0
ARC
8
right_labelLayer
10
756.4726133
20
112.0608907
40
2.8936049
50
65.6022735
51
80.8844306
0
ARC
8
right_labelLayer
10
756.8168496
20
112.8361857
40
2.0453617
50
46.7400751
51
65.4130824
0
ARC
8
right_labelLayer
10
756.8402428
20
112.9100551
40
1.97582
50
19.2204387
51
45.7660511
0
ARC
8
right_labelLayer
10
755.7009806
20
112.4877207
40
3.1907011
50
6.4733644
51
19.646815
0
ARC
8
right_labelLayer
10
753.9986356
20
112.2686171
40
4.9069623
50
359.7945039
51
6.7744075
0
LINE
8
right_labelLayer
10
764.6819336
20
108.2998461
11
764.6819336
21
107.431682
0
LINE
8
right_labelLayer
10
761.3186523
20
109.5166429
11
761.3186523
21
113.9736742
0
LINE
8
right_labelLayer
10
761.3186523
20
113.9736742
11
760.2454101
21
113.9736742
0
LINE
8
right_labelLayer
10
760.2454101
20
113.9736742
11
760.2454101
21
114.5205492
0
LINE
8
right_labelLayer
10
760.2454101
20
114.5205492
11
761.3186523
21
114.9922289
0
LINE
8
right_labelLayer
10
761.3186523
20
114.9922289
11
761.7971679
21
116.5918382
0
LINE
8
right_labelLayer
10
761.7971679
20
116.5918382
11
762.4534179
21
116.5918382
0
LINE
8
right_labelLayer
10
762.4534179
20
116.5918382
11
762.4534179
21
114.8555101
0
LINE
8
right_labelLayer
10
762.4534179
20
114.8555101
11
764.6272461
21
114.8555101
0
LINE
8
right_labelLayer
10
764.6272461
20
114.8555101
11
764.6272461
21
113.9736742
0
LINE
8
right_labelLayer
10
764.6272461
20
113.9736742
11
762.4534179
21
113.9736742
0
LINE
8
right_labelLayer
10
762.4534179
20
113.9736742
11
762.4534179
21
109.5644945
0
ARC
8
right_labelLayer
10
763.6643265
20
111.8898234
40
3.7267042
50
269.880333
51
278.3028589
0
ARC
8
right_labelLayer
10
763.6998123
20
111.5998119
40
3.4346148
50
278.4157178
51
279.0083293
0
ARC
8
right_labelLayer
10
763.2815386
20
114.2719164
40
6.1392554
50
278.9590685
51
280.5103537
0
ARC
8
right_labelLayer
10
763.6801064
20
112.1332842
40
3.9638016
50
280.4848283
51
282.6267515
0
ARC
8
right_labelLayer
10
764.0296041
20
110.5805189
40
2.3721909
50
282.587809
51
285.5793814
0
ARC
8
right_labelLayer
10
764.2049953
20
109.9355323
40
1.7038017
50
285.7232732
51
286.2557847
0
ARC
8
right_labelLayer
10
764.2048461
20
108.4407488
40
1.1161667
50
287.9888515
51
295.3048159
0
ARC
8
right_labelLayer
10
763.9356258
20
109.255271
40
1.9740213
50
283.3070047
51
288.1197382
0
ARC
8
right_labelLayer
10
763.6512308
20
110.4415953
40
3.1939546
50
280.0070333
51
283.3734583
0
ARC
8
right_labelLayer
10
763.4605901
20
111.4763344
40
4.2460865
50
279.1865642
51
280.114103
0
ARC
8
right_labelLayer
10
763.344177
20
112.1383969
40
4.9182512
50
275.5259953
51
279.2939952
0
ARC
8
right_labelLayer
10
763.4757877
20
110.7636717
40
3.5372414
50
270.8932023
51
275.5484028
0
ARC
8
right_labelLayer
10
763.4923358
20
110.1334134
40
2.9068095
50
270.0028502
51
270.7607212
0
ARC
8
right_labelLayer
10
763.4466885
20
110.1900869
40
2.9638368
50
253.7847806
51
270.8852679
0
ARC
8
right_labelLayer
10
763.0955527
20
108.992583
40
1.7159191
50
190.3817648
51
253.8772427
0
ARC
8
right_labelLayer
10
764.8852903
20
109.4764961
40
3.5668638
50
179.3550945
51
192.8477568
0
ARC
8
right_labelLayer
10
764.7384089
20
109.5502022
40
2.2850357
50
179.6416289
51
189.7505893
0
ARC
8
right_labelLayer
10
763.9317549
20
109.4063261
40
1.4656766
50
189.5479729
51
205.7873393
0
ARC
8
right_labelLayer
10
763.6002434
20
109.2534555
40
1.1006946
50
206.1293965
51
221.4084054
0
ARC
8
right_labelLayer
10
763.5630758
20
109.2252539
40
1.0541708
50
221.5949335
51
262.350513
0
ARC
8
right_labelLayer
10
763.6514786
20
109.679858
40
1.5167391
50
261.3266421
51
270.1913104
0
LINE
8
bottom_outsideCutPath
10
1003.2
20
1003.2
11
1003.2
21
943.804878
0
LINE
8
bottom_outsideCutPath
10
1003.2
20
943.804878
11
1000.4
21
943.804878
0
LINE
8
bottom_outsideCutPath
10
1000.4
20
943.804878
11
1000.4
21
909.6585366
0
LINE
8
bottom_outsideCutPath
10
1000.4
20
909.6585366
11
1003.2
21
909.6585366
0
LINE
8
bottom_outsideCutPath
10
1003.2
20
909.6585366
11
1003.2
21
875.5121951
0
LINE
8
bottom_outsideCutPath
10
1003.2
20
875.5121951
11
1000.4
21
875.5121951
0
LINE
8
bottom_outsideCutPath
10
1000.4
20
875.5121951
11
1000.4
21
841.3658537
0
LINE
8
bottom_outsideCutPath
10
1000.4
20
841.3658537
11
1003.2
21
841.3658537
0
LINE
8
bottom_outsideCutPath
10
1003.2
20
841.3658537
11
1003.2
21
807.2195122
0
LINE
8
bottom_outsideCutPath
10
1003.2
20
807.2195122
11
1000.4
21
807.2195122
0
LINE
8
bottom_outsideCutPath
10
1000.4
20
807.2195122
11
1000.4
21
773.0731707
0
LINE
8
bottom_outsideCutPath
10
1000.4
20
773.0731707
11
1003.2
21
773.0731707
0
LINE
8
bottom_outsideCutPath
10
1003.2
20
773.0731707
11
1003.2
21
738.9268293
0
LINE
8
bottom_outsideCutPath
10
1003.2
20
738.9268293
11
1000.4
21
738.9268293
0
LINE
8
bottom_outsideCutPath
10
1000.4
20
738.9268293
11
1000.4
21
704.7804878
0
LINE
8
bottom_outsideCutPath
10
1000.4
20
704.7804878
11
1003.2
21
704.7804878
0
LINE
8
bottom_outsideCutPath
10
1003.2
20
704.7804878
11
1003.2
21
670.6341463
0
LINE
8
bottom_outsideCutPath
10
1003.2
20
670.6341463
11
1000.4
21
670.6341463
0
LINE
8
bottom_outsideCutPath
10
1000.4
20
670.6341463
11
1000.4
21
636.4878049
0
LINE
8
bottom_outsideCutPath
10
1000.4
20
636.4878049
11
1003.2
21
636.4878049
0
LINE
8
bottom_outsideCutPath
10
1003.2
20
636.4878049
11
1003.2
21
602.3414634
0
LINE
8
bottom_outsideCutPath
10
1003.2
20
602.3414634
11
1000.4
21
602.3414634
0
LINE
8
bottom_outsideCutPath
10
1000.4
20
602.3414634
11
1000.4
21
568.195122
0
LINE
8
bottom_outsideCutPath
10
1000.4
20
568.195122
11
1003.2
21
568.195122
0
LINE
8
bottom_outsideCutPath
10
1003.2
20
568.195122
11
1003.2
21
534.0487805
0
LINE
8
bottom_outsideCutPath
10
1003.2
20
534.0487805
11
1003.2
21
508.8
0
LINE
8
bottom_outsideCutPath
10
1003.2
20
508.8
11
1062.595122
21
508.8
0
LINE
8
bottom_outsideCutPath
10
1062.595122
20
508.8
11
1062.595122
21
506
0
LINE
8
bottom_outsideCutPath
10
1062.595122
20
506
11
1096.7414634
21
506
0
LINE
8
bottom_outsideCutPath
10
1096.7414634
20
506
11
1096.7414634
21
508.8
0
LINE
8
bottom_outsideCutPath
10
1096.7414634
20
508.8
11
1130.8878049
21
508.8
0
LINE
8
bottom_outsideCutPath
10
1130.8878049
20
508.8
11
1130.8878049
21
506
0
LINE
8
bottom_outsideCutPath
10
1130.8878049
20
506
11
1165.0341463
21
506
0
LINE
8
bottom_outsideCutPath
10
1165.0341463
20
506
11
1165.0341463
21
508.8
0
LINE
8
bottom_outsideCutPath
10
1165.0341463
20
508.8
11
1199.1804878
21
508.8
0
LINE
8
bottom_outsideCutPath
10
1199.1804878
20
508.8
11
1199.1804878
21
506
0
LINE
8
bottom_outsideCutPath
10
1199.1804878
20
506
11
1233.3268293
21
506
0
LINE
8
bottom_outsideCutPath
10
1233.3268293
20
506
11
1233.3268293
21
508.8
0
LINE
8
bottom_outsideCutPath
10
1233.3268293
20
508.8
11
1267.4731707
21
508.8
0
LINE
8
bottom_outsideCutPath
10
1267.4731707
20
508.8
11
1267.4731707
21
506
0
LINE
8
bottom_outsideCutPath
10
1267.4731707
20
506
11
1301.6195122
21
506
0
LINE
8
bottom_outsideCutPath
10
1301.6195122
20
506
11
1301.6195122
21
508.8
0
LINE
8
bottom_outsideCutPath
10
1301.6195122
20
508.8
11
1335.7658537
21
508.8
0
LINE
8
bottom_outsideCutPath
10
1335.7658537
20
508.8
11
1335.7658537
21
506
0
LINE
8
bottom_outsideCutPath
10
1335.7658537
20
506
11
1369.9121951
21
506
0
LINE
8
bottom_outsideCutPath
10
1369.9121951
20
506
11
1369.9121951
21
508.8
0
LINE
8
bottom_outsideCutPath
10
1369.9121951
20
508.8
11
1404.0585366
21
508.8
0
LINE
8
bottom_outsideCutPath
10
1404.0585366
20
508.8
11
1404.0585366
21
506
0
LINE
8
bottom_outsideCutPath
10
1404.0585366
20
506
11
1438.204878
21
506
0
LINE
8
bottom_outsideCutPath
10
1438.204878
20
506
11
1438.204878
21
508.8
0
LINE
8
bottom_outsideCutPath
10
1438.204878
20
508.8
11
1472.3512195
21
508.8
0
LINE
8
bottom_outsideCutPath
10
1472.3512195
20
508.8
11
1497.6
21
508.8
0
LINE
8
bottom_outsideCutPath
10
1497.6
20
508.8
11
1497.6
21
568.195122
0
LINE
8
bottom_outsideCutPath
10
1497.6
20
568.195122
11
1500.4
21
568.195122
0
LINE
8
bottom_outsideCutPath
10
1500.4
20
568.195122
11
1500.4
21
602.3414634
0
LINE
8
bottom_outsideCutPath
10
1500.4
20
602.3414634
11
1497.6
21
602.3414634
0
LINE
8
bottom_outsideCutPath
10
1497.6
20
602.3414634
11
1497.6
21
636.4878049
0
LINE
8
bottom_outsideCutPath
10
1497.6
20
636.4878049
11
1500.4
21
636.4878049
0
LINE
8
bottom_outsideCutPath
10
1500.4
20
636.4878049
11
1500.4
21
670.6341463
0
LINE
8
bottom_outsideCutPath
10
1500.4
20
670.6341463
11
1497.6
21
670.6341463
0
LINE
8
bottom_outsideCutPath
10
1497.6
20
670.6341463
11
1497.6
21
704.7804878
0
LINE
8
bottom_outsideCutPath
10
1497.6
20
704.7804878
11
1500.4
21
704.7804878
0
LINE
8
bottom_outsideCutPath
10
1500.4
20
704.7804878
11
1500.4
21
738.9268293
0
LINE
8
bottom_outsideCutPath
10
1500.4
20
738.9268293
11
1497.6
21
738.9268293
0
LINE
8
bottom_outsideCutPath
10
1497.6
20
738.9268293
11
1497.6
21
773.0731707
0
LINE
8
bottom_outsideCutPath
10
1497.6
20
773.0731707
11
1500.4
21
773.0731707
0
LINE
8
bottom_outsideCutPath
10
1500.4
20
773.0731707
11
1500.4
21
807.2195122
0
LINE
8
bottom_outsideCutPath
10
1500.4
20
807.2195122
11
1497.6
21
807.2195122
0
LINE
8
bottom_outsideCutPath
10
1497.6
20
807.2195122
11
1497.6
21
841.3658537
0
LINE
8
bottom_outsideCutPath
10
1497.6
20
841.3658537
11
1500.4
21
841.3658537
0
LINE
8
bottom_outsideCutPath
10
1500.4
20
841.3658537
11
1500.4
21
875.5121951
0
LINE
8
bottom_outsideCutPath
10
1500.4
20
875.5121951
11
1497.6
21
875.5121951
0
LINE
8
bottom_outsideCutPath
10
1497.6
20
875.5121951
11
1497.6
21
909.6585366
0
LINE
8
bottom_outsideCutPath
10
1497.6
20
909.6585366
11
1500.4
21
909.6585366
0
LINE
8
bottom_outsideCutPath
10
1500.4
20
909.6585366
11
1500.4
21
943.804878
0
LINE
8
bottom_outsideCutPath
10
1500.4
20
943.804878
11
1497.6
21
943.804878
0
LINE
8
bottom_outsideCutPath
10
1497.6
20
943.804878
11
1497.6
21
977.9512195
0
LINE
8
bottom_outsideCutPath
10
1497.6
20
977.9512195
11
1497.6
21
1003.2
0
LINE
8
bottom_outsideCutPath
10
1497.6
20
1003.2
11
1438.204878
21
1003.2
0
LINE
8
bottom_outsideCutPath
10
1438.204878
20
1003.2
11
1438.204878
21
1006
0
LINE
8
bottom_outsideCutPath
10
1438.204878
20
1006
11
1404.0585366
21
1006
0
LINE
8
bottom_outsideCutPath
10
1404.0585366
20
1006
11
1404.0585366
21
1003.2
0
LINE
8
bottom_outsideCutPath
10
1404.0585366
20
1003.2
11
1369.9121951
21
1003.2
0
LINE
8
bottom_outsideCutPath
10
1369.9121951
20
1003.2
11
1369.9121951
21
1006
0
LINE
8
bottom_outsideCutPath
10
1369.9121951
20
1006
11
1335.7658537
21
1006
0
LINE
8
bottom_outsideCutPath
10
1335.7658537
20
1006
11
1335.7658537
21
1003.2
0
LINE
8
bottom_outsideCutPath
10
1335.7658537
20
1003.2
11
1301.6195122
21
1003.2
0
LINE
8
bottom_outsideCutPath
10
1301.6195122
20
1003.2
11
1301.6195122
21
1006
0
LINE
8
bottom_outsideCutPath
10
1301.6195122
20
1006
11
1267.4731707
21
1006
0
LINE
8
bottom_outsideCutPath
10
1267.4731707
20
1006
11
1267.4731707
21
1003.2
0
LINE
8
bottom_outsideCutPath
10
1267.4731707
20
1003.2
11
1233.3268293
21
1003.2
0
LINE
8
bottom_outsideCutPath
10
1233.3268293
20
1003.2
11
1233.3268293
21
1006
0
LINE
8
bottom_outsideCutPath
10
1233.3268293
20
1006
11
1199.1804878
21
1006
0
LINE
8
bottom_outsideCutPath
10
1199.1804878
20
1006
11
1199.1804878
21
1003.2
0
LINE
8
bottom_outsideCutPath
10
1199.1804878
20
1003.2
11
1165.0341463
21
1003.2
0
LINE
8
bottom_outsideCutPath
10
1165.0341463
20
1003.2
11
1165.0341463
21
1006
0
LINE
8
bottom_outsideCutPath
10
1165.0341463
20
1006
11
1130.8878049
21
1006
0
LINE
8
bottom_outsideCutPath
10
1130.8878049
20
1006
11
1130.8878049
21
1003.2
0
LINE
8
bottom_outsideCutPath
10
1130.8878049
20
1003.2
11
1096.7414634
21
1003.2
0
LINE
8
bottom_outsideCutPath
10
1096.7414634
20
1003.2
11
1096.7414634
21
1006
0
LINE
8
bottom_outsideCutPath
10
1096.7414634
20
1006
11
1062.595122
21
1006
0
LINE
8
bottom_outsideCutPath
10
1062.595122
20
1006
11
1062.595122
21
1003.2
0
LINE
8
bottom_outsideCutPath
10
1062.595122
20
1003.2
11
1028.4487805
21
1003.2
0
LINE
8
bottom_outsideCutPath
10
1028.4487805
20
1003.2
11
1003.2
21
1003.2
0
LINE
8
bottom_labelLayer
10
1094.0032787
20
725.386029
11
1093.4173412
21
725.386029
0
LINE
8
bottom_labelLayer
10
1093.4173412
20
725.386029
11
1091.7083568
21
718.5012634
0
LINE
8
bottom_labelLayer
10
1091.7083568
20
718.5012634
11
1085.8978099
21
718.5012634
0
LINE
8
bottom_labelLayer
10
1085.8978099
20
718.5012634
11
1085.8978099
21
794.4778259
0
LINE
8
bottom_labelLayer
10
1085.8978099
20
794.4778259
11
1094.0032787
21
794.4778259
0
LINE
8
bottom_labelLayer
10
1094.0032787
20
794.4778259
11
1094.0032787
21
776.0207947
0
LINE
8
bottom_labelLayer
10
1093.6126537
20
764.8879822
11
1094.0032787
21
764.8879822
0
ARC
8
bottom_labelLayer
10
1111.0433074
20
748.1238645
40
24.7731235
50
74.2393317
51
90.5623798
0
ARC
8
bottom_labelLayer
10
1112.6813905
20
754.1332406
40
18.5448201
50
38.563128
51
74.0670382
0
ARC
8
bottom_labelLayer
10
1108.465867
20
750.8554256
40
23.8844309
50
16.4709281
51
38.4075287
0
ARC
8
bottom_labelLayer
10
1096.3215564
20
747.0473265
40
36.610684
50
5.1338487
51
16.7973375
0
ARC
8
bottom_labelLayer
10
1080.9904745
20
745.4187505
40
52.0265942
50
359.8779271
51
5.4093633
0
ARC
8
bottom_labelLayer
10
1085.4935196
20
745.0275239
40
47.524258
50
350.6562818
51
0.3380314
0
ARC
8
bottom_labelLayer
10
1102.0612511
20
742.2095351
40
30.7189596
50
335.8305974
51
350.8254832
0
ARC
8
bottom_labelLayer
10
1109.3490972
20
739.0640009
40
22.7823652
50
321.3161469
51
335.5436126
0
ARC
8
bottom_labelLayer
10
1112.1352954
20
736.793673
40
19.1884589
50
274.0640055
51
321.408102
0
ARC
8
bottom_labelLayer
10
1110.8373025
20
745.0156592
40
27.4909834
50
269.9225757
51
275.5481607
0
ARC
8
bottom_labelLayer
10
1110.6634654
20
742.1099607
40
24.5856397
50
255.7755391
51
270.3185479
0
ARC
8
bottom_labelLayer
10
1109.9618563
20
738.9927918
40
21.3918135
50
245.9801595
51
255.5455807
0
ARC
8
bottom_labelLayer
10
1108.6029179
20
735.8325712
40
17.9521504
50
215.5850189
51
245.836166
0
ARC
8
bottom_labelLayer
10
925.010352
20
775.8779289
40
168.9929871
50
358.112324
51
0.0484376
0
ARC
8
bottom_labelLayer
10
972.0440317
20
774.2988867
40
121.9328207
50
355.7238629
51
358.1258976
0
ARC
8
bottom_labelLayer
10
992.7353929
20
772.877552
40
101.1931568
50
355.4715755
51
355.6528384
0
ARC
8
bottom_labelLayer
10
1109.1196246
20
754.3469473
40
18.4287094
50
95.1835132
51
145.1108986
0
ARC
8
bottom_labelLayer
10
1110.7394378
20
745.2126843
40
27.6831769
50
89.8743365
51
96.81454
0
ARC
8
bottom_labelLayer
10
1109.4585855
20
743.3322744
40
22.777043
50
89.5731318
51
100.7324253
0
ARC
8
bottom_labelLayer
10
1107.7724484
20
751.8512206
40
14.0932918
50
100.4469413
51
119.6700792
0
ARC
8
bottom_labelLayer
10
1106.2088947
20
754.7744693
40
10.779706
50
120.1402961
51
142.4248963
0
ARC
8
bottom_labelLayer
10
1108.7956706
20
753.0632344
40
13.8751428
50
143.3382342
51
161.2559902
0
ARC
8
bottom_labelLayer
10
1119.6130906
20
749.2226888
40
25.3534798
50
160.8926387
51
171.2334287
0
ARC
8
bottom_labelLayer
10
1137.671512
20
746.3094413
40
43.6451237
50
171.0667819
51
177.8456876
0
ARC
8
bottom_labelLayer
10
1156.4518426
20
745.3542642
40
62.4485812
50
177.6176631
51
180.0425349
0
ARC
8
bottom_labelLayer
10
1147.595589
20
745.0986358
40
53.5927189
50
179.7762715
51
185.7075271
0
ARC
8
bottom_labelLayer
10
1126.465852
20
742.9215213
40
32.3512826
50
185.592481
51
194.205073
0
ARC
8
bottom_labelLayer
10
1112.9304154
20
739.4086029
40
18.3678563
50
193.9430413
51
208.0218375
0
ARC
8
bottom_labelLayer
10
1107.4539247
20
736.6225624
40
12.2250047
50
208.5536543
51
217.5605319
0
ARC
8
bottom_labelLayer
10
1107.0077354
20
736.4369798
40
11.7588381
50
218.1690475
51
253.8047165
0
ARC
8
bottom_labelLayer
10
1109.1887694
20
743.1613236
40
18.8259277
50
253.1382383
51
266.8483175
0
ARC
8
bottom_labelLayer
10
1109.8003697
20
750.3740052
40
26.0622051
50
266.3775733
51
270.0510508
0
ARC
8
bottom_labelLayer
10
1109.9964931
20
740.4690536
40
16.1581684
50
269.3868899
51
285.8630691
0
ARC
8
bottom_labelLayer
10
1111.1969423
20
736.1304671
40
11.6567171
50
286.0162908
51
326.8497322
0
ARC
8
bottom_labelLayer
10
1105.4029415
20
739.9687798
40
18.6066674
50
326.7105044
51
343.666174
0
ARC
8
bottom_labelLayer
10
1094.5569023
20
743.2829731
40
29.9472986
50
343.4171427
51
353.6369116
0
ARC
8
bottom_labelLayer
10
1078.1751359
20
745.2267857
40
46.4437213
50
353.4934762
51
0.2205477
0
ARC
8
bottom_labelLayer
10
1076.7311406
20
745.5993998
40
47.8877648
50
359.7680782
51
6.3095284
0
ARC
8
bottom_labelLayer
10
1094.7694487
20
747.6694082
40
29.731322
50
6.1648657
51
16.0396411
0
ARC
8
bottom_labelLayer
10
1106.3894803
20
751.093829
40
17.6176576
50
15.7779419
51
32.0151272
0
ARC
8
bottom_labelLayer
10
1110.0128732
20
753.1688053
40
13.4462889
50
32.7034266
51
35.5242223
0
ARC
8
bottom_labelLayer
10
1111.3382895
20
754.1108489
40
11.8202012
50
35.5408399
51
79.801122
0
ARC
8
bottom_labelLayer
10
1109.7509569
20
747.3627799
40
18.7463068
50
78.678133
51
90.3749534
0
ARC
8
bottom_labelLayer
10
1151.5014039
20
745.0256488
40
41.8680606
50
349.1761914
51
0.3862648
0
ARC
8
bottom_labelLayer
10
1165.5973882
20
742.2155869
40
27.4953857
50
330.2507059
51
349.4116472
0
ARC
8
bottom_labelLayer
10
1169.9354219
20
739.9608476
40
22.6111094
50
318.1439739
51
329.7566225
0
ARC
8
bottom_labelLayer
10
1170.7183729
20
739.3333903
40
21.6093412
50
278.895918
51
317.9979127
0
ARC
8
bottom_labelLayer
10
1168.7010004
20
748.998798
40
31.4743961
50
269.7502871
51
279.8033249
0
ARC
8
bottom_labelLayer
10
1168.3738219
20
743.5529441
40
26.0289367
50
253.5436958
51
270.4182462
0
ARC
8
bottom_labelLayer
10
1167.5073734
20
740.2012961
40
22.5694454
50
238.8115558
51
253.2428321
0
ARC
8
bottom_labelLayer
10
1167.2277362
20
739.6389469
40
21.9436234
50
207.7947013
51
238.6757967
0
ARC
8
bottom_labelLayer
10
1171.240436
20
742.0965179
40
26.6410536
50
205.6560265
51
208.4461177
0
ARC
8
bottom_labelLayer
10
1174.3309334
20
743.3842087
40
29.9849102
50
188.9102462
51
205.3171448
0
ARC
8
bottom_labelLayer
10
1184.7466586
20
745.1482972
40
40.5483817
50
179.7744713
51
189.0932876
0
ARC
8
bottom_labelLayer
10
1186.2831133
20
745.5929573
40
42.0854875
50
169.2442938
51
180.3880785
0
ARC
8
bottom_labelLayer
10
1171.9912222
20
748.4179488
40
27.5176864
50
150.7111503
51
169.4695447
0
ARC
8
bottom_labelLayer
10
1167.4288092
20
750.7609127
40
22.3930975
50
138.1759462
51
150.2287379
0
ARC
8
bottom_labelLayer
10
1166.6698772
20
751.3433033
40
21.4393011
50
99.175936
51
137.9832744
0
ARC
8
bottom_labelLayer
10
1168.7587215
20
741.5129576
40
31.480836
50
89.7326363
51
100.0759779
0
ARC
8
bottom_labelLayer
10
1169.176207
20
745.7583605
40
27.2364345
50
73.5222743
51
90.5692232
0
ARC
8
bottom_labelLayer
10
1170.773463
20
751.5616159
40
21.2187771
50
41.1445665
51
73.213383
0
ARC
8
bottom_labelLayer
10
1167.7244325
20
748.9410155
40
25.2391297
50
13.5014357
51
41.070343
0
ARC
8
bottom_labelLayer
10
1155.9445343
20
745.8583736
40
37.4139996
50
1.1277189
51
13.8800014
0
ARC
8
bottom_labelLayer
10
1145.7981478
20
745.3146363
40
47.5703657
50
359.9918914
51
1.5419781
0
ARC
8
bottom_labelLayer
10
1193.6424032
20
745.0972595
40
41.0459151
50
179.705961
51
187.9160805
0
ARC
8
bottom_labelLayer
10
1178.588056
20
742.934717
40
25.8372832
50
187.7639281
51
200.0976876
0
ARC
8
bottom_labelLayer
10
1170.2946635
20
739.8960076
40
17.0047248
50
200.084593
51
216.9131589
0
ARC
8
bottom_labelLayer
10
1167.2662038
20
737.7335459
40
13.2848511
50
217.3009551
51
261.7099103
0
ARC
8
bottom_labelLayer
10
1168.6721178
20
744.4424214
40
20.1307993
50
260.5033169
51
270.2476758
0
ARC
8
bottom_labelLayer
10
1168.9404649
20
743.1378513
40
18.8269142
50
269.4481612
51
284.7255738
0
ARC
8
bottom_labelLayer
10
1170.4308801
20
737.610388
40
13.1022063
50
284.5662324
51
322.6333816
0
ARC
8
bottom_labelLayer
10
1166.9462057
20
740.127909
40
17.400005
50
323.0089276
51
342.6390439
0
ARC
8
bottom_labelLayer
10
1156.9793159
20
743.3853742
40
27.8851654
50
342.3615696
51
353.7537616
0
ARC
8
bottom_labelLayer
10
1142.2747838
20
745.1578135
40
42.6955556
50
353.5363091
51
0.201416
0
ARC
8
bottom_labelLayer
10
1144.5277403
20
745.5143222
40
40.442862
50
359.7075643
51
7.8972693
0
ARC
8
bottom_labelLayer
10
1159.3390459
20
747.6376591
40
25.4803769
50
7.743991
51
20.0690171
0
ARC
8
bottom_labelLayer
10
1167.5924936
20
750.6663645
40
16.6887779
50
20.0257019
51
37.4350519
0
ARC
8
bottom_labelLayer
10
1170.3309166
20
752.6095083
40
13.3337445
50
37.9577653
51
80.4006184
0
ARC
8
bottom_labelLayer
10
1168.7747583
20
745.6660878
40
20.4429113
50
79.3453423
51
90.317484
0
ARC
8
bottom_labelLayer
10
1168.4866139
20
746.8193974
40
19.2900805
50
89.4805968
51
103.8805005
0
ARC
8
bottom_labelLayer
10
1166.8657492
20
752.9916506
40
12.9095603
50
103.4685239
51
142.3118906
0
ARC
8
bottom_labelLayer
10
1170.016841
20
750.7755791
40
16.7588926
50
142.9025762
51
162.3749603
0
ARC
8
bottom_labelLayer
10
1179.9459311
20
747.466735
40
27.2241664
50
162.0653142
51
173.1674842
0
ARC
8
bottom_labelLayer
10
1195.4279957
20
745.4920863
40
42.8313632
50
173.008614
51
180.2463825
0
LINE
8
bottom_labelLayer
10
1232.1868724
20
725.1907165
11
1232.1868724
21
718.9895447
0
LINE
8
bottom_labelLayer
10
1208.1634349
20
733.8821228
11
1208.1634349
21
765.7180603
0
LINE
8
bottom_labelLayer
10
1208.1634349
20
765.7180603
11
1200.4974193
21
765.7180603
0
LINE
8
bottom_labelLayer
10
1200.4974193
20
765.7180603
11
1200.4974193
21
769.6243103
0
LINE
8
bottom_labelLayer
10
1200.4974193
20
769.6243103
11
1208.1634349
21
772.9934509
0
LINE
8
bottom_labelLayer
10
1208.1634349
20
772.9934509
11
1211.5814037
21
784.4192322
0
LINE
8
bottom_labelLayer
10
1211.5814037
20
784.4192322
11
1216.2689037
21
784.4192322
0
LINE
8
bottom_labelLayer
10
1216.2689037
20
784.4192322
11
1216.2689037
21
772.0168884
0
LINE
8
bottom_labelLayer
10
1216.2689037
20
772.0168884
11
1231.7962474
21
772.0168884
0
LINE
8
bottom_labelLayer
10
1231.7962474
20
772.0168884
11
1231.7962474
21
765.7180603
0
LINE
8
bottom_labelLayer
10
1231.7962474
20
765.7180603
11
1216.2689037
21
765.7180603
0
LINE
8
bottom_labelLayer
10
1216.2689037
20
765.7180603
11
1216.2689037
21
734.2239197
0
ARC
8
bottom_labelLayer
10
1224.9182413
20
750.8335605
40
26.6194645
50
269.880353
51
278.3028319
0
ARC
8
bottom_labelLayer
10
1225.1709654
20
748.7675695
40
24.5386807
50
278.4155255
51
279.0079989
0
ARC
8
bottom_labelLayer
10
1222.1847608
20
767.8442537
40
43.8476555
50
278.9589883
51
280.510421
0
ARC
8
bottom_labelLayer
10
1225.0312942
20
752.5707658
40
28.3111843
50
280.4847796
51
282.6268302
0
ARC
8
bottom_labelLayer
10
1227.5277525
20
741.4797471
40
16.9426852
50
282.5876655
51
285.5795091
0
ARC
8
bottom_labelLayer
10
1228.7795219
20
736.8760069
40
12.1719368
50
285.723895
51
286.2563222
0
ARC
8
bottom_labelLayer
10
1228.7791159
20
726.197145
40
7.9725972
50
287.9888198
51
295.3048044
0
ARC
8
bottom_labelLayer
10
1226.8562103
20
732.0148145
40
14.0997709
50
283.3069213
51
288.1197849
0
ARC
8
bottom_labelLayer
10
1224.8248384
20
740.4882916
40
22.8133151
50
280.0069919
51
283.3735123
0
ARC
8
bottom_labelLayer
10
1223.4658143
20
747.8634227
40
30.3124538
50
279.1862731
51
280.114324
0
ARC
8
bottom_labelLayer
10
1222.6313697
20
752.6097179
40
35.1311524
50
275.5260332
51
279.2939486
0
ARC
8
bottom_labelLayer
10
1223.5715169
20
742.7898706
40
25.2664099
50
270.8932519
51
275.5483788
0
ARC
8
bottom_labelLayer
10
1223.6896214
20
738.304078
40
20.779377
50
270.0031911
51
270.7604621
0
ARC
8
bottom_labelLayer
10
1223.3636987
20
738.6924764
40
21.1703023
50
253.7847968
51
270.8852519
0
ARC
8
bottom_labelLayer
10
1220.8555809
20
730.1388379
40
12.2565651
50
190.3817651
51
253.8772409
0
ARC
8
bottom_labelLayer
10
1233.639406
20
733.5953597
40
25.4775849
50
179.3550934
51
192.8477632
0
ARC
8
bottom_labelLayer
10
1232.5903147
20
734.1218395
40
16.3217303
50
179.6416557
51
189.7505868
0
ARC
8
bottom_labelLayer
10
1226.8284324
20
733.0941391
40
10.4690967
50
189.5479566
51
205.7873567
0
ARC
8
bottom_labelLayer
10
1224.4605335
20
732.0022275
40
7.8621287
50
206.1294332
51
221.4083941
0
ARC
8
bottom_labelLayer
10
1224.1950304
20
731.800769
40
7.5297883
50
221.5949173
51
262.3505176
0
ARC
8
bottom_labelLayer
10
1224.8264783
20
735.0479004
40
10.8338067
50
261.3266132
51
270.1913178
0
LINE
8
bottom_labelLayer
10
1267.4896068
20
725.1907165
11
1267.4896068
21
718.9895447
0
LINE
8
bottom_labelLayer
10
1243.4661693
20
733.8821228
11
1243.4661693
21
765.7180603
0
LINE
8
bottom_labelLayer
10
1243.4661693
20
765.7180603
11
1235.8001537
21
765.7180603
0
LINE
8
bottom_labelLayer
10
1235.8001537
20
765.7180603
11
1235.8001537
21
769.6243103
0
LINE
8
bottom_labelLayer
10
1235.8001537
20
769.6243103
11
1243.4661693
21
772.9934509
0
LINE
8
bottom_labelLayer
10
1243.4661693
20
772.9934509
11
1246.8841381
21
784.4192322
0
LINE
8
bottom_labelLayer
10
1246.8841381
20
784.4192322
11
1251.5716381
21
784.4192322
0
LINE
8
bottom_labelLayer
10
1251.5716381
20
784.4192322
11
1251.5716381
21
772.0168884
0
LINE
8
bottom_labelLayer
10
1251.5716381
20
772.0168884
11
1267.0989818
21
772.0168884
0
LINE
8
bottom_labelLayer
10
1267.0989818
20
772.0168884
11
1267.0989818
21
765.7180603
0
LINE
8
bottom_labelLayer
10
1267.0989818
20
765.7180603
11
1251.5716381
21
765.7180603
0
LINE
8
bottom_labelLayer
10
1251.5716381
20
765.7180603
11
1251.5716381
21
734.2239197
0
ARC
8
bottom_labelLayer
10
1260.2209757
20
750.8335605
40
26.6194645
50
269.880353
51
278.3028319
0
ARC
8
bottom_labelLayer
10
1260.4736997
20
748.7675695
40
24.5386807
50
278.4155255
51
279.0079989
0
ARC
8
bottom_labelLayer
10
1257.4874952
20
767.8442537
40
43.8476555
50
278.9589883
51
280.510421
0
ARC
8
bottom_labelLayer
10
1260.3340285
20
752.5707658
40
28.3111843
50
280.4847796
51
282.6268302
0
ARC
8
bottom_labelLayer
10
1262.8304869
20
741.4797471
40
16.9426852
50
282.5876655
51
285.5795091
0
ARC
8
bottom_labelLayer
10
1264.0822563
20
736.8760069
40
12.1719368
50
285.723895
51
286.2563222
0
ARC
8
bottom_labelLayer
10
1264.0818503
20
726.197145
40
7.9725972
50
287.9888198
51
295.3048044
0
ARC
8
bottom_labelLayer
10
1262.1589446
20
732.0148145
40
14.0997709
50
283.3069213
51
288.1197849
0
ARC
8
bottom_labelLayer
10
1260.1275728
20
740.4882916
40
22.8133151
50
280.0069919
51
283.3735123
0
ARC
8
bottom_labelLayer
10
1258.7685487
20
747.8634227
40
30.3124538
50
279.1862731
51
280.114324
0
ARC
8
bottom_labelLayer
10
1257.9341041
20
752.6097179
40
35.1311524
50
275.5260332
51
279.2939486
0
ARC
8
bottom_labelLayer
10
1258.8742512
20
742.7898706
40
25.2664099
50
270.8932519
51
275.5483788
0
ARC
8
bottom_labelLayer
10
1258.9923558
20
738.304078
40
20.779377
50
270.0031911
51
270.7604621
0
ARC
8
bottom_labelLayer
10
1258.666433
20
738.6924764
40
21.1703023
50
253.7847968
51
270.8852519
0
ARC
8
bottom_labelLayer
10
1256.1583152
20
730.1388379
40
12.2565651
50
190.3817651
51
253.8772409
0
ARC
8
bottom_labelLayer
10
1268.9421404
20
733.5953597
40
25.4775849
50
179.3550934
51
192.8477632
0
ARC
8
bottom_labelLayer
10
1267.8930491
20
734.1218395
40
16.3217303
50
179.6416557
51
189.7505868
0
ARC
8
bottom_labelLayer
10
1262.1311667
20
733.0941391
40
10.4690967
50
189.5479566
51
205.7873567
0
ARC
8
bottom_labelLayer
10
1259.7632678
20
732.0022275
40
7.8621287
50
206.1294332
51
221.4083941
0
ARC
8
bottom_labelLayer
10
1259.4977647
20
731.800769
40
7.5297883
50
221.5949173
51
262.3505176
0
ARC
8
bottom_labelLayer
10
1260.1292127
20
735.0479004
40
10.8338067
50
261.3266132
51
270.1913178
0
ARC
8
bottom_labelLayer
10
1282.5072633
20
745.0256488
40
41.8680606
50
349.1761914
51
0.3862648
0
ARC
8
bottom_labelLayer
10
1296.6032476
20
742.2155869
40
27.4953857
50
330.2507059
51
349.4116472
0
ARC
8
bottom_labelLayer
10
1300.9412813
20
739.9608476
40
22.6111094
50
318.1439739
51
329.7566225
0
ARC
8
bottom_labelLayer
10
1301.7242323
20
739.3333903
40
21.6093412
50
278.895918
51
317.9979127
0
ARC
8
bottom_labelLayer
10
1299.7068597
20
748.998798
40
31.4743961
50
269.7502871
51
279.8033249
0
ARC
8
bottom_labelLayer
10
1299.3796813
20
743.5529441
40
26.0289367
50
253.5436958
51
270.4182462
0
ARC
8
bottom_labelLayer
10
1298.5132328
20
740.2012961
40
22.5694454
50
238.8115558
51
253.2428321
0
ARC
8
bottom_labelLayer
10
1298.2335955
20
739.6389469
40
21.9436234
50
207.7947013
51
238.6757967
0
ARC
8
bottom_labelLayer
10
1302.2462954
20
742.0965179
40
26.6410536
50
205.6560265
51
208.4461177
0
ARC
8
bottom_labelLayer
10
1305.3367927
20
743.3842087
40
29.9849102
50
188.9102462
51
205.3171448
0
ARC
8
bottom_labelLayer
10
1315.7525179
20
745.1482972
40
40.5483817
50
179.7744713
51
189.0932876
0
ARC
8
bottom_labelLayer
10
1317.2889727
20
745.5929573
40
42.0854875
50
169.2442938
51
180.3880785
0
ARC
8
bottom_labelLayer
10
1302.9970816
20
748.4179488
40
27.5176864
50
150.7111503
51
169.4695447
0
ARC
8
bottom_labelLayer
10
1298.4346686
20
750.7609127
40
22.3930975
50
138.1759462
51
150.2287379
0
ARC
8
bottom_labelLayer
10
1297.6757366
20
751.3433033
40
21.4393011
50
99.175936
51
137.9832744
0
ARC
8
bottom_labelLayer
10
1299.7645809
20
741.5129576
40
31.480836
50
89.7326363
51
100.0759779
0
ARC
8
bottom_labelLayer
10
1300.1820664
20
745.7583605
40
27.2364345
50
73.5222743
51
90.5692232
0
ARC
8
bottom_labelLayer
10
1301.7793224
20
751.5616159
40
21.2187771
50
41.1445665
51
73.213383
0
ARC
8
bottom_labelLayer
10
1298.7302918
20
748.9410155
40
25.2391297
50
13.5014357
51
41.070343
0
ARC
8
bottom_labelLayer
10
1286.9503936
20
745.8583736
40
37.4139996
50
1.1277189
51
13.8800014
0
ARC
8
bottom_labelLayer
10
1276.8040072
20
745.3146363
40
47.5703657
50
359.9918914
51
1.5419781
0
ARC
8
bottom_labelLayer
10
1324.6482626
20
745.0972595
40
41.0459151
50
179.705961
51
187.9160805
0
ARC
8
bottom_labelLayer
10
1309.5939154
20
742.934717
40
25.8372832
50
187.7639281
51
200.0976876
0
ARC
8
bottom_labelLayer
10
1301.3005229
20
739.8960076
40
17.0047248
50
200.084593
51
216.9131589
0
ARC
8
bottom_labelLayer
10
1298.2720631
20
737.7335459
40
13.2848511
50
217.3009551
51
261.7099103
0
ARC
8
bottom_labelLayer
10
1299.6779771
20
744.4424214
40
20.1307993
50
260.5033169
51
270.2476758
0
ARC
8
bottom_labelLayer
10
1299.9463242
20
743.1378513
40
18.8269142
50
269.4481612
51
284.7255738
0
ARC
8
bottom_labelLayer
10
1301.4367394
20
737.610388
40
13.1022063
50
284.5662324
51
322.6333816
0
ARC
8
bottom_labelLayer
10
1297.952065
20
740.127909
40
17.400005
50
323.0089276
51
342.6390439
0
ARC
8
bottom_labelLayer
10
1287.9851753
20
743.3853742
40
27.8851654
50
342.3615696
51
353.7537616
0
ARC
8
bottom_labelLayer
10
1273.2806432
20
745.1578135
40
42.6955556
50
353.5363091
51
0.201416
0
ARC
8
bottom_labelLayer
10
1275.5335997
20
745.5143222
40
40.442862
50
359.7075643
51
7.8972693
0
ARC
8
bottom_labelLayer
10
1290.3449053
20
747.6376591
40
25.4803769
50
7.743991
51
20.0690171
0
ARC
8
bottom_labelLayer
10
1298.5983529
20
750.6663645
40
16.6887779
50
20.0257019
51
37.4350519
0
ARC
8
bottom_labelLayer
10
1301.336776
20
752.6095083
40
13.3337445
50
37.9577653
51
80.4006184
0
ARC
8
bottom_labelLayer
10
1299.7806177
20
745.6660878
40
20.4429113
50
79.3453423
51
90.317484
0
ARC
8
bottom_labelLayer
10
1299.4924733
20
746.8193974
40
19.2900805
50
89.4805968
51
103.8805005
0
ARC
8
bottom_labelLayer
10
1297.8716085
20
752.9916506
40
12.9095603
50
103.4685239
51
142.3118906
0
ARC
8
bottom_labelLayer
10
1301.0227004
20
750.7755791
40
16.7588926
50
142.9025762
51
162.3749603
0
ARC
8
bottom_labelLayer
10
1310.9517905
20
747.466735
40
27.2241664
50
162.0653142
51
173.1674842
0
ARC
8
bottom_labelLayer
10
1326.4338551
20
745.4920863
40
42.8313632
50
173.008614
51
180.2463825
0
LINE
8
bottom_labelLayer
10
1414.9017162
20
718.5012634
11
1406.7962474
21
718.5012634
0
LINE
8
bottom_labelLayer
10
1406.7962474
20
718.5012634
11
1406.7962474
21
753.3157165
0
LINE
8
bottom_labelLayer
10
1380.7708568
20
748.3840759
11
1380.7708568
21
718.5012634
0
LINE
8
bottom_labelLayer
10
1380.7708568
20
718.5012634
11
1372.6653881
21
718.5012634
0
LINE
8
bottom_labelLayer
10
1372.6653881
20
718.5012634
11
1372.6653881
21
753.3157165
0
LINE
8
bottom_labelLayer
10
1346.6888256
20
746.5774353
11
1346.6888256
21
718.5012634
0
LINE
8
bottom_labelLayer
10
1346.6888256
20
718.5012634
11
1338.5833568
21
718.5012634
0
LINE
8
bottom_labelLayer
10
1338.5833568
20
718.5012634
11
1338.5833568
21
772.0168884
0
LINE
8
bottom_labelLayer
10
1338.5833568
20
772.0168884
11
1345.1751537
21
772.0168884
0
LINE
8
bottom_labelLayer
10
1345.1751537
20
772.0168884
11
1346.4935131
21
764.6926697
0
LINE
8
bottom_labelLayer
10
1346.4935131
20
764.6926697
11
1346.8841381
21
764.6926697
0
LINE
8
bottom_labelLayer
10
1379.1107006
20
763.9114197
11
1379.5013256
21
763.9114197
0
LINE
8
bottom_labelLayer
10
1414.9017162
20
753.4133728
11
1414.9017162
21
718.5012634
0
ARC
8
bottom_labelLayer
10
1382.8848353
20
753.443075
40
23.9117513
50
359.6948305
51
8.147156
0
ARC
8
bottom_labelLayer
10
1391.6922722
20
754.7464786
40
15.0085507
50
7.9864601
51
20.7949604
0
ARC
8
bottom_labelLayer
10
1396.5607784
20
756.6114227
40
9.7951044
50
20.7071268
51
40.0217557
0
ARC
8
bottom_labelLayer
10
1397.6288268
20
757.3102325
40
8.5291521
50
41.0408088
51
73.1792668
0
ARC
8
bottom_labelLayer
10
1396.0833752
20
752.635988
40
13.4512251
50
72.6395571
51
86.2567994
0
ARC
8
bottom_labelLayer
10
1395.5882824
20
747.2935841
40
18.8151147
50
85.8144515
51
90.0685283
0
ARC
8
bottom_labelLayer
10
1395.4063912
20
745.2526299
40
20.8566644
50
89.5621389
51
101.2961646
0
ARC
8
bottom_labelLayer
10
1393.8355302
20
752.7728867
40
13.1745629
50
101.0032246
51
121.7840542
0
ARC
8
bottom_labelLayer
10
1392.6412956
20
754.904936
40
10.7337527
50
122.3597304
51
140.2884103
0
ARC
8
bottom_labelLayer
10
1394.7898605
20
753.3295345
40
13.3941069
50
140.9765307
51
161.1699467
0
ARC
8
bottom_labelLayer
10
1402.8839788
20
750.4490199
40
21.9850448
50
160.8731745
51
172.5272526
0
ARC
8
bottom_labelLayer
10
1416.4091006
20
748.5811006
40
35.6383485
50
172.3776552
51
180.1829609
0
ARC
8
bottom_labelLayer
10
1425.8072956
20
748.3841258
40
45.0364387
50
179.8941876
51
180.0000635
0
ARC
8
bottom_labelLayer
10
1348.7539759
20
753.443075
40
23.9117513
50
359.6948305
51
8.147156
0
ARC
8
bottom_labelLayer
10
1357.5614128
20
754.7464786
40
15.0085507
50
7.9864601
51
20.7949604
0
ARC
8
bottom_labelLayer
10
1362.429919
20
756.6114227
40
9.7951044
50
20.7071268
51
40.0217557
0
ARC
8
bottom_labelLayer
10
1363.5201742
20
757.3255777
40
8.5023277
50
41.061072
51
72.8993561
0
ARC
8
bottom_labelLayer
10
1361.9454501
20
752.6374522
40
13.4468346
50
72.3601008
51
85.9561854
0
ARC
8
bottom_labelLayer
10
1361.41238
20
747.1282413
40
18.9804621
50
85.523795
51
90.0793573
0
ARC
8
bottom_labelLayer
10
1361.2305516
20
745.9776278
40
20.1316584
50
89.5573215
51
101.4832127
0
ARC
8
bottom_labelLayer
10
1359.6853784
20
753.217111
40
12.7296823
50
101.1546349
51
123.065566
0
ARC
8
bottom_labelLayer
10
1358.6350513
20
755.0467346
40
10.6239708
50
123.70205
51
142.3022121
0
ARC
8
bottom_labelLayer
10
1361.0953822
20
753.3776144
40
13.5926047
50
143.0769803
51
161.3913812
0
ARC
8
bottom_labelLayer
10
1371.0127917
20
749.8750119
40
24.1097204
50
161.0234459
51
171.446909
0
ARC
8
bottom_labelLayer
10
1387.4308675
20
747.3031725
40
40.7278272
50
171.3041957
51
178.3501604
0
ARC
8
bottom_labelLayer
10
1403.1221763
20
746.6023733
40
56.4333562
50
178.0976205
51
180.0253191
0
ARC
8
bottom_labelLayer
10
1360.615898
20
756.6177173
40
15.9300373
50
117.1209552
51
149.5423711
0
ARC
8
bottom_labelLayer
10
1362.241695
20
753.7280695
40
19.2435471
50
93.8343295
51
117.5072143
0
ARC
8
bottom_labelLayer
10
1362.6907405
20
749.7506202
40
23.2428347
50
89.9662034
51
94.2831327
0
ARC
8
bottom_labelLayer
10
1362.9597884
20
746.4573275
40
26.5373518
50
77.5572213
51
90.5512986
0
ARC
8
bottom_labelLayer
10
1365.4221644
20
757.0484572
40
15.6649149
50
52.7027064
51
78.005378
0
ARC
8
bottom_labelLayer
10
1366.2994632
20
758.6806967
40
13.8379285
50
22.2097901
51
51.4970568
0
ARC
8
bottom_labelLayer
10
1394.1847361
20
755.4963243
40
16.9238404
50
119.4041756
51
150.1828816
0
ARC
8
bottom_labelLayer
10
1396.0615873
20
752.6422264
40
20.3330847
50
118.2583787
51
120.0630141
0
ARC
8
bottom_labelLayer
10
1396.0563259
20
752.4334129
40
20.514782
50
95.863515
51
117.969321
0
ARC
8
bottom_labelLayer
10
1396.7506269
20
747.4131184
40
25.5803578
50
89.9196909
51
96.2617602
0
ARC
8
bottom_labelLayer
10
1396.9735271
20
744.8190238
40
28.175048
50
79.9360994
51
90.3803714
0
ARC
8
bottom_labelLayer
10
1398.8508716
20
754.986508
40
17.8360911
50
62.9723253
51
80.1665136
0
ARC
8
bottom_labelLayer
10
1400.8133906
20
759.0128392
40
13.357926
50
44.2290002
51
62.6229105
0
ARC
8
bottom_labelLayer
10
1400.2296919
20
758.7549821
40
13.9578138
50
19.5612013
51
43.3161221
0
ARC
8
bottom_labelLayer
10
1391.7524844
20
755.5709347
40
23.0123867
50
7.5041911
51
19.9645343
0
ARC
8
bottom_labelLayer
10
1377.7250576
20
753.601064
40
37.1771325
50
359.7107372
51
7.690726
0
ENDSEC
0
EOF