0
SECTION
2
HEADER
9
$INSUNITS
70
4
9
$ACADVER
1
AC1014
9
$HANDSEED
5
FFFF
0
ENDSEC
0
SECTION
2
TABLES
0
TABLE
2
VPORT
5
8
100
AcDbSymbolTable
0
ENDTAB
0
TABLE
2
LTYPE
5
5
100
AcDbSymbolTable
0
LTYPE
5
14
100
AcDbSymbolTableRecord
100
AcDbLinetypeTableRecord
2
BYBLOCK
70
0
0
LTYPE
5
15
100
AcDbSymbolTableRecord
100
AcDbLinetypeTableRecord
2
BYLAYER
70
0
0
ENDTAB
0
TABLE
2
LAYER
5
2
100
AcDbSymbolTable
70
2
0
LAYER
5
50
100
AcDbSymbolTableRecord
100
AcDbLayerTableRecord
2
0
70
0
6
CONTINUOUS
0
ENDTAB
0
TABLE
2
STYLE
5
3
100
AcDbSymbolTable
70
1
0
STYLE
5
11
100
AcDbSymbolTableRecord
100
AcDbTextStyleTableRecord
2
STANDARD
70
0
0
ENDTAB
0
TABLE
2
VIEW
5
6
100
AcDbSymbolTable
70
0
0
ENDTAB
0
TABLE
2
UCS
5
7
100
AcDbSymbolTable
70
0
0
ENDTAB
0
TABLE
2
APPID
5
9
100
AcDbSymbolTable
70
2
0
APPID
5
12
100
AcDbSymbolTableRecord
100
AcDbRegAppTableRecord
2
ACAD
70
0
0
ENDTAB
0
TABLE
2
DIMSTYLE
5
A
100
AcDbSymbolTable
70
1
0
ENDTAB
0
TABLE
2
BLOCK_RECORD
5
1
100
AcDbSymbolTable
70
1
0
BLOCK_RECORD
5
1F
100
AcDbSymbolTableRecord
100
AcDbBlockTableRecord
2
*MODEL_SPACE
0
BLOCK_RECORD
5
1B
100
AcDbSymbolTableRecord
100
AcDbBlockTableRecord
2
*PAPER_SPACE
0
ENDTAB
0
ENDSEC
0
SECTION
2
BLOCKS
0
BLOCK
5
20
100
AcDbEntity
100
AcDbBlockBegin
2
*MODEL_SPACE
0
ENDBLK
5
21
100
AcDbEntity
100
AcDbBlockEnd
0
BLOCK
5
1C
100
AcDbEntity
100
AcDbBlockBegin
2
*PAPER_SPACE
0
ENDBLK
5
1D
100
AcDbEntity
100
AcDbBlockEnd
0
ENDSEC
0
SECTION
2
ENTITIES
0
LINE
5
100
100
AcDbEntity
8
0
100
AcDbLine
10
30.431060296111895
20
17.494473380630581
30
0
11
30.684520169516944
21
17.063476753528352
31
0
0
LINE
5
101
100
AcDbEntity
8
0
100
AcDbLine
10
30.431060296111895
20
17.494473380630581
30
0
11
30.177600422706842
21
17.925470007732805
31
0
0
LINE
5
102
100
AcDbEntity
8
0
100
AcDbLine
10
30.177600422706842
20
17.925470007732805
30
0
11
37.073546456342484
21
21.980827982213597
31
0
0
LINE
5
103
100
AcDbEntity
8
0
100
AcDbLine
10
30.684520169516944
20
17.063476753528352
30
0
11
37.580466203152582
21
21.118834728009141
31
0
0
LINE
5
104
100
AcDbEntity
8
0
100
AcDbLine
10
49.999999999999993
20
0
30
0
11
37.580466203152582
21
21.118834728009141
31
0
0
LINE
5
105
100
AcDbEntity
8
0
100
AcDbLine
10
37.073546456342484
20
21.980827982213597
30
0
11
24.654012659495077
21
43.099662710222731
31
0
0
LINE
5
106
100
AcDbEntity
8
0
100
AcDbLine
10
19.271171643010405
20
17.577606776606665
30
0
11
19.02290760685386
21
17.143596444527734
31
0
0
LINE
5
107
100
AcDbEntity
8
0
100
AcDbLine
10
19.02290760685386
20
17.143596444527734
30
0
11
18.643543420104539
21
17.360601610567201
31
0
0
LINE
5
108
100
AcDbEntity
8
0
100
AcDbLine
10
19.02290760685386
20
17.143596444527734
30
0
11
12.078742293590993
21
21.115821023032435
31
0
0
LINE
5
109
100
AcDbEntity
8
0
100
AcDbLine
10
19.271171643010405
20
17.577606776606665
30
0
11
19.519435679166946
21
18.011617108685595
31
0
0
LINE
5
110
100
AcDbEntity
8
0
100
AcDbLine
10
19.519435679166946
20
18.011617108685595
30
0
11
12.327006329747539
21
22.125854508298733
31
0
0
LINE
5
111
100
AcDbEntity
8
0
100
AcDbLine
10
24.654012659495077
20
43.099662710222731
30
0
11
12.575270365904082
21
21.983841687190299
31
0
0
LINE
5
112
100
AcDbEntity
8
0
100
AcDbLine
10
12.078742293590993
20
21.115821023032435
30
0
11
0
21
0
31
0
0
LINE
5
113
100
AcDbEntity
8
0
100
AcDbLine
10
24.999999999999996
20
7.9999999999999991
30
0
11
25.499999999999993
21
7.9999999999999991
31
0
0
LINE
5
114
100
AcDbEntity
8
0
100
AcDbLine
10
25.499999999999993
20
7.9999999999999991
30
0
11
25.499999999999993
21
0
31
0
0
LINE
5
115
100
AcDbEntity
8
0
100
AcDbLine
10
24.999999999999996
20
7.9999999999999991
30
0
11
24.499999999999996
21
7.9999999999999991
31
0
0
LINE
5
116
100
AcDbEntity
8
0
100
AcDbLine
10
24.499999999999996
20
7.9999999999999991
30
0
11
24.499999999999996
21
0
31
0
0
LINE
5
117
100
AcDbEntity
8
0
100
AcDbLine
10
0
20
0
30
0
11
24.499999999999996
21
0
31
0
0
LINE
5
118
100
AcDbEntity
8
0
100
AcDbLine
10
25.499999999999993
20
0
30
0
11
49.999999999999993
21
0
31
0
0
LINE
5
119
100
AcDbEntity
8
0
100
AcDbLine
10
24.654012659495077
20
43.099662710222731
30
0
11
12.575270365904082
21
21.983841687190299
31
0
0
LINE
5
120
100
AcDbEntity
8
0
100
AcDbLine
10
24.999999999999996
20
7.9999999999999991
30
0
11
24.499999999999996
21
7.9999999999999991
31
0
0
LINE
5
121
100
AcDbEntity
8
0
100
AcDbLine
10
25.499999999999993
20
0
30
0
11
49.999999999999993
21
0
31
0
0
LINE
5
122
100
AcDbEntity
8
0
100
AcDbLine
10
30.684520169516944
20
17.063476753528352
30
0
11
37.580466203152582
21
21.118834728009141
31
0
0
LINE
5
123
100
AcDbEntity
8
0
100
AcDbLine
10
30.177600422706842
20
17.925470007732805
30
0
11
37.073546456342484
21
21.980827982213597
31
0
0
LINE
5
124
100
AcDbEntity
8
0
100
AcDbLine
10
30.431060296111895
20
17.494473380630581
30
0
11
30.684520169516944
21
17.063476753528352
31
0
0
LINE
5
125
100
AcDbEntity
8
0
100
AcDbLine
10
12.078742293590993
20
21.115821023032435
30
0
11
0
21
0
31
0
0
LINE
5
126
100
AcDbEntity
8
0
100
AcDbLine
10
24.999999999999996
20
7.9999999999999991
30
0
11
25.499999999999993
21
7.9999999999999991
31
0
0
LINE
5
127
100
AcDbEntity
8
0
100
AcDbLine
10
19.271171643010405
20
17.577606776606665
30
0
11
19.519435679166946
21
18.011617108685595
31
0
0
LINE
5
128
100
AcDbEntity
8
0
100
AcDbLine
10
0
20
0
30
0
11
24.499999999999996
21
0
31
0
0
LINE
5
129
100
AcDbEntity
8
0
100
AcDbLine
10
30.431060296111895
20
17.494473380630581
30
0
11
30.177600422706842
21
17.925470007732805
31
0
0
LINE
5
130
100
AcDbEntity
8
0
100
AcDbLine
10
25.499999999999993
20
7.9999999999999991
30
0
11
25.499999999999993
21
0
31
0
0
LINE
5
131
100
AcDbEntity
8
0
100
AcDbLine
10
19.02290760685386
20
17.143596444527734
30
0
11
18.643543420104539
21
17.360601610567201
31
0
0
LINE
5
132
100
AcDbEntity
8
0
100
AcDbLine
10
19.02290760685386
20
17.143596444527734
30
0
11
12.078742293590993
21
21.115821023032435
31
0
0
LINE
5
133
100
AcDbEntity
8
0
100
AcDbLine
10
19.519435679166946
20
18.011617108685595
30
0
11
12.327006329747539
21
22.125854508298733
31
0
0
LINE
5
134
100
AcDbEntity
8
0
100
AcDbLine
10
49.999999999999993
20
0
30
0
11
37.580466203152582
21
21.118834728009141
31
0
0
LINE
5
135
100
AcDbEntity
8
0
100
AcDbLine
10
37.073546456342484
20
21.980827982213597
30
0
11
24.654012659495077
21
43.099662710222731
31
0
0
LINE
5
136
100
AcDbEntity
8
0
100
AcDbLine
10
19.271171643010405
20
17.577606776606665
30
0
11
19.02290760685386
21
17.143596444527734
31
0
0
LINE
5
137
100
AcDbEntity
8
0
100
AcDbLine
10
24.499999999999996
20
7.9999999999999991
30
0
11
24.499999999999996
21
0
31
0
0
LINE
5
138
100
AcDbEntity
8
0
100
AcDbLine
10
85.278848419371357
20
16.933490257695365
30
0
11
92.174794453006996
21
20.988848232176153
31
0
0
LINE
5
139
100
AcDbEntity
8
0
100
AcDbLine
10
85.025388545966308
20
17.364486884797593
30
0
11
85.278848419371357
21
16.933490257695365
31
0
0
LINE
5
140
100
AcDbEntity
8
0
100
AcDbLine
10
80.094328249854399
20
-0.12998649583298771
30
0
11
104.59432824985441
21
-0.12998649583298771
31
0
0
LINE
5
141
100
AcDbEntity
8
0
100
AcDbLine
10
91.667874706196898
20
21.85084148638061
30
0
11
79.248340909349494
21
42.969676214389743
31
0
0
LINE
5
142
100
AcDbEntity
8
0
100
AcDbLine
10
91.667874706196898
20
21.85084148638061
30
0
11
79.248340909349494
21
42.969676214389743
31
0
0
LINE
5
143
100
AcDbEntity
8
0
100
AcDbLine
10
85.278848419371357
20
16.933490257695365
30
0
11
92.174794453006996
21
20.988848232176153
31
0
0
LINE
5
144
100
AcDbEntity
8
0
100
AcDbLine
10
80.094328249854399
20
-0.12998649583298771
30
0
11
104.59432824985441
21
-0.12998649583298771
31
0
0
LINE
5
145
100
AcDbEntity
8
0
100
AcDbLine
10
104.59432824985441
20
-0.12998649583298771
30
0
11
92.174794453006996
21
20.988848232176153
31
0
0
LINE
5
146
100
AcDbEntity
8
0
100
AcDbLine
10
85.025388545966308
20
17.364486884797593
30
0
11
84.771928672561245
21
17.795483511899818
31
0
0
LINE
5
147
100
AcDbEntity
8
0
100
AcDbLine
10
73.865499892864818
20
17.447620280773677
30
0
11
73.617235856708277
21
17.013609948694747
31
0
0
LINE
5
148
100
AcDbEntity
8
0
100
AcDbLine
10
104.59432824985441
20
-0.12998649583298771
30
0
11
92.174794453006996
21
20.988848232176153
31
0
0
LINE
5
149
100
AcDbEntity
8
0
100
AcDbLine
10
79.594328249854414
20
7.8700135041670114
30
0
11
79.094328249854414
21
7.8700135041670114
31
0
0
LINE
5
150
100
AcDbEntity
8
0
100
AcDbLine
10
73.865499892864818
20
17.447620280773677
30
0
11
74.11376392902136
21
17.881630612852607
31
0
0
LINE
5
151
100
AcDbEntity
8
0
100
AcDbLine
10
66.673070543445405
20
20.985834527199447
30
0
11
54.594328249854414
21
-0.12998649583298771
31
0
0
LINE
5
152
100
AcDbEntity
8
0
100
AcDbLine
10
79.594328249854414
20
7.8700135041670114
30
0
11
79.094328249854414
21
7.8700135041670114
31
0
0
LINE
5
153
100
AcDbEntity
8
0
100
AcDbLine
10
79.248340909349494
20
42.969676214389743
30
0
11
67.169598615758503
21
21.853855191357312
31
0
0
LINE
5
154
100
AcDbEntity
8
0
100
AcDbLine
10
73.865499892864818
20
17.447620280773677
30
0
11
74.11376392902136
21
17.881630612852607
31
0
0
LINE
5
155
100
AcDbEntity
8
0
100
AcDbLine
10
79.594328249854414
20
7.8700135041670114
30
0
11
80.094328249854399
21
7.8700135041670114
31
0
0
LINE
5
156
100
AcDbEntity
8
0
100
AcDbLine
10
80.094328249854399
20
7.8700135041670114
30
0
11
80.094328249854399
21
-0.12998649583298771
31
0
0
LINE
5
157
100
AcDbEntity
8
0
100
AcDbLine
10
85.025388545966308
20
17.364486884797593
30
0
11
84.771928672561245
21
17.795483511899818
31
0
0
LINE
5
158
100
AcDbEntity
8
0
100
AcDbLine
10
84.771928672561245
20
17.795483511899818
30
0
11
91.667874706196898
21
21.85084148638061
31
0
0
LINE
5
159
100
AcDbEntity
8
0
100
AcDbLine
10
84.771928672561245
20
17.795483511899818
30
0
11
91.667874706196898
21
21.85084148638061
31
0
0
LINE
5
160
100
AcDbEntity
8
0
100
AcDbLine
10
85.025388545966308
20
17.364486884797593
30
0
11
85.278848419371357
21
16.933490257695365
31
0
0
LINE
5
161
100
AcDbEntity
8
0
100
AcDbLine
10
73.617235856708277
20
17.013609948694747
30
0
11
73.237871669958963
21
17.230615114734213
31
0
0
LINE
5
162
100
AcDbEntity
8
0
100
AcDbLine
10
73.617235856708277
20
17.013609948694747
30
0
11
66.673070543445405
21
20.985834527199447
31
0
0
LINE
5
163
100
AcDbEntity
8
0
100
AcDbLine
10
73.617235856708277
20
17.013609948694747
30
0
11
66.673070543445405
21
20.985834527199447
31
0
0
LINE
5
164
100
AcDbEntity
8
0
100
AcDbLine
10
79.594328249854414
20
7.8700135041670114
30
0
11
80.094328249854399
21
7.8700135041670114
31
0
0
LINE
5
165
100
AcDbEntity
8
0
100
AcDbLine
10
79.094328249854414
20
7.8700135041670114
30
0
11
79.094328249854414
21
-0.12998649583298771
31
0
0
LINE
5
166
100
AcDbEntity
8
0
100
AcDbLine
10
74.11376392902136
20
17.881630612852607
30
0
11
66.921334579601947
21
21.995868012465746
31
0
0
LINE
5
167
100
AcDbEntity
8
0
100
AcDbLine
10
54.594328249854414
20
-0.12998649583298771
30
0
11
79.094328249854414
21
-0.12998649583298771
31
0
0
LINE
5
168
100
AcDbEntity
8
0
100
AcDbLine
10
73.865499892864818
20
17.447620280773677
30
0
11
73.617235856708277
21
17.013609948694747
31
0
0
LINE
5
169
100
AcDbEntity
8
0
100
AcDbLine
10
79.094328249854414
20
7.8700135041670114
30
0
11
79.094328249854414
21
-0.12998649583298771
31
0
0
LINE
5
170
100
AcDbEntity
8
0
100
AcDbLine
10
79.248340909349494
20
42.969676214389743
30
0
11
67.169598615758503
21
21.853855191357312
31
0
0
LINE
5
171
100
AcDbEntity
8
0
100
AcDbLine
10
66.673070543445405
20
20.985834527199447
30
0
11
54.594328249854414
21
-0.12998649583298771
31
0
0
LINE
5
172
100
AcDbEntity
8
0
100
AcDbLine
10
73.617235856708277
20
17.013609948694747
30
0
11
73.237871669958963
21
17.230615114734213
31
0
0
LINE
5
173
100
AcDbEntity
8
0
100
AcDbLine
10
54.594328249854414
20
-0.12998649583298771
30
0
11
79.094328249854414
21
-0.12998649583298771
31
0
0
LINE
5
174
100
AcDbEntity
8
0
100
AcDbLine
10
74.11376392902136
20
17.881630612852607
30
0
11
66.921334579601947
21
21.995868012465746
31
0
0
LINE
5
175
100
AcDbEntity
8
0
100
AcDbLine
10
80.094328249854399
20
7.8700135041670114
30
0
11
80.094328249854399
21
-0.12998649583298771
31
0
0
ENDSEC
0
SECTION
2
OBJECTS
0
DICTIONARY
5
C
100
AcDbDictionary
3
ACAD_GROUP
350
D
3
ACAD_MLINESTYLE
350
17
0
DICTIONARY
5
D
100
AcDbDictionary
0
DICTIONARY
5
1A
330
C
100
AcDbDictionary
0
DICTIONARY
5
17
100
AcDbDictionary
0
ENDSEC
0
EOF
