0
SECTION
2
HEADER
9
$INSUNITS
70
4
9
$ACADVER
1
AC1014
9
$HANDSEED
5
FFFF
0
ENDSEC
0
SECTION
2
TABLES
0
TABLE
2
VPORT
5
8
100
AcDbSymbolTable
0
ENDTAB
0
TABLE
2
LTYPE
5
5
100
AcDbSymbolTable
0
LTYPE
5
14
100
AcDbSymbolTableRecord
100
AcDbLinetypeTableRecord
2
BYBLOCK
70
0
0
LTYPE
5
15
100
AcDbSymbolTableRecord
100
AcDbLinetypeTableRecord
2
BYLAYER
70
0
0
ENDTAB
0
TABLE
2
LAYER
5
2
100
AcDbSymbolTable
70
2
0
LAYER
5
50
100
AcDbSymbolTableRecord
100
AcDbLayerTableRecord
2
0
70
0
6
CONTINUOUS
0
ENDTAB
0
TABLE
2
STYLE
5
3
100
AcDbSymbolTable
70
1
0
STYLE
5
11
100
AcDbSymbolTableRecord
100
AcDbTextStyleTableRecord
2
STANDARD
70
0
0
ENDTAB
0
TABLE
2
VIEW
5
6
100
AcDbSymbolTable
70
0
0
ENDTAB
0
TABLE
2
UCS
5
7
100
AcDbSymbolTable
70
0
0
ENDTAB
0
TABLE
2
APPID
5
9
100
AcDbSymbolTable
70
2
0
APPID
5
12
100
AcDbSymbolTableRecord
100
AcDbRegAppTableRecord
2
ACAD
70
0
0
ENDTAB
0
TABLE
2
DIMSTYLE
5
A
100
AcDbSymbolTable
70
1
0
ENDTAB
0
TABLE
2
BLOCK_RECORD
5
1
100
AcDbSymbolTable
70
1
0
BLOCK_RECORD
5
1F
100
AcDbSymbolTableRecord
100
AcDbBlockTableRecord
2
*MODEL_SPACE
0
BLOCK_RECORD
5
1B
100
AcDbSymbolTableRecord
100
AcDbBlockTableRecord
2
*PAPER_SPACE
0
ENDTAB
0
ENDSEC
0
SECTION
2
BLOCKS
0
BLOCK
5
20
100
AcDbEntity
100
AcDbBlockBegin
2
*MODEL_SPACE
0
ENDBLK
5
21
100
AcDbEntity
100
AcDbBlockEnd
0
BLOCK
5
1C
100
AcDbEntity
100
AcDbBlockBegin
2
*PAPER_SPACE
0
ENDBLK
5
1D
100
AcDbEntity
100
AcDbBlockEnd
0
ENDSEC
0
SECTION
2
ENTITIES
0
LINE
5
100
100
AcDbEntity
8
0
100
AcDbLine
10
-16.421009536273917
20
-51.96153923140163
30
0
11
-12.054864029100973
21
-72.502638846811692
31
0
0
LINE
5
101
100
AcDbEntity
8
0
100
AcDbLine
10
-11.125623808402898
20
-72.305122740539332
30
0
11
-15.489145934055866
21
-51.77636516480711
31
0
0
LINE
5
102
100
AcDbEntity
8
0
100
AcDbLine
10
0.65434586659008787
20
-52.453825005110758
30
0
11
-3.7117996405829237
21
-72.994924620520777
31
0
0
LINE
5
103
100
AcDbEntity
8
0
100
AcDbLine
10
-2.7825594198867027
20
-73.192440726802175
30
0
11
1.5809627057664559
21
-52.663683151070003
31
0
0
LINE
5
104
100
AcDbEntity
8
0
100
AcDbLine
10
16.05322856947711
20
-59.848723173431928
30
0
11
3.7097382713350857
21
-76.83808005530588
31
0
0
LINE
5
105
100
AcDbEntity
8
0
100
AcDbLine
10
4.4783044159886511
20
-77.39647604498748
30
0
11
16.814378176068487
21
-60.417327152005591
31
0
0
LINE
5
106
100
AcDbEntity
8
0
100
AcDbLine
10
9.4014983791232059
20
-84.190312796119201
30
0
11
27.577104550800083
21
-73.696621680207798
31
0
0
LINE
5
107
100
AcDbEntity
8
0
100
AcDbLine
10
27.113031858600436
20
-72.867588662521584
30
0
11
8.9264983791271302
21
-83.367588662521626
31
0
0
LINE
5
108
100
AcDbEntity
8
0
100
AcDbLine
10
31.921415270112039
20
-89.259341356636185
30
0
11
11.036455467378206
21
-91.454439085256908
31
0
0
LINE
5
109
100
AcDbEntity
8
0
100
AcDbLine
10
11.135757507477946
20
-92.399234885857325
30
0
11
32.008168663470556
21
-90.205456073146806
31
0
0
LINE
5
110
100
AcDbEntity
8
0
100
AcDbLine
10
29.64696562936961
20
-106.18969830056506
30
0
11
9.6747787871713076
21
-99.700341418691124
31
0
0
LINE
5
111
100
AcDbEntity
8
0
100
AcDbLine
10
9.3812126425107607
20
-100.60384510917018
30
0
11
29.341399274045493
21
-107.08930288623139
31
0
0
LINE
5
112
100
AcDbEntity
8
0
100
AcDbLine
10
20.682955941983838
20
-120.73124697123858
30
0
11
5.0769146069585336
21
-106.67950423770249
31
0
0
LINE
5
113
100
AcDbEntity
8
0
100
AcDbLine
10
4.441240530914162
20
-107.38549182190305
30
0
11
20.037905036795895
21
-121.42879162054632
31
0
0
LINE
5
114
100
AcDbEntity
8
0
100
AcDbLine
10
6.579344918375182
20
-130.36962149767493
30
0
11
-1.9621245862166115
21
-111.18516688718026
31
0
0
LINE
5
115
100
AcDbEntity
8
0
100
AcDbLine
10
-2.8299927709790174
20
-111.57156669809814
30
0
11
5.7063446249338377
21
-130.74449440376299
31
0
0
LINE
5
116
100
AcDbEntity
8
0
100
AcDbLine
10
-10.225224968190656
20
-133.43825936236956
30
0
11
-10.225224968190656
21
-112.43825936236958
31
0
0
LINE
5
117
100
AcDbEntity
8
0
100
AcDbLine
10
-11.175224968190655
20
-112.43825936236961
30
0
11
-11.175224968190678
21
-133.42564159416028
31
0
0
LINE
5
118
100
AcDbEntity
8
0
100
AcDbLine
10
-26.825090919601742
20
-129.406565200817
30
0
11
-18.283621415009861
21
-110.22211059032237
31
0
0
LINE
5
119
100
AcDbEntity
8
0
100
AcDbLine
10
-19.151489599774145
20
-109.83571077939958
30
0
11
-27.687826995681437
21
-129.00863848506097
31
0
0
LINE
5
120
100
AcDbEntity
8
0
100
AcDbLine
10
-25.379618048823311
20
-104.21392524259863
30
0
11
-40.976282554705151
21
-118.25722504124178
31
0
0
LINE
5
121
100
AcDbEntity
8
0
100
AcDbLine
10
-40.349985307811167
20
-118.97165556034125
30
0
11
-24.743943972785793
21
-104.91991282680524
31
0
0
LINE
5
122
100
AcDbEntity
8
0
100
AcDbLine
10
-28.782710325742901
20
-96.544960543602969
30
0
11
-48.742896957277765
21
-103.03041832066401
31
0
0
LINE
5
123
100
AcDbEntity
8
0
100
AcDbLine
10
-48.461331023289382
20
-103.93782111595861
30
0
11
-28.489144181091049
21
-97.448464234084767
31
0
0
LINE
5
124
100
AcDbEntity
8
0
100
AcDbLine
10
-28.772340859725087
20
-88.154850349222528
30
0
11
-49.644752015717771
21
-85.961071536511753
31
0
0
LINE
5
125
100
AcDbEntity
8
0
100
AcDbLine
10
-49.756602702567761
20
-86.904548421201056
30
0
11
-28.871642899833905
21
-89.099646149821879
31
0
0
CIRCLE
5
126
100
AcDbEntity
8
0
100
AcDbCircle
10
-9.0413430715718306
20
-92.374297697436063
30
0
40
40
210
0
220
-0
230
1
0
LINE
5
127
100
AcDbEntity
8
0
100
AcDbLine
10
-44.011836105125241
20
-70.817045067416743
30
0
11
-25.825302625651943
21
-81.317045067416899
31
0
0
LINE
5
128
100
AcDbEntity
8
0
100
AcDbLine
10
-25.350302625647988
20
-80.494320933823943
30
0
11
-43.52590879732481
21
-70.000629817912312
31
0
0
LINE
5
129
100
AcDbEntity
8
0
100
AcDbLine
10
-32.220353565225793
20
-58.456986534854735
30
0
11
-19.876863267083799
21
-75.446343416728809
31
0
0
LINE
5
130
100
AcDbEntity
8
0
100
AcDbLine
10
-19.108297122424919
20
-74.887947427054613
30
0
11
-31.444370882504629
21
-57.908798534072609
31
0
0
ENDSEC
0
SECTION
2
OBJECTS
0
DICTIONARY
5
C
100
AcDbDictionary
3
ACAD_GROUP
350
D
3
ACAD_MLINESTYLE
350
17
0
DICTIONARY
5
D
100
AcDbDictionary
0
DICTIONARY
5
1A
330
C
100
AcDbDictionary
0
DICTIONARY
5
17
100
AcDbDictionary
0
ENDSEC
0
EOF
