0
SECTION
2
HEADER
9
$INSUNITS
70
4
9
$ACADVER
1
AC1014
9
$HANDSEED
5
FFFF
0
ENDSEC
0
SECTION
2
TABLES
0
TABLE
2
VPORT
5
8
100
AcDbSymbolTable
0
ENDTAB
0
TABLE
2
LTYPE
5
5
100
AcDbSymbolTable
0
LTYPE
5
14
100
AcDbSymbolTableRecord
100
AcDbLinetypeTableRecord
2
BYBLOCK
70
0
0
LTYPE
5
15
100
AcDbSymbolTableRecord
100
AcDbLinetypeTableRecord
2
BYLAYER
70
0
0
ENDTAB
0
TABLE
2
LAYER
5
2
100
AcDbSymbolTable
70
2
0
LAYER
5
50
100
AcDbSymbolTableRecord
100
AcDbLayerTableRecord
2
0
70
0
6
CONTINUOUS
0
ENDTAB
0
TABLE
2
STYLE
5
3
100
AcDbSymbolTable
70
1
0
STYLE
5
11
100
AcDbSymbolTableRecord
100
AcDbTextStyleTableRecord
2
STANDARD
70
0
0
ENDTAB
0
TABLE
2
VIEW
5
6
100
AcDbSymbolTable
70
0
0
ENDTAB
0
TABLE
2
UCS
5
7
100
AcDbSymbolTable
70
0
0
ENDTAB
0
TABLE
2
APPID
5
9
100
AcDbSymbolTable
70
2
0
APPID
5
12
100
AcDbSymbolTableRecord
100
AcDbRegAppTableRecord
2
ACAD
70
0
0
ENDTAB
0
TABLE
2
DIMSTYLE
5
A
100
AcDbSymbolTable
70
1
0
ENDTAB
0
TABLE
2
BLOCK_RECORD
5
1
100
AcDbSymbolTable
70
1
0
BLOCK_RECORD
5
1F
100
AcDbSymbolTableRecord
100
AcDbBlockTableRecord
2
*MODEL_SPACE
0
BLOCK_RECORD
5
1B
100
AcDbSymbolTableRecord
100
AcDbBlockTableRecord
2
*PAPER_SPACE
0
ENDTAB
0
ENDSEC
0
SECTION
2
BLOCKS
0
BLOCK
5
20
100
AcDbEntity
100
AcDbBlockBegin
2
*MODEL_SPACE
0
ENDBLK
5
21
100
AcDbEntity
100
AcDbBlockEnd
0
BLOCK
5
1C
100
AcDbEntity
100
AcDbBlockBegin
2
*PAPER_SPACE
0
ENDBLK
5
1D
100
AcDbEntity
100
AcDbBlockEnd
0
ENDSEC
0
SECTION
2
ENTITIES
0
LINE
5
100
100
AcDbEntity
8
0
100
AcDbLine
10
413.10724853459067
20
172.73159521885944
30
0
11
409.24167320865547
21
197.55600447020754
31
0
0
SPLINE
5
101
100
AcDbEntity
8
0
100
AcDbSpline
70
0
71
3
72
14
73
10
74
0
42
0.000000001
43
0.0000000001
44
0.0000000001
40
-0.88867592497202685
40
-0.88867592497202685
40
-0.88867592497202685
40
-0.88867592497202685
40
-0.88624305988876051
40
-0.88624305988876051
40
-0.88624305988876051
40
-0.86929949483347191
40
-0.86929949483347191
40
-0.86929949483347191
40
-0.86334894662027839
40
-0.86334894662027839
40
-0.86334894662027839
40
-0.86334894662027839
10
409.24167320865678
20
197.55600447020026
30
0
10
406.79654977505413
20
197.1709124149609
30
0
10
404.34431397183801
20
196.79551807110872
30
0
10
401.88593330585843
20
196.43046578241376
30
0
10
384.76466627334241
20
193.88807769660133
30
0
10
367.34252798765402
20
191.84936122595576
30
0
10
349.97818428639454
20
190.52273632724302
30
0
10
343.87985940331123
20
190.05682815532913
30
0
10
337.78905320506061
20
189.67849294120074
30
0
10
331.72206790276476
20
189.39556638064732
30
0
0
LINE
5
102
100
AcDbEntity
8
0
100
AcDbLine
10
331.72206790276482
20
189.39556638064732
30
0
11
332.45458117735654
21
164.1850897880712
31
0
0
LINE
5
103
100
AcDbEntity
8
0
100
AcDbLine
10
332.45458117735654
20
164.1850897880712
30
0
11
321.45922159099285
21
163.86560963757313
31
0
0
LINE
5
104
100
AcDbEntity
8
0
100
AcDbLine
10
321.45922159099285
20
163.86560963757313
30
0
11
320.7292664629145
21
188.98804401297855
31
0
0
SPLINE
5
105
100
AcDbEntity
8
0
100
AcDbSpline
70
0
71
3
72
11
73
7
74
0
42
0.000000001
43
0.0000000001
44
0.0000000001
40
-0.8597451494096171
40
-0.8597451494096171
40
-0.8597451494096171
40
-0.8597451494096171
40
-0.84983226487912689
40
-0.84983226487912689
40
-0.84983226487912689
40
-0.83414651431512932
40
-0.83414651431512932
40
-0.83414651431512932
40
-0.83414651431512932
10
320.72926646291432
20
188.98804401297855
30
0
10
310.68097286207654
20
188.71349480369116
30
0
10
300.72719853270962
20
188.71624859658496
30
0
10
290.94561708253718
20
189.02281812611631
30
0
10
275.46763524214521
20
189.50792144351695
30
0
10
260.42296438231455
20
190.75844398613191
30
0
10
246.10928734068185
20
192.81818872175336
30
0
0
LINE
5
106
100
AcDbEntity
8
0
100
AcDbLine
10
246.10928734068185
20
192.81818872175336
30
0
11
241.91349200166866
21
167.9301187949778
31
0
0
LINE
5
107
100
AcDbEntity
8
0
100
AcDbLine
10
241.91349200166866
20
167.9301187949778
30
0
11
231.06655486836618
21
169.75876715543012
31
0
0
LINE
5
108
100
AcDbEntity
8
0
100
AcDbLine
10
231.06655486836618
20
169.75876715543012
30
0
11
235.24780544657216
21
194.56056237272534
31
0
0
SPLINE
5
109
100
AcDbEntity
8
0
100
AcDbSpline
70
0
71
3
72
155
73
151
74
0
42
0.000000001
43
0.0000000001
44
0.0000000001
40
-0.8301244645719118
40
-0.8301244645719118
40
-0.8301244645719118
40
-0.8301244645719118
40
-0.8274654819229591
40
-0.8274654819229591
40
-0.8274654819229591
40
-0.81535063723173307
40
-0.81535063723173307
40
-0.81535063723173307
40
-0.80238512530285322
40
-0.80238512530285322
40
-0.80238512530285322
40
-0.7885092148919115
40
-0.7885092148919115
40
-0.7885092148919115
40
-0.77365898060971494
40
-0.77365898060971494
40
-0.77365898060971494
40
-0.75776600842230224
40
-0.75776600842230224
40
-0.75776600842230224
40
-0.74944619574033156
40
-0.74944619574033156
40
-0.74944619574033156
40
-0.7408406292605052
40
-0.7408406292605052
40
-0.7408406292605052
40
-0.73193949443096828
40
-0.73193949443096828
40
-0.73193949443096828
40
-0.72273263960748513
40
-0.72273263960748513
40
-0.72273263960748513
40
-0.7132095644756028
40
-0.7132095644756028
40
-0.7132095644756028
40
-0.7033594080751604
40
-0.7033594080751604
40
-0.7033594080751604
40
-0.69317093641348637
40
-0.69317093641348637
40
-0.69317093641348637
40
-0.6826325296531558
40
-0.6826325296531558
40
-0.6826325296531558
40
-0.67186816479940015
40
-0.67186816479940015
40
-0.67186816479940015
40
-0.66059808917508545
40
-0.66059808917508545
40
-0.66059808917508545
40
-0.64894092948591575
40
-0.64894092948591575
40
-0.64894092948591575
40
-0.62429063826230557
40
-0.62429063826230557
40
-0.62429063826230557
40
-0.59790947919209925
40
-0.59790947919209925
40
-0.59790947919209925
40
-0.58409920511566049
40
-0.58409920511566049
40
-0.58409920511566049
40
-0.56981460085684599
40
-0.56981460085684599
40
-0.56981460085684599
40
-0.55503937498503919
40
-0.55503937498503919
40
-0.55503937498503919
40
-0.53975667652118786
40
-0.53975667652118786
40
-0.53975667652118786
40
-0.52414629575337734
40
-0.52414629575337734
40
-0.52414629575337734
40
-0.51611238396254966
40
-0.51611238396254966
40
-0.51611238396254966
40
-0.50794283439463461
40
-0.50794283439463461
40
-0.50794283439463461
40
-0.49963535705603362
40
-0.49963535705603362
40
-0.49963535705603362
40
-0.49118762329083132
40
-0.49118762329083132
40
-0.49118762329083132
40
-0.48259726512805395
40
-0.48259726512805395
40
-0.48259726512805395
40
-0.47386187461790708
40
-0.47386187461790708
40
-0.47386187461790708
40
-0.46497900315680685
40
-0.46497900315680685
40
-0.46497900315680685
40
-0.4558339443138556
40
-0.4558339443138556
40
-0.4558339443138556
40
-0.44653256992116985
40
-0.44653256992116985
40
-0.44653256992116985
40
-0.43707220809314357
40
-0.43707220809314357
40
-0.43707220809314357
40
-0.41773778788383875
40
-0.41773778788383875
40
-0.41773778788383875
40
-0.39773930416549363
40
-0.39773930416549363
40
-0.39773930416549363
40
-0.37705394889218469
40
-0.37705394889218469
40
-0.37705394889218469
40
-0.35565813064869944
40
-0.35565813064869944
40
-0.35565813064869944
40
-0.3335274477447927
40
-0.3335274477447927
40
-0.3335274477447927
40
-0.32213550099214572
40
-0.32213550099214572
40
-0.32213550099214572
40
-0.31054883286593876
40
-0.31054883286593876
40
-0.31054883286593876
40
-0.30463443211702373
40
-0.30463443211702373
40
-0.30463443211702373
40
-0.29866929516243346
40
-0.29866929516243346
40
-0.29866929516243346
40
-0.29265298676575502
40
-0.29265298676575502
40
-0.29265298676575502
40
-0.28658506795693539
40
-0.28658506795693539
40
-0.28658506795693539
40
-0.2805395714717035
40
-0.2805395714717035
40
-0.2805395714717035
40
-0.27451703029563268
40
-0.27451703029563268
40
-0.27451703029563268
40
-0.26836926894883401
40
-0.26836926894883401
40
-0.26836926894883401
40
-0.26216941131424432
40
-0.26216941131424432
40
-0.26216941131424432
40
-0.25540660663875286
40
-0.25540660663875286
40
-0.25540660663875286
40
-0.25540660663875286
10
235.24780544657219
20
194.56056237272534
30
0
10
232.88815065545234
20
194.97928151007267
30
0
10
230.55149326786932
20
195.42094748156643
30
0
10
228.23924284722148
20
195.88536978699511
30
0
10
217.70417796276092
20
198.00136858962964
30
0
10
207.67693045560921
20
200.59284835503661
30
0
10
198.27080635176878
20
203.6204693006211
30
0
10
188.2042130621997
20
206.86068050320728
30
0
10
178.85041160895827
20
210.60079043908763
30
0
10
170.31039158396544
20
214.74599843349338
30
0
10
161.1707175452955
20
219.18227021979862
30
0
10
152.96194167315412
20
224.08393640042817
30
0
10
145.75836996653783
20
229.27240181651101
30
0
10
138.04898554823689
20
234.82518536094406
30
0
10
131.49047658105351
20
240.71009448933523
30
0
10
126.13441638880337
20
246.60390953668571
30
0
10
120.40227007703832
20
252.91157020016723
30
0
10
116.05930960059739
20
259.23124898649218
30
0
10
113.07308569899701
20
264.97620678909209
30
0
10
111.50982722256073
20
267.98363499193721
30
0
10
110.31578014149719
20
270.82963726519358
30
0
10
109.44959896968848
20
273.42096089470948
30
0
10
108.55366778199158
20
276.10128659637678
30
0
10
108.00932327314189
20
278.50597476219389
30
0
10
107.72383756731891
20
280.5591326019611
30
0
10
107.42854651757882
20
282.6828085738951
30
0
10
107.40707646647373
20
284.42395009138892
30
0
10
107.51884966375056
20
285.80265073291565
30
0
10
107.63446184356715
20
287.22870447714826
30
0
10
107.88002274147004
20
288.26522836630261
30
0
10
108.17993764644064
20
289.12554318295213
30
0
10
108.49015348322361
20
290.01540652858972
30
0
10
108.85141466220269
20
290.73630431404945
30
0
10
109.45251759999161
20
291.59514219854037
30
0
10
110.07426612848568
20
292.48347788503929
30
0
10
110.97529124227705
20
293.53548493915218
30
0
10
112.53383388268315
20
294.83623154893138
30
0
10
114.1459065117609
20
296.18165383807991
30
0
10
116.47827800144461
20
297.77721088580654
30
0
10
119.75825869155153
20
299.44843619408869
30
0
10
123.15089419432303
20
301.17706171042477
30
0
10
127.54943598654577
20
302.97178393245144
30
0
10
132.94955797400348
20
304.63478924914693
30
0
10
138.46546608514186
20
306.33345171205644
30
0
10
145.01740526934483
20
307.8934800627726
30
0
10
152.48748567033266
20
309.216830174439
30
0
10
160.3085110798784
20
310.6023513861918
30
0
10
169.13247604272428
20
311.73090940887778
30
0
10
178.79870258164149
20
312.5964590355776
30
0
10
188.79692709335146
20
313.49173698700264
30
0
10
199.69548388536913
20
314.10817776936642
30
0
10
211.32189194680578
20
314.50888686113746
30
0
10
235.90715561658357
20
315.35622841529681
30
0
10
263.74259590691537
20
315.2271765219657
30
0
10
293.29761368955462
20
315.13758180046528
30
0
10
324.92789417483289
20
315.04169601241063
30
0
10
358.53951258006902
20
315.03062486528006
30
0
10
392.26016532792084
20
316.36446674171384
30
0
10
409.91259125981185
20
317.06271968197171
30
0
10
427.5921103184105
20
318.12499124281652
30
0
10
445.02854059835465
20
319.68395190636011
30
0
10
463.06384568041278
20
321.29645691607402
30
0
10
480.83757218826491
20
323.43994289119763
30
0
10
498.06932408222559
20
326.22021742609707
30
0
10
515.89292085727084
20
329.09598377527141
30
0
10
533.1350879993995
20
332.65065930097529
30
0
10
549.53137713969431
20
336.97956554022323
30
0
10
566.49081620555557
20
341.45715317960753
30
0
10
582.54478837884494
20
346.7568072152124
30
0
10
597.46757639417194
20
353.02376357933218
30
0
10
612.71032973302636
20
359.42509220140528
30
0
10
626.78512178776782
20
366.82278529826675
30
0
10
639.45384278565245
20
375.56088124800704
30
0
10
645.97382384911816
20
380.05795874561431
30
0
10
652.12135301381863
20
384.91531169537831
30
0
10
657.82711868000069
20
390.20953268953713
30
0
10
663.62921567165563
20
395.5931368367294
30
0
10
668.97766560986213
20
401.43248775161231
30
0
10
673.72374542210218
20
407.79787778146357
30
0
10
678.54995403490318
20
414.27073567708453
30
0
10
682.75169212284152
20
421.29758425537318
30
0
10
686.07235464305802
20
428.83410143343445
30
0
10
689.44908042292013
20
436.49785879829744
30
0
10
691.89880773290224
20
444.6930327903932
30
0
10
693.17864939166293
20
453.11744544479353
30
0
10
694.4800988153753
20
461.6840887628432
30
0
10
694.55998149915501
20
470.46620190844169
30
0
10
693.44302319247208
20
479.00998783103137
30
0
10
692.30720710569869
20
487.69801981464616
30
0
10
689.94998212073585
20
496.12299949719471
30
0
10
686.64538122072963
20
504.00834026371797
30
0
10
683.28498823189966
20
512.02681045971406
30
0
10
678.95942021904591
20
519.49567927027488
30
0
10
673.94167795672956
20
526.38188736419738
30
0
10
668.77583170435537
20
533.4713492008915
30
0
10
662.87628168546348
20
539.95408679510729
30
0
10
656.41786575737478
20
545.89492385460358
30
0
10
649.84905679042765
20
551.93730703061885
30
0
10
642.69781184645512
20
557.42273899544341
30
0
10
635.066407845453
20
562.41082246093038
30
0
10
627.30456104116786
20
567.48416672379665
30
0
10
619.04331241473767
20
572.04277199961882
30
0
10
610.3615851545112
20
576.11861198967199
30
0
10
592.61848335321201
20
584.44852626843897
30
0
10
573.10670610320221
20
590.76171427843326
30
0
10
552.52151708588792
20
595.15353674875087
30
0
10
531.2293054268232
20
599.6962015515071
30
0
10
508.78654239797692
20
602.15410904410828
30
0
10
486.13773324290355
20
602.808511360495
30
0
10
462.71102397392542
20
603.48538989772737
30
0
10
439.08678567481229
20
602.23357877791682
30
0
10
416.3081899848379
20
599.84090086641561
30
0
10
392.74723650905224
20
597.36604360468232
30
0
10
370.08792084296857
20
593.68924657547245
30
0
10
349.38244437739564
20
589.98326309797199
30
0
10
327.96581385552145
20
586.14999323867812
30
0
10
308.62106437839947
20
582.31931526407163
30
0
10
292.5557313489881
20
579.73028449237268
30
0
10
284.28597215406114
20
578.39756011056181
30
0
10
276.8883988428185
20
577.39257902873351
30
0
10
270.56502424588501
20
576.7962438879207
30
0
10
264.13356485767008
20
576.18971565191157
30
0
10
258.82382653276591
20
576.01672230205975
30
0
10
254.82234064550565
20
576.16348930471258
30
0
10
252.7797870079456
20
576.23840634392957
30
0
10
251.07735913013101
20
576.3918104537986
30
0
10
249.70781233894758
20
576.57913316394695
30
0
10
248.32651700203158
20
576.7680628067252
30
0
10
247.28566828817355
20
576.9896260871742
30
0
10
246.5232425439888
20
577.19268711383791
30
0
10
245.75427639258254
20
577.39749008299941
30
0
10
245.26798033384603
20
577.57995278949238
30
0
10
244.93222077102618
20
577.72445827838692
30
0
10
244.5935809221115
20
577.87020339586218
30
0
10
244.40255060785265
20
577.97635121058386
30
0
10
244.19873268730879
20
578.10516501433767
30
0
10
243.9956679197835
20
578.23350282213949
30
0
10
243.77582505867107
20
578.38865463112052
30
0
10
243.4388196181595
20
578.68058895018339
30
0
10
243.1030938184673
20
578.9714147676425
30
0
10
242.65233531276866
20
579.40200923503971
30
0
10
242.06541702518268
20
580.06089908838896
30
0
10
241.46629558181473
20
580.7334885242758
30
0
10
240.72843521188196
20
581.64456764565205
30
0
10
239.87383753282333
20
582.83072574972016
30
0
10
239.01199797104965
20
584.02693538807364
30
0
10
238.03331406990469
20
585.50144027569843
30
0
10
236.96480090596194
20
587.2435039435577
30
0
10
235.7992667523032
20
589.14374698337747
30
0
10
234.52739776467237
20
591.36113744774866
30
0
10
233.16893424589512
20
593.84746179903425
30
0
0
LINE
5
110
100
AcDbEntity
8
0
100
AcDbLine
10
233.16893424589512
20
593.84746179903425
30
0
11
210.84958669698307
21
582.29269752685263
31
0
0
LINE
5
111
100
AcDbEntity
8
0
100
AcDbLine
10
210.84958669698307
20
582.29269752685263
30
0
11
205.79238732673934
21
592.06125599418067
31
0
0
LINE
5
112
100
AcDbEntity
8
0
100
AcDbLine
10
205.79238732673934
20
592.06125599418067
30
0
11
228.04782331252864
21
603.58293314114803
31
0
0
SPLINE
5
113
100
AcDbEntity
8
0
100
AcDbSpline
70
0
71
3
72
11
73
7
74
0
42
0.000000001
43
0.0000000001
44
0.0000000001
40
-0.24749181674834833
40
-0.24749181674834833
40
-0.24749181674834833
40
-0.24749181674834833
40
-0.23704528319172416
40
-0.23704528319172416
40
-0.23704528319172416
40
-0.22671912924573179
40
-0.22671912924573179
40
-0.22671912924573179
40
-0.22671912924573179
10
228.04782331252895
20
603.58293314114735
30
0
10
225.64317291845236
20
608.26537892955389
30
0
10
223.03910515582106
20
613.4152702524766
30
0
10
220.24472353240873
20
618.79437166742991
30
0
10
217.48254269310917
20
624.11148753182999
30
0
10
214.53533478853143
20
629.64450368153859
30
0
10
211.45265867978617
20
635.20637411083635
30
0
0
LINE
5
114
100
AcDbEntity
8
0
100
AcDbLine
10
211.45265867978617
20
635.20637411083635
30
0
11
189.57591651503949
21
622.97068639911686
31
0
0
LINE
5
115
100
AcDbEntity
8
0
100
AcDbLine
10
189.57591651503949
20
622.97068639911686
30
0
11
184.20638753127136
21
632.57111131119632
31
0
0
LINE
5
116
100
AcDbEntity
8
0
100
AcDbLine
10
184.20638753127136
20
632.57111131119632
30
0
11
206.03491137404831
21
644.77983045853193
31
0
0
SPLINE
5
117
100
AcDbEntity
8
0
100
AcDbSpline
70
0
71
3
72
11
73
7
74
0
42
0.000000001
43
0.0000000001
44
0.0000000001
40
-0.22079629532060788
40
-0.22079629532060788
40
-0.22079629532060788
40
-0.22079629532060788
40
-0.21090291905535197
40
-0.21090291905535197
40
-0.21090291905535197
40
-0.20106711663575558
40
-0.20106711663575558
40
-0.20106711663575558
40
-0.20106711663575558
10
206.03491137404842
20
644.77983045853193
30
0
10
202.9638278343935
20
650.09804730554447
30
0
10
199.81344406169967
20
655.37346380794918
30
0
10
196.67836639196065
20
660.52356242872634
30
0
10
193.56153309836264
20
665.64369039285657
30
0
10
190.46111203662196
20
670.64132145373549
30
0
10
187.47191651882434
20
675.47929888600083
30
0
0
LINE
5
118
100
AcDbEntity
8
0
100
AcDbLine
10
187.47191651882434
20
675.47929888600083
30
0
11
166.01970301463209
21
662.4504333928304
31
0
0
LINE
5
119
100
AcDbEntity
8
0
100
AcDbLine
10
166.01970301463209
20
662.4504333928304
30
0
11
160.30956429241175
21
671.85225852271878
31
0
0
LINE
5
120
100
AcDbEntity
8
0
100
AcDbLine
10
160.30956429241175
20
671.85225852271878
30
0
11
181.71853852206891
21
684.8548629173863
31
0
0
SPLINE
5
121
100
AcDbEntity
8
0
100
AcDbSpline
70
0
71
3
72
11
73
7
74
0
42
0.000000001
43
0.0000000001
44
0.0000000001
40
-0.19456640545224421
40
-0.19456640545224421
40
-0.19456640545224421
40
-0.19456640545224421
40
-0.18369646041921051
40
-0.18369646041921051
40
-0.18369646041921051
40
-0.17554860552558726
40
-0.17554860552558726
40
-0.17554860552558726
40
-0.17554860552558726
10
181.71853852206857
20
684.85486291738709
30
0
10
178.62261364745052
20
689.95601691651768
30
0
10
175.73593848332899
20
694.84633527032213
30
0
10
173.14807538507387
20
699.51187749658459
30
0
10
171.20827413078365
20
703.00905811195423
30
0
10
169.43591051155252
20
706.37942444184159
30
0
10
167.84340638080252
20
709.635871464655
30
0
0
LINE
5
122
100
AcDbEntity
8
0
100
AcDbLine
10
167.84340638080252
20
709.63587146465488
30
0
11
144.80217008922946
21
699.46319991061591
31
0
0
LINE
5
123
100
AcDbEntity
8
0
100
AcDbLine
10
144.80217008922946
20
699.46319991061591
30
0
11
140.35941528951204
21
709.52609858791504
31
0
0
LINE
5
124
100
AcDbEntity
8
0
100
AcDbLine
10
140.35941528951204
20
709.52609858791504
30
0
11
163.36032141975082
21
719.68096443571415
31
0
0
SPLINE
5
125
100
AcDbEntity
8
0
100
AcDbSpline
70
0
71
3
72
11
73
7
74
0
42
0.000000001
43
0.0000000001
44
0.0000000001
40
-0.16687415244806031
40
-0.16687415244806031
40
-0.16687415244806031
40
-0.16687415244806031
40
-0.15555197855450259
40
-0.15555197855450259
40
-0.15555197855450259
40
-0.14814789367448963
40
-0.14814789367448963
40
-0.14814789367448963
40
-0.14814789367448963
10
163.36032141975085
20
719.68096443571426
30
0
10
161.66681201526166
20
723.91508708968684
30
0
10
160.29483814493304
20
728.00517782395264
30
0
10
159.1778854699607
20
732.13844862341489
30
0
10
158.44745927352517
20
734.84138254043501
30
0
10
157.82557813294065
20
737.56541836515862
30
0
10
157.29876365199974
20
740.36730425059875
30
0
0
LINE
5
126
100
AcDbEntity
8
0
100
AcDbLine
10
157.29876365199974
20
740.36730425059875
30
0
11
132.30920841899683
21
736.99295889001155
31
0
0
LINE
5
127
100
AcDbEntity
8
0
100
AcDbLine
10
132.30920841899683
20
736.99295889001155
30
0
11
130.83723465283123
21
747.89402733451379
31
0
0
LINE
5
128
100
AcDbEntity
8
0
100
AcDbLine
10
130.83723465283123
20
747.89402733451379
30
0
11
155.76132727194062
21
751.2595332633681
31
0
0
SPLINE
5
129
100
AcDbEntity
8
0
100
AcDbSpline
70
0
71
3
72
11
73
7
74
0
42
0.000000001
43
0.0000000001
44
0.0000000001
40
-0.13895091892885997
40
-0.13895091892885997
40
-0.13895091892885997
40
-0.13895091892885997
40
-0.12643713233263451
40
-0.12643713233263451
40
-0.12643713233263451
40
-0.1197778074958892
40
-0.1197778074958892
40
-0.1197778074958892
40
-0.1197778074958892
10
155.76132727194056
20
751.25953326336821
30
0
10
155.24993146371332
20
756.44598419723604
30
0
10
154.9876494937414
20
762.01418834163178
30
0
10
154.91899393961228
20
768.06337181791969
30
0
10
154.8824582648765
20
771.28249957400817
30
0
10
154.89998842368595
20
774.63431821754398
30
0
10
154.95566558817313
20
778.1209743599893
30
0
0
LINE
5
130
100
AcDbEntity
8
0
100
AcDbLine
10
154.9556655881731
20
778.12097435998953
30
0
11
129.85435969952192
21
778.86578311475114
31
0
0
LINE
5
131
100
AcDbEntity
8
0
100
AcDbLine
10
129.85435969952192
20
778.86578311475114
30
0
11
130.18060934029435
21
789.86094392175619
31
0
0
LINE
5
132
100
AcDbEntity
8
0
100
AcDbLine
10
130.18060934029435
20
789.86094392175619
30
0
11
155.21917841457577
21
789.11799665912838
31
0
0
SPLINE
5
133
100
AcDbEntity
8
0
100
AcDbSpline
70
0
71
3
72
14
73
10
74
0
42
0.000000001
43
0.0000000001
44
0.0000000001
40
-0.11303726180836055
40
-0.11303726180836055
40
-0.11303726180836055
40
-0.11303726180836055
40
-0.11150541212918109
40
-0.11150541212918109
40
-0.11150541212918109
40
-0.096318465568831835
40
-0.096318465568831835
40
-0.096318465568831835
40
-0.093406276582324546
40
-0.093406276582324546
40
-0.093406276582324546
40
-0.093406276582324546
10
155.21917841456431
20
789.11799665912849
30
0
10
155.24457269418443
20
789.98185095132942
30
0
10
155.27078857634859
20
790.85271520108051
30
0
10
155.29751551203614
20
791.73042611011761
30
0
10
155.56248964724352
20
800.43216026338223
30
0
10
155.88501884548413
20
809.81774065779427
30
0
10
155.90884558889113
20
819.78278405730305
30
0
10
155.91341451125209
20
821.69364148494981
30
0
10
155.90681265215915
20
823.62534934451276
30
0
10
155.88636952071715
20
825.57723671622989
30
0
0
LINE
5
134
100
AcDbEntity
8
0
100
AcDbLine
10
155.88636952071715
20
825.57723671622989
30
0
11
130.83952082335065
21
825.09339523472306
31
0
0
LINE
5
135
100
AcDbEntity
8
0
100
AcDbLine
10
130.83952082335065
20
825.09339523472306
30
0
11
130.62706840664717
21
836.09134340566106
31
0
0
LINE
5
136
100
AcDbEntity
8
0
100
AcDbLine
10
130.62706840664717
20
836.09134340566106
30
0
11
155.61553545140305
21
836.57405710196736
31
0
0
SPLINE
5
137
100
AcDbEntity
8
0
100
AcDbSpline
70
0
71
3
72
11
73
7
74
0
42
0.000000001
43
0.0000000001
44
0.0000000001
40
-0.088033272750126526
40
-0.088033272750126526
40
-0.088033272750126526
40
-0.088033272750126526
40
-0.08087193009373228
40
-0.08087193009373228
40
-0.08087193009373228
40
-0.068516431327717217
40
-0.068516431327717217
40
-0.068516431327717217
40
-0.068516431327717217
10
155.61553545140305
20
836.57405710196758
30
0
10
155.4179782065915
20
841.54198824868968
30
0
10
155.10766441045661
20
846.61448016498275
30
0
10
154.65029822397312
20
851.76949798077271
30
0
10
153.86120215304737
20
860.66347489513078
30
0
10
152.63027606638877
20
869.80392426270726
30
0
10
150.82754978645789
20
879.06890709397453
30
0
0
LINE
5
138
100
AcDbEntity
8
0
100
AcDbLine
10
150.82754978645789
20
879.06890709397476
30
0
11
126.343202022246
21
873.87221340696124
31
0
0
LINE
5
139
100
AcDbEntity
8
0
100
AcDbLine
10
126.343202022246
20
873.87221340696124
30
0
11
124.05937551276523
21
884.63251714220007
31
0
0
LINE
5
140
100
AcDbEntity
8
0
100
AcDbLine
10
124.05937551276523
20
884.63251714220007
30
0
11
148.48882088409465
21
889.81755804102147
31
0
0
SPLINE
5
141
100
AcDbEntity
8
0
100
AcDbSpline
70
0
71
3
72
11
73
7
74
0
42
0.000000001
43
0.0000000001
44
0.0000000001
40
-0.063760344138936803
40
-0.063760344138936803
40
-0.063760344138936803
40
-0.063760344138936803
40
-0.04918226804950597
40
-0.04918226804950597
40
-0.04918226804950597
40
-0.045413992707411567
40
-0.045413992707411567
40
-0.045413992707411567
40
-0.045413992707411567
10
148.48882088409465
20
889.81755804102147
30
0
10
145.83221015182227
20
900.84223423017625
30
0
10
142.33332294151984
20
911.9740175243121
30
0
10
137.93799867241111
20
923.05340889052991
30
0
10
136.80185478331455
20
925.91731198958155
30
0
10
135.6062184146617
20
928.7784138909808
30
0
10
134.35155108809465
20
931.63389153295407
30
0
0
LINE
5
142
100
AcDbEntity
8
0
100
AcDbLine
10
134.35155108809468
20
931.63389153295407
30
0
11
111.59710079843018
21
921.1994586811179
31
0
0
LINE
5
143
100
AcDbEntity
8
0
100
AcDbLine
10
111.59710079843018
20
921.1994586811179
30
0
11
107.01197087360606
21
931.19828779119291
31
0
0
LINE
5
144
100
AcDbEntity
8
0
100
AcDbLine
10
107.01197087360606
20
931.19828779119291
30
0
11
129.71641269473326
21
941.60978842536099
31
0
0
SPLINE
5
145
100
AcDbEntity
8
0
100
AcDbSpline
70
0
71
3
72
11
73
7
74
0
42
0.000000001
43
0.0000000001
44
0.0000000001
40
-0.04101610218865745
40
-0.04101610218865745
40
-0.04101610218865745
40
-0.04101610218865745
40
-0.032930038400737285
40
-0.032930038400737285
40
-0.032930038400737285
40
-0.024658547743340285
40
-0.024658547743340285
40
-0.024658547743340285
40
-0.024658547743340285
10
129.71641269473346
20
941.60978842536053
30
0
10
126.7279107101978
20
947.70807917394382
30
0
10
123.467940016737
20
953.77512777407389
30
0
10
119.94285521116309
20
959.80156759529928
30
0
10
116.33693435763291
20
965.96620368846243
30
0
10
112.45370727244683
20
972.08859149967805
30
0
10
108.30067711799116
20
978.16653050917296
30
0
0
LINE
5
146
100
AcDbEntity
8
0
100
AcDbLine
10
108.30067711799116
20
978.16653050917296
30
0
11
87.784751328659439
21
963.80112461813144
31
0
0
LINE
5
147
100
AcDbEntity
8
0
100
AcDbLine
10
87.784751328659439
20
963.80112461813144
30
0
11
81.475410528797894
21
972.81179710531035
31
0
0
LINE
5
148
100
AcDbEntity
8
0
100
AcDbLine
10
81.475410528797894
20
972.81179710531035
30
0
11
101.9464392217786
21
987.1457657110426
31
0
0
SPLINE
5
149
100
AcDbEntity
8
0
100
AcDbSpline
70
0
71
3
72
8
73
4
74
0
42
0.000000001
43
0.0000000001
44
0.0000000001
40
-0.020570640705380634
40
-0.020570640705380634
40
-0.020570640705380634
40
-0.020570640705380634
40
-0.01770903906023976
40
-0.01770903906023976
40
-0.01770903906023976
40
-0.01770903906023976
10
101.9464392217786
20
987.14576571104215
30
0
10
100.41803649920153
20
989.23350222956537
30
0
10
98.857813073369471
20
991.31599825783246
30
0
10
97.26586994472639
20
993.39360496403754
30
0
0
SPLINE
5
150
100
AcDbEntity
8
0
100
AcDbSpline
70
0
71
3
72
16
73
12
74
0
42
0.000000001
43
0.0000000001
44
0.0000000001
40
-7.6264353386879797
40
-7.6264353386879797
40
-7.6264353386879797
40
-7.6264353386879797
40
-6.4500678647057459
40
-6.4500678647057459
40
-5.2737003907235174
40
-5.2737003907235174
40
-3.5158002604823464
40
-3.5158002604823464
40
-1.7579001302411699
40
-1.7579001302411699
40
0
40
0
40
0
40
0
10
97.265869944726376
20
993.39360496403754
30
0
10
94.880911615131737
20
996.50615674458334
30
0
10
92.099316758026191
20
999.29366830699621
30
0
10
85.8843625057048
20
1004.0768014771555
30
0
10
82.477576283587993
20
1006.0519719245997
30
0
10
73.44944445271048
20
1009.8147746347281
30
0
10
67.652151954833855
20
1010.9910544530737
30
0
10
55.932993387658087
20
1011.055215238336
30
0
10
50.123168861696037
20
1009.9424827931755
30
0
10
39.257064527799621
20
1005.5526569727296
30
0
10
34.304670599781716
20
1002.317532724928
30
0
10
30.111690314791502
20
998.22429258270233
30
0
0
SPLINE
5
151
100
AcDbEntity
8
0
100
AcDbSpline
70
0
71
3
72
14
73
10
74
0
42
0.000000001
43
0.0000000001
44
0.0000000001
40
-6.5487575651375183
40
-6.5487575651375183
40
-6.5487575651375183
40
-6.5487575651375183
40
-5.0322789128099403
40
-5.0322789128099403
40
-3.5158002604823628
40
-3.5158002604823628
40
-1.7579001302411892
40
-1.7579001302411892
40
0
40
0
40
0
40
0
10
30.111690314791616
20
998.22429258270233
30
0
10
26.494553605810466
20
994.69319818902716
30
0
10
23.498117586057099
20
990.57773269503059
30
0
10
18.998735954480182
20
981.52429206246211
30
0
10
17.52778320688304
20
976.65069143591427
30
0
10
16.166755324779672
20
965.82128666561459
30
0
10
16.578642545405433
20
959.92022036921799
30
0
10
19.641200738682226
20
948.6081236828486
30
0
10
22.262591985782375
20
943.30524310276655
30
0
10
25.826545130475957
20
938.65401353256982
30
0
0
SPLINE
5
152
100
AcDbEntity
8
0
100
AcDbSpline
70
0
71
3
72
149
73
145
74
0
42
0.000000001
43
0.0000000001
44
0.0000000001
40
0.017709039060239531
40
0.017709039060239531
40
0.017709039060239531
40
0.017709039060239531
40
0.033328850503469884
40
0.033328850503469884
40
0.033328850503469884
40
0.049574377859604432
40
0.049574377859604432
40
0.049574377859604432
40
0.065546888731057129
40
0.065546888731057129
40
0.065546888731057129
40
0.081250971334589042
40
0.081250971334589042
40
0.081250971334589042
40
0.096691136779042036
40
0.096691136779042036
40
0.096691136779042036
40
0.11187182036118669
40
0.11187182036118669
40
0.11187182036118669
40
0.12679738283979267
40
0.12679738283979267
40
0.12679738283979267
40
0.14147211168828755
40
0.14147211168828755
40
0.14147211168828755
40
0.15590022232636389
40
0.15590022232636389
40
0.15590022232636389
40
0.17008585933088832
40
0.17008585933088832
40
0.17008585933088832
40
0.18403309762646067
40
0.18403309762646067
40
0.18403309762646067
40
0.19774594365596482
40
0.19774594365596482
40
0.19774594365596482
40
0.21122833653144776
40
0.21122833653144776
40
0.21122833653144776
40
0.22448414916565745
40
0.22448414916565745
40
0.22448414916565745
40
0.2375171893845644
40
0.2375171893845644
40
0.2375171893845644
40
0.2503312010211865
40
0.2503312010211865
40
0.2503312010211865
40
0.26292986499103177
40
0.26292986499103177
40
0.26292986499103177
40
0.26919898207109055
40
0.26919898207109055
40
0.26919898207109055
40
0.27541477745610737
40
0.27541477745610737
40
0.27541477745610737
40
0.28150333666304062
40
0.28150333666304062
40
0.28150333666304062
40
0.28754073480283782
40
0.28754073480283782
40
0.28754073480283782
40
0.29345516069580063
40
0.29345516069580063
40
0.29345516069580063
40
0.29932048843627651
40
0.29932048843627651
40
0.29932048843627651
40
0.30513712560880901
40
0.30513712560880901
40
0.30513712560880901
40
0.31667382722001064
40
0.31667382722001064
40
0.31667382722001064
40
0.32801898674575763
40
0.32801898674575763
40
0.32801898674575763
40
0.33917578432988454
40
0.33917578432988454
40
0.33917578432988454
40
0.35028135821491913
40
0.35028135821491913
40
0.35028135821491913
40
0.3612002958230266
40
0.3612002958230266
40
0.3612002958230266
40
0.3824120826316702
40
0.3824120826316702
40
0.3824120826316702
40
0.39279104285164868
40
0.39279104285164868
40
0.39279104285164868
40
0.40299557800238855
40
0.40299557800238855
40
0.40299557800238855
40
0.41302861940881391
40
0.41302861940881391
40
0.41302861940881391
40
0.42289304913305736
40
0.42289304913305736
40
0.42289304913305736
40
0.43259170080235287
40
0.43259170080235287
40
0.43259170080235287
40
0.44212736042301504
40
0.44212736042301504
40
0.44212736042301504
40
0.4513896341996822
40
0.4513896341996822
40
0.4513896341996822
40
0.46049812786700578
40
0.46049812786700578
40
0.46049812786700578
40
0.46934730732466723
40
0.46934730732466723
40
0.46934730732466723
40
0.47815765250239717
40
0.47815765250239717
40
0.47815765250239717
40
0.48671717160722661
40
0.48671717160722661
40
0.48671717160722661
40
0.49534321804963038
40
0.49534321804963038
40
0.49534321804963038
40
0.5038242982607275
40
0.5038242982607275
40
0.5038242982607275
40
0.51216284849081639
40
0.51216284849081639
40
0.51216284849081639
40
0.52036126404744998
40
0.52036126404744998
40
0.52036126404744998
40
0.52842189998350464
40
0.52842189998350464
40
0.52842189998350464
40
0.54408097755628304
40
0.54408097755628304
40
0.54408097755628304
40
0.54651890366455225
40
0.54651890366455225
40
0.54651890366455225
40
0.54651890366455225
10
25.826545130476308
20
938.65401353256925
30
0
10
32.372751387793258
20
930.11071711971567
30
0
10
37.938867537525176
20
921.80507382979488
30
0
10
42.617082121149409
20
913.74222596452182
30
0
10
47.482701867735642
20
905.35638750291798
30
0
10
51.390228174602505
20
897.23614418168472
30
0
10
54.50768611268132
20
889.28985376780042
30
0
10
57.572753174875373
20
881.47710585010611
30
0
10
59.878320235646079
20
873.83011504392755
30
0
10
61.590274996979979
20
866.16119783486397
30
0
10
63.273459262864414
20
858.62116168775879
30
0
10
64.381708811966362
20
851.05336932584828
30
0
10
65.051729831146162
20
843.25116356372394
30
0
10
65.710490718271814
20
835.58007886299947
30
0
10
65.939315643320853
20
827.68015983896589
30
0
10
65.907224128189895
20
819.39899332285108
30
0
10
65.875671931509928
20
811.25699711015159
30
0
10
65.589634260256304
20
802.74594276521373
30
0
10
65.31962040494389
20
793.82442508536303
30
0
10
65.054144305284268
20
785.05283922007163
30
0
10
64.807242736066556
20
775.88452355865741
30
0
10
64.933259423947746
20
766.35238330358789
30
0
10
65.057158320735908
20
756.98043676626503
30
0
10
65.552801343411232
20
747.24737177559007
30
0
10
66.755080916556295
20
737.33471613886661
30
0
10
67.937155411991711
20
727.58864902441599
30
0
10
69.819972052915332
20
717.67755607818333
30
0
10
72.486137881832363
20
707.95520408455968
30
0
10
75.107497087595036
20
698.39624243868855
30
0
10
78.481394677247764
20
689.04051030274286
30
0
10
82.343263915336692
20
680.15693968031076
30
0
10
86.14023196920607
20
671.42266314785138
30
0
10
90.387653533483885
20
663.14022340644101
30
0
10
94.760977797905895
20
655.28760662032141
30
0
10
99.060805549049391
20
647.56695808512416
30
0
10
103.48028357807225
20
640.24925946239614
30
0
10
107.79337062155479
20
633.22595114726084
30
0
10
112.03397347680975
20
626.32067402341897
30
0
10
116.16987832460001
20
619.70008915114499
30
0
10
120.08598327852903
20
613.25907361352552
30
0
10
123.93627558232185
20
606.92630346439432
30
0
10
127.57287871875725
20
600.76884385808216
30
0
10
131.01133316613101
20
594.66227648154791
30
0
10
134.39200218583713
20
588.65833387810119
30
0
10
137.57897585242131
20
582.70601071140527
30
0
10
140.71981070746463
20
576.64705665317183
30
0
10
143.80786182257194
20
570.68992719573862
30
0
10
146.85242626967431
20
564.61725874634044
30
0
10
150.13862904991603
20
558.30639644821372
30
0
10
153.36960508920038
20
552.10159223008486
30
0
10
156.82607570495941
20
545.66010109891863
30
0
10
160.9929857308833
20
538.98026202294272
30
0
10
163.06644739928817
20
535.65636249331999
30
0
10
165.32079456364397
20
532.27509209649327
30
0
10
167.83803100805838
20
528.86947331691215
30
0
10
170.33385721043655
20
525.49282087560084
30
0
10
173.09051315580462
20
522.09093287621749
30
0
10
176.17919302980286
20
518.7440247054036
30
0
10
179.20464819993805
20
515.46562712376976
30
0
10
182.55199471242724
20
512.24127169220776
30
0
10
186.23502476154289
20
509.19541836250033
30
0
10
189.88710697206443
20
506.17515879009932
30
0
10
193.86979643634299
20
503.33508879877689
30
0
10
198.11085374825541
20
500.79945789569501
30
0
10
202.26552743355867
20
498.31547378185485
30
0
10
206.66363848027257
20
496.12704049323941
30
0
10
211.18587439357805
20
494.28894233331062
30
0
10
215.67056931263122
20
492.46610300414176
30
0
10
220.27310650833169
20
490.98623235962827
30
0
10
224.90061369767969
20
489.82631455233729
30
0
10
229.48970599135924
20
488.67602571367411
30
0
10
234.10322808180081
20
487.8373317283075
30
0
10
238.70459159095572
20
487.25187625289686
30
0
10
247.83092287743671
20
486.09068552944041
30
0
10
256.89769769156027
20
485.90790970047527
30
0
10
266.01050933616125
20
486.29049440488302
30
0
10
274.97202236824825
20
486.66672711418721
30
0
10
284.00027001237856
20
487.59536358282242
30
0
10
293.24671795887394
20
488.84483947601893
30
0
10
302.33964854985408
20
490.07357051281076
30
0
10
311.64475387902871
20
491.61798762434682
30
0
10
321.21388454229708
20
493.31708676474415
30
0
10
330.73908088964959
20
495.00838490826584
30
0
10
340.52405982978308
20
496.85423827446084
30
0
10
350.54007979742823
20
498.70831612373962
30
0
10
360.38777413906422
20
500.53123500811438
30
0
10
370.45722433633813
20
502.36188371456274
30
0
10
380.66981488203908
20
504.06717086332662
30
0
10
400.50940928163789
20
507.37996453844028
30
0
10
420.90188099449961
20
510.19680984958757
30
0
10
440.96514178021158
20
511.71812810554314
30
0
10
450.78212643390918
20
512.46251149025909
30
0
10
460.51598883389323
20
512.90156415442311
30
0
10
470.05032229643189
20
512.98051640386552
30
0
10
479.42442518296878
20
513.05814181022492
30
0
10
488.60519637903712
20
512.78740836218492
30
0
10
497.48440629718567
20
512.14906239737877
30
0
10
506.21439540978798
20
511.52144424506537
30
0
10
514.65353668823514
20
510.53850208642922
30
0
10
522.69472501365794
20
509.21581419837707
30
0
10
530.60077602275078
20
507.91535492683033
30
0
10
538.12186653833533
20
506.28642421981681
30
0
10
545.15214774584751
20
504.37652777754363
30
0
10
552.06428057814708
20
502.49872836735477
30
0
10
558.50153097403779
20
500.34903130603476
30
0
10
564.36476805698942
20
498.0068988548615
30
0
10
570.12946968817323
20
495.70412743854178
30
0
10
575.33842823791088
20
493.21481224852937
30
0
10
579.90787397360532
20
490.65406556461363
30
0
10
584.34631442715488
20
488.1667350806556
30
0
10
588.17955532630333
20
485.61178795910769
30
0
10
591.35966467486514
20
483.13843845375112
30
0
10
594.48697515620074
20
480.70615359046292
30
0
10
596.97911371938324
20
478.3543109010302
30
0
10
598.85812679843832
20
476.26064418572503
30
0
10
600.68364532511873
20
474.22658310329444
30
0
10
601.92737443378974
20
472.44290242808768
30
0
10
602.7261805948699
20
471.04933499318832
30
0
10
603.52148122617541
20
469.66188317478532
30
0
10
603.88113306937316
20
468.67347218668579
30
0
10
604.05315104153988
20
468.05092809761277
30
0
10
604.22027174900722
20
467.44610752401161
30
0
10
604.22832683747151
20
467.18438803686774
30
0
10
604.22746889442203
20
466.97832431170644
30
0
10
604.22660428316294
20
466.77065899294655
30
0
10
604.22143609269369
20
466.59514758775316
30
0
10
604.0781627988988
20
466.10436837663195
30
0
10
603.937297304504
20
465.62183702426211
30
0
10
603.64380399037168
20
464.82588112967477
30
0
10
602.93116897722393
20
463.62022759469113
30
0
10
602.23051025157281
20
462.43483583900519
30
0
10
601.11637976490783
20
460.8638402129933
30
0
10
599.41874188979125
20
459.00308920000322
30
0
10
597.74963390568803
20
457.17360929870426
30
0
10
595.51880974435244
20
455.07123075858794
30
0
10
592.67665582808127
20
452.82948261743599
30
0
10
589.88226612740834
20
450.62540848855969
30
0
10
586.50004436316624
20
448.28837097301687
30
0
10
582.54672325509557
20
445.92473910355488
30
0
10
574.86676321317327
20
441.33300526381606
30
0
10
565.02719674837817
20
436.6633130385303
30
0
10
553.40583553768988
20
432.37942529699524
30
0
10
551.59653228994205
20
431.71247657530694
30
0
10
549.74424066355948
20
431.05416627343004
30
0
10
547.85082448333833
20
430.4056223028511
30
0
0
LINE
5
153
100
AcDbEntity
8
0
100
AcDbLine
10
547.85082448333833
20
430.40562230285104
30
0
11
555.73183168772687
21
406.68274010518752
31
0
0
LINE
5
154
100
AcDbEntity
8
0
100
AcDbLine
10
555.73183168772687
20
406.68274010518752
30
0
11
545.29280654665388
21
403.21477901774045
31
0
0
LINE
5
155
100
AcDbEntity
8
0
100
AcDbLine
10
545.29280654665388
20
403.21477901774045
30
0
11
537.37598735020481
21
427.04546008512665
31
0
0
SPLINE
5
156
100
AcDbEntity
8
0
100
AcDbSpline
70
0
71
3
72
8
73
4
74
0
42
0.000000001
43
0.0000000001
44
0.0000000001
40
0.55085073447719268
40
0.55085073447719268
40
0.55085073447719268
40
0.55085073447719268
40
0.55546675569706405
40
0.55546675569706405
40
0.55546675569706405
40
0.55546675569706405
10
537.37598735020435
20
427.04546008512659
30
0
10
533.52314714490592
20
425.8881158588585
30
0
10
529.53315569120491
20
424.77118628133371
30
0
10
525.41703540001845
20
423.69885668034897
30
0
0
LINE
5
157
100
AcDbEntity
8
0
100
AcDbLine
10
525.41703540001834
20
423.69885668034897
30
0
11
531.61562459539869
21
399.49609943770548
31
0
0
LINE
5
158
100
AcDbEntity
8
0
100
AcDbLine
10
531.61562459539869
20
399.49609943770548
30
0
11
520.95955493029498
21
396.7669641731103
31
0
0
LINE
5
159
100
AcDbEntity
8
0
100
AcDbLine
10
520.95955493029498
20
396.7669641731103
30
0
11
514.73250868995876
21
421.08083361457977
31
0
0
SPLINE
5
160
100
AcDbEntity
8
0
100
AcDbSpline
70
0
71
3
72
8
73
4
74
0
42
0.000000001
43
0.0000000001
44
0.0000000001
40
0.55936301411107792
40
0.55936301411107792
40
0.55936301411107792
40
0.55936301411107792
40
0.5638082168777836
40
0.5638082168777836
40
0.5638082168777836
40
0.5638082168777836
10
514.73250868997513
20
421.08083361450747
30
0
10
510.57219216666277
20
420.12288763491438
30
0
10
506.30408251057077
20
419.20872170480686
30
0
10
501.93869375728502
20
418.34018164744174
30
0
0
LINE
5
161
100
AcDbEntity
8
0
100
AcDbLine
10
501.93869375728502
20
418.34018164744174
30
0
11
506.78995106316512
21
393.84067410112357
31
0
0
LINE
5
162
100
AcDbEntity
8
0
100
AcDbLine
10
506.78995106316512
20
393.84067410112357
30
0
11
495.99946316765539
21
391.70400122563262
31
0
0
LINE
5
163
100
AcDbEntity
8
0
100
AcDbLine
10
495.99946316765539
20
391.70400122563262
30
0
11
491.12582144305867
21
416.31655312327769
31
0
0
SPLINE
5
164
100
AcDbEntity
8
0
100
AcDbSpline
70
0
71
3
72
8
73
4
74
0
42
0.000000001
43
0.0000000001
44
0.0000000001
40
0.56741479964343089
40
0.56741479964343089
40
0.56741479964343089
40
0.56741479964343089
40
0.57172232060494288
40
0.57172232060494288
40
0.57172232060494288
40
0.57172232060494288
10
491.12582144305856
20
416.31655312327769
30
0
10
486.7487121231934
20
415.54714196984327
30
0
10
482.28785420979943
20
414.8212681135858
30
0
10
477.75201308064794
20
414.13909367026207
30
0
0
LINE
5
165
100
AcDbEntity
8
0
100
AcDbLine
10
477.75201308064794
20
414.13909367026207
30
0
11
481.49805881960685
21
389.4525467437137
31
0
0
LINE
5
166
100
AcDbEntity
8
0
100
AcDbLine
10
481.49805881960685
20
389.4525467437137
30
0
11
470.62255785698505
21
387.80225016066817
31
0
0
LINE
5
167
100
AcDbEntity
8
0
100
AcDbLine
10
470.62255785698505
20
387.80225016066817
30
0
11
466.8591795279408
21
412.60301934404765
31
0
0
SPLINE
5
168
100
AcDbEntity
8
0
100
AcDbSpline
70
0
71
3
72
8
73
4
74
0
42
0.000000001
43
0.0000000001
44
0.0000000001
40
0.57512762885541358
40
0.57512762885541358
40
0.57512762885541358
40
0.57512762885541358
40
0.57933293901435223
40
0.57933293901435223
40
0.57933293901435223
40
0.57933293901435223
10
466.8591795279408
20
412.60301934404765
30
0
10
462.32116089137543
20
412.00427712254134
30
0
10
457.71860236488374
20
411.44690600071203
30
0
10
453.05988133002307
20
410.93002732741343
30
0
0
LINE
5
169
100
AcDbEntity
8
0
100
AcDbLine
10
453.05988133002307
20
410.93002732741343
30
0
11
455.88700804324412
21
386.12603424248329
31
0
0
LINE
5
170
100
AcDbEntity
8
0
100
AcDbLine
10
455.88700804324412
20
386.12603424248329
30
0
11
444.95777060350036
21
384.88033404351779
31
0
0
LINE
5
171
100
AcDbEntity
8
0
100
AcDbLine
10
444.95777060350036
20
384.88033404351779
30
0
11
442.11754225428069
21
409.79927524421203
31
0
0
SPLINE
5
172
100
AcDbEntity
8
0
100
AcDbSpline
70
0
71
3
72
8
73
4
74
0
42
0.000000001
43
0.0000000001
44
0.0000000001
40
0.5825958632929723
40
0.5825958632929723
40
0.5825958632929723
40
0.5825958632929723
40
0.5867326675138812
40
0.5867326675138812
40
0.5867326675138812
40
0.5867326675138812
10
442.11754225428069
20
409.79927524421203
30
0
10
437.45342531210906
20
409.351740418286
30
0
10
432.74082091492596
20
408.94231908414889
30
0
10
427.98721444708804
20
408.56923458273519
30
0
0
LINE
5
173
100
AcDbEntity
8
0
100
AcDbLine
10
427.98721444708804
20
408.56923458273519
30
0
11
430.04857757510808
21
383.69362904141781
31
0
0
LINE
5
174
100
AcDbEntity
8
0
100
AcDbLine
10
430.04857757510808
20
383.69362904141781
30
0
11
419.08615220182401
21
382.7852073688569
31
0
0
LINE
5
175
100
AcDbEntity
8
0
100
AcDbLine
10
419.08615220182401
20
382.7852073688569
30
0
11
417.0152272850396
21
407.77620058230877
31
0
0
SPLINE
5
176
100
AcDbEntity
8
0
100
AcDbSpline
70
0
71
3
72
8
73
4
74
0
42
0.000000001
43
0.0000000001
44
0.0000000001
40
0.58989554324470839
40
0.58989554324470839
40
0.58989554324470839
40
0.58989554324470839
40
0.59399551835651176
40
0.59399551835651176
40
0.59399551835651176
40
0.59399551835651176
10
417.0152272850396
20
407.77620058230877
30
0
10
412.24606116650989
20
407.46020796142602
30
0
10
407.44210504820188
20
407.17825278545729
30
0
10
402.61045748889512
20
406.92781140755477
30
0
0
LINE
5
177
100
AcDbEntity
8
0
100
AcDbLine
10
402.61045748889512
20
406.92781140755471
30
0
11
404.04051880312534
21
382.01120657009585
31
0
0
LINE
5
178
100
AcDbEntity
8
0
100
AcDbLine
10
404.04051880312534
20
382.01120657009585
30
0
11
393.05859149936839
21
381.38091084982238
31
0
0
LINE
5
179
100
AcDbEntity
8
0
100
AcDbLine
10
393.05859149936839
20
381.38091084982238
30
0
11
391.62189316541219
21
406.41315548269074
31
0
0
SPLINE
5
180
100
AcDbEntity
8
0
100
AcDbSpline
70
0
71
3
72
8
73
4
74
0
42
0.000000001
43
0.0000000001
44
0.0000000001
40
0.59709104885955289
40
0.59709104885955289
40
0.59709104885955289
40
0.59709104885955289
40
0.6011848278006463
40
0.6011848278006463
40
0.6011848278006463
40
0.6011848278006463
10
391.62189316541202
20
406.41315548269074
30
0
10
386.75947378534829
20
406.20892226502292
30
0
10
381.87446141226809
20
406.03391613504522
30
0
10
376.97341349213679
20
405.88489059441963
30
0
0
LINE
5
181
100
AcDbEntity
8
0
100
AcDbLine
10
376.97341349213673
20
405.88489059441963
30
0
11
377.89790056763763
21
380.94747087151922
31
0
0
LINE
5
182
100
AcDbEntity
8
0
100
AcDbLine
10
377.89790056763763
20
380.94747087151922
30
0
11
366.90545173279031
21
380.53995570215068
31
0
0
LINE
5
183
100
AcDbEntity
8
0
100
AcDbLine
10
366.90545173279031
20
380.53995570215068
30
0
11
365.97667300096089
21
405.59314011329741
31
0
0
SPLINE
5
184
100
AcDbEntity
8
0
100
AcDbSpline
70
0
71
3
72
8
73
4
74
0
42
0.000000001
43
0.0000000001
44
0.0000000001
40
0.60423991765572493
40
0.60423991765572493
40
0.60423991765572493
40
0.60423991765572493
40
0.60835853097031301
40
0.60835853097031301
40
0.60835853097031301
40
0.60835853097031301
10
365.976673000961
20
405.59314011329741
30
0
10
361.02549277238825
20
405.48019367070759
30
0
10
356.0626910111373
20
405.39082739989715
30
0
10
351.09499960446163
20
405.3210903220654
30
0
0
LINE
5
185
100
AcDbEntity
8
0
100
AcDbLine
10
351.09499960446163
20
405.3210903220654
30
0
11
351.6390050808767
21
380.37552287940593
31
0
0
LINE
5
186
100
AcDbEntity
8
0
100
AcDbLine
10
351.6390050808767
20
380.37552287940593
30
0
11
340.64161981531458
21
380.13569518959827
31
0
0
LINE
5
187
100
AcDbEntity
8
0
100
AcDbLine
10
340.64161981531458
20
380.13569518959827
30
0
11
340.09508879766497
21
405.19707223699135
31
0
0
SPLINE
5
188
100
AcDbEntity
8
0
100
AcDbSpline
70
0
71
3
72
11
73
7
74
0
42
0.000000001
43
0.0000000001
44
0.0000000001
40
0.61139686813595928
40
0.61139686813595928
40
0.61139686813595928
40
0.61139686813595928
40
0.61491364089320022
40
0.61491364089320022
40
0.61491364089320022
40
0.61557330312091318
40
0.61557330312091318
40
0.61557330312091318
40
0.61557330312091318
10
340.09508879766531
20
405.19707223699135
30
0
10
335.84982755353252
20
405.16026522247694
30
0
10
331.60423711643688
20
405.13548167816555
30
0
10
327.36207813157591
20
405.11994522056619
30
0
10
326.56635084424863
20
405.11703095372604
30
0
10
325.77073464228329
20
405.11444162226866
30
0
10
324.97528211198079
20
405.11215844958861
30
0
0
LINE
5
189
100
AcDbEntity
8
0
100
AcDbLine
10
324.97528211198079
20
405.11215844958855
30
0
11
325.2695223219223
21
380.16558327371945
31
0
0
LINE
5
190
100
AcDbEntity
8
0
100
AcDbLine
10
325.2695223219223
20
380.16558327371945
30
0
11
314.27028738908075
21
380.03584934539361
31
0
0
LINE
5
191
100
AcDbEntity
8
0
100
AcDbLine
10
314.27028738908075
20
380.03584934539361
30
0
11
313.97468132189005
21
405.09822603099212
31
0
0
SPLINE
5
192
100
AcDbEntity
8
0
100
AcDbSpline
70
0
71
3
72
8
73
4
74
0
42
0.000000001
43
0.0000000001
44
0.0000000001
40
0.61861738462109161
40
0.61861738462109161
40
0.61861738462109161
40
0.61861738462109161
40
0.62288886319031966
40
0.62288886319031966
40
0.62288886319031966
40
0.62288886319031966
10
313.9746813218901
20
405.09822603099212
30
0
10
308.83597533026239
20
405.09909025957609
30
0
10
303.70777731447924
20
405.10907574431263
30
0
10
298.59667288099541
20
405.12273578594329
30
0
0
LINE
5
193
100
AcDbEntity
8
0
100
AcDbLine
10
298.59667288099547
20
405.12273578594323
30
0
11
298.78417578028831
21
380.17862298444345
31
0
0
LINE
5
194
100
AcDbEntity
8
0
100
AcDbLine
10
298.78417578028831
20
380.17862298444345
30
0
11
287.78448653958992
21
380.09593920088429
31
0
0
LINE
5
195
100
AcDbEntity
8
0
100
AcDbLine
10
287.78448653958992
20
380.09593920088429
30
0
11
287.59611354009121
21
405.15580422682592
31
0
0
SPLINE
5
196
100
AcDbEntity
8
0
100
AcDbSpline
70
0
71
3
72
86
73
82
74
0
42
0.000000001
43
0.0000000001
44
0.0000000001
40
0.62596132245556735
40
0.62596132245556735
40
0.62596132245556735
40
0.62596132245556735
40
0.6277007002779792
40
0.6277007002779792
40
0.6277007002779792
40
0.64006315649559042
40
0.64006315649559042
40
0.64006315649559042
40
0.65201510878841185
40
0.65201510878841185
40
0.65201510878841185
40
0.66357018822370895
40
0.66357018822370895
40
0.66357018822370895
40
0.67474157323971351
40
0.67474157323971351
40
0.67474157323971351
40
0.68554200467548421
40
0.68554200467548421
40
0.68554200467548421
40
0.6959838003016906
40
0.6959838003016906
40
0.6959838003016906
40
0.70607886886889204
40
0.70607886886889204
40
0.70607886886889204
40
0.71583872368933388
40
0.71583872368933388
40
0.71583872368933388
40
0.72527449576775049
40
0.72527449576775049
40
0.72527449576775049
40
0.7343969464961515
40
0.7343969464961515
40
0.7343969464961515
40
0.74321647992706796
40
0.74321647992706796
40
0.74321647992706796
40
0.75174315463925767
40
0.75174315463925767
40
0.75174315463925767
40
0.76803128626337602
40
0.76803128626337602
40
0.76803128626337602
40
0.78325075357163598
40
0.78325075357163598
40
0.78325075357163598
40
0.79747167162980093
40
0.79747167162980093
40
0.79747167162980093
40
0.81075955525416965
40
0.81075955525416965
40
0.81075955525416965
40
0.82317562083394358
40
0.82317562083394358
40
0.82317562083394358
40
0.84609852666314289
40
0.84609852666314289
40
0.84609852666314289
40
0.86604978562932178
40
0.86604978562932178
40
0.86604978562932178
40
0.88341463183605762
40
0.88341463183605762
40
0.88341463183605762
40
0.89852835895948135
40
0.89852835895948135
40
0.89852835895948135
40
0.9116827943539455
40
0.9116827943539455
40
0.9116827943539455
40
0.9343047599942097
40
0.9343047599942097
40
0.9343047599942097
40
0.95113223377203626
40
0.95113223377203626
40
0.95113223377203626
40
0.96364944285308296
40
0.96364944285308296
40
0.96364944285308296
40
0.96735110287064852
40
0.96735110287064852
40
0.96735110287064852
40
0.96735110287064852
10
287.59611354009144
20
405.15580422682581
30
0
10
285.52605434699194
20
405.16232667109466
30
0
10
283.45952284689213
20
405.16878395573519
30
0
10
281.39690956594814
20
405.17478834244861
30
0
10
266.73708922618084
20
405.21746392845523
30
0
10
252.27767278095325
20
405.23820367262141
30
0
10
238.14190807848979
20
405.09097181642937
30
0
10
224.47553123780096
20
404.94862889604076
30
0
10
211.112050533673
20
404.64941507581449
30
0
10
198.13099450858093
20
404.05052543435801
30
0
10
185.58098344352072
20
403.47152233842337
30
0
10
173.38850626459021
20
402.6133305682115
30
0
10
161.59121255059705
20
401.32922684365622
30
0
10
150.1856561488535
20
400.08776267304461
30
0
10
139.14829922132645
20
398.4500464889245
30
0
10
128.48728523512267
20
396.24663695064044
30
0
10
118.18027760546643
20
394.11639315284219
30
0
10
108.22044766991667
20
391.45909983831086
30
0
10
98.629713261078848
20
388.05877169121845
30
0
10
89.357445833813472
20
384.77135379637548
30
0
10
80.4205070514422
20
380.78510591326904
30
0
10
71.957213684515665
20
375.85618209199049
30
0
10
63.774949838148409
20
371.09092660150384
30
0
10
56.032308310611533
20
365.42702792647952
30
0
10
49.080064452464462
20
358.75760865346587
30
0
10
42.358674668914524
20
352.3096520687277
30
0
10
36.39835445590839
20
344.91372219417724
30
0
10
31.591255343937227
20
336.80542958987314
30
0
10
26.943779288871749
20
328.9663784598215
30
0
10
23.388249876757996
20
320.48266993439961
30
0
10
21.041651213706754
20
311.76617914742229
30
0
10
18.772972985246529
20
303.33912547678028
30
0
10
17.622882041229897
20
294.70787959157315
30
0
10
17.473425901716439
20
286.15064132677088
30
0
10
17.328932556875351
20
277.87755208795727
30
0
10
18.110243122996714
20
269.66980969979397
30
0
10
19.668552773485416
20
261.6381596299077
30
0
10
21.175117672259489
20
253.87320606581193
30
0
10
23.406515974795461
20
246.26804927330193
30
0
10
26.260409620978816
20
238.860941658093
30
0
10
31.712077113795829
20
224.71146981087284
30
0
10
39.422625318321678
20
211.27388368892255
30
0
10
48.975115776864577
20
198.73637386979053
30
0
10
57.900867336422479
20
187.0214500698917
30
0
10
68.451883868524135
20
176.09581808549586
30
0
10
80.352911948936523
20
166.16837398538749
30
0
10
91.473113576993001
20
156.89226949268732
30
0
10
103.77037448734464
20
148.4945803244951
30
0
10
116.98963359688675
20
141.09391948057325
30
0
10
129.34157711625178
20
134.17881599462109
30
0
10
142.49612670533037
20
128.13411370255375
30
0
10
156.24243642355808
20
122.97821460972079
30
0
10
169.08685076117291
20
118.16059405636861
30
0
10
182.44792907729786
20
114.11674220612227
30
0
10
196.1698172096452
20
110.81183921894015
30
0
10
221.50357108164539
20
104.71023002051365
30
0
10
248.06299519524572
20
101.1385990289355
30
0
10
274.95953354952292
20
99.638832693633077
30
0
10
298.36929695379422
20
98.333490920328728
30
0
10
322.03645116367841
20
98.588820299732333
30
0
10
345.42784092230136
20
100.00307576883318
30
0
10
365.78685116866563
20
101.23399201124187
30
0
10
385.93684467126417
20
103.33995324213468
30
0
10
405.55967832284642
20
106.04070917873393
30
0
10
422.63867514594011
20
108.39134838202813
30
0
10
439.31804465419924
20
111.19148371287751
30
0
10
455.41765336018847
20
114.26642947492915
30
0
10
469.43016403142212
20
116.94274981855241
30
0
10
483.00335063803664
20
119.82673199974241
30
0
10
496.04635413009544
20
122.82124511143009
30
0
10
518.47668792970285
20
127.97097375356
30
0
10
539.32581233968222
20
133.43434842903162
30
0
10
558.33141574103297
20
138.89386695466521
30
0
10
572.46883854300063
20
142.95495988931901
30
0
10
585.59196055777682
20
147.01936223450397
30
0
10
597.6753139284657
20
151.03437380490462
30
0
10
606.6635829068066
20
154.02096228235922
30
0
10
615.07757043957906
20
156.98119144351926
30
0
10
622.93425387225898
20
159.91747126385013
30
0
10
625.25767682901517
20
160.78580457528784
30
0
10
627.53330828140724
20
161.65250057386544
30
0
10
629.75977332802427
20
162.51717472972246
30
0
0
SPLINE
5
197
100
AcDbEntity
8
0
100
AcDbSpline
70
0
71
3
72
16
73
12
74
0
42
0.000000001
43
0.0000000001
44
0.0000000001
40
-7.9999976240402297
40
-7.9999976240402297
40
-7.9999976240402297
40
-7.9999976240402297
40
-6.6368490073818691
40
-6.6368490073818691
40
-5.2737003907235191
40
-5.2737003907235191
40
-3.5158002604823464
40
-3.5158002604823464
40
-1.7579001302411721
40
-1.7579001302411721
40
0
40
0
40
0
40
0
10
629.75977332802404
20
162.51717472972243
30
0
10
633.99539652144483
20
164.16212932483919
30
0
10
637.95754664236711
20
166.43916791090015
30
0
10
645.06492954793146
20
172.10226124054347
30
0
10
648.16934213126365
20
175.45579084613576
30
0
10
654.00634957251805
20
184.06753105760782
30
0
10
656.31514895363875
20
189.51378480993333
30
0
10
658.71516117601163
20
200.98473662141942
30
0
10
658.78342859230997
20
206.89976612911042
30
0
10
656.64880089881331
20
218.42305379969872
30
0
10
654.46631399323019
20
223.92114305178819
30
0
10
651.29149967238288
20
228.84620676309044
30
0
0
SPLINE
5
198
100
AcDbEntity
8
0
100
AcDbSpline
70
0
71
3
72
14
73
10
74
0
42
0.000000001
43
0.0000000001
44
0.0000000001
40
-6.174728628843031
40
-6.174728628843031
40
-6.174728628843031
40
-6.174728628843031
40
-4.8452644446626918
40
-4.8452644446626918
40
-3.5158002604823499
40
-3.5158002604823499
40
-1.7579001302411701
40
-1.7579001302411701
40
0
40
0
40
0
40
0
10
651.291499672383
20
228.84620676309044
30
0
10
648.89045204835782
20
232.57093247210122
30
0
10
645.9523105226184
20
235.92063284750523
30
0
10
639.19235796237683
20
241.65277787219696
30
0
10
635.40747404676472
20
244.00390993475656
30
0
10
625.96264894467004
20
248.09100820062713
30
0
10
620.18177668513817
20
249.3455003034158
30
0
10
608.46455440127909
20
249.56797744743145
30
0
10
602.64022740836492
20
248.53383548590227
30
0
10
597.1780184662324
20
246.41252174090116
30
0
0
SPLINE
5
199
100
AcDbEntity
8
0
100
AcDbSpline
70
0
71
3
72
14
73
10
74
0
42
0.000000001
43
0.0000000001
44
0.0000000001
40
-0.96735110287064829
40
-0.96735110287064829
40
-0.96735110287064829
40
-0.96735110287064829
40
-0.94521575191688556
40
-0.94521575191688556
40
-0.94521575191688556
40
-0.92635095474657769
40
-0.92635095474657769
40
-0.92635095474657769
40
-0.92407231200295148
40
-0.92407231200295148
40
-0.92407231200295148
40
-0.92407231200295148
10
597.1780184662324
20
246.41252174090116
30
0
10
586.0912985883167
20
242.10686234318186
30
0
10
572.74710066954515
20
237.43551677249621
30
0
10
557.46228403951454
20
232.61221922163656
30
0
10
544.43583751453366
20
228.50157601660788
30
0
10
529.99166197086538
20
224.27488910970172
30
0
10
514.36209607022329
20
220.09472816914993
30
0
10
512.47423071953835
20
219.58981452982545
30
0
10
510.56956117735319
20
219.0857617506777
30
0
10
508.64743742470228
20
218.58262665884109
30
0
0
LINE
5
200
100
AcDbEntity
8
0
100
AcDbLine
10
508.64743742470228
20
218.58262665884109
30
0
11
514.71391676089502
21
194.11507928820583
31
0
0
LINE
5
201
100
AcDbEntity
8
0
100
AcDbLine
10
514.71391676089502
20
194.11507928820583
30
0
11
504.03719382162387
21
191.46789450469635
31
0
0
LINE
5
202
100
AcDbEntity
8
0
100
AcDbLine
10
504.03719382162387
20
191.46789450469635
30
0
11
497.99203940314379
21
215.84943343363284
31
0
0
SPLINE
5
203
100
AcDbEntity
8
0
100
AcDbSpline
70
0
71
3
72
11
73
7
74
0
42
0.000000001
43
0.0000000001
44
0.0000000001
40
-0.91992517180940236
40
-0.91992517180940236
40
-0.91992517180940236
40
-0.91992517180940236
40
-0.90099011930379158
40
-0.90099011930379158
40
-0.90099011930379158
40
-0.89229300649346754
40
-0.89229300649346754
40
-0.89229300649346754
40
-0.89229300649346754
10
497.99203940314385
20
215.84943343363284
30
0
10
481.52786079146045
20
211.71239324345277
30
0
10
463.97823647964111
20
207.69674902118481
30
0
10
445.69846297860943
20
204.06465539002818
30
0
10
437.30232823123885
20
202.39638813603094
30
0
10
428.75445499524778
20
200.81031700468293
30
0
10
420.0970972667393
20
199.33577186374723
30
0
0
LINE
5
204
100
AcDbEntity
8
0
100
AcDbLine
10
420.0970972667393
20
199.33577186374723
30
0
11
423.97626352671119
21
174.42408247170965
31
0
0
LINE
5
205
100
AcDbEntity
8
0
100
AcDbLine
10
423.97626352671119
20
174.42408247170965
30
0
11
413.10724853459067
21
172.73159521885944
31
0
0
ENDSEC
0
SECTION
2
OBJECTS
0
DICTIONARY
5
C
100
AcDbDictionary
3
ACAD_GROUP
350
D
3
ACAD_MLINESTYLE
350
17
0
DICTIONARY
5
D
100
AcDbDictionary
0
DICTIONARY
5
1A
330
C
100
AcDbDictionary
0
DICTIONARY
5
17
100
AcDbDictionary
0
ENDSEC
0
EOF
