  0
SECTION
  2
HEADER
  9
$ACADVER
  1
AC1014
  9
$HANDSEED
  5
FFFF
  9
$MEASUREMENT
 70
     1
  0
ENDSEC
  0
SECTION
  2
TABLES
  0
TABLE
  2
VPORT
  5
8
330
0
100
AcDbSymbolTable
 70
     4
  0
VPORT
  5
2E
330
8
100
AcDbSymbolTableRecord
100
AcDbViewportTableRecord
  2
*ACTIVE
 70
     0
 10
0.0
 20
0.0
 11
1.0
 21
1.0
 12
210.0
 22
148.5
 13
0.0
 23
0.0
 14
10.0
 24
10.0
 15
10.0
 25
10.0
 16
0.0
 26
0.0
 36
1.0
 17
0.0
 27
0.0
 37
0.0
 40
341.0
 41
1.24
 42
50.0
 43
0.0
 44
0.0
 50
0.0
 51
0.0
 71
     0
 72
   100
 73
     1
 74
     3
 75
     0
 76
     0
 77
     0
 78
     0
  0
ENDTAB
  0
TABLE
  2
LTYPE
  5
5
330
0
100
AcDbSymbolTable
 70
     1
  0
LTYPE
  5
14
330
5
100
AcDbSymbolTableRecord
100
AcDbLinetypeTableRecord
  2
BYBLOCK
 70
     0
  3

 72
    65
 73
     0
 40
0.0
  0
LTYPE
  5
15
330
5
100
AcDbSymbolTableRecord
100
AcDbLinetypeTableRecord
  2
BYLAYER
 70
     0
  3

 72
    65
 73
     0
 40
0.0
  0
LTYPE
  5
16
330
5
100
AcDbSymbolTableRecord
100
AcDbLinetypeTableRecord
  2
CONTINUOUS
 70
     0
  3
Solid line
 72
    65
 73
     0
 40
0.0
  0
ENDTAB
  0
TABLE
  2
LAYER
  5
2
100
AcDbSymbolTable
 70
2
  0
LAYER
  5
50
100
AcDbSymbolTableRecord
100
AcDbLayerTableRecord
  2
0
 70
0
  6
CONTINUOUS
  0
LAYER
  5
51
100
AcDbSymbolTableRecord
100
AcDbLayerTableRecord
  2
Layer_1
 70
0
  6
CONTINUOUS
  0
ENDTAB
  0
TABLE
  2
STYLE
  5
3
330
0
100
AcDbSymbolTable
 70
     1
  0
STYLE
  5
11
330
3
100
AcDbSymbolTableRecord
100
AcDbTextStyleTableRecord
  2
STANDARD
 70
     0
 40
0.0
 41
1.0
 50
0.0
 71
     0
 42
2.5
  3
txt
  4

  0
ENDTAB
  0
TABLE
  2
VIEW
  5
6
330
0
100
AcDbSymbolTable
 70
     0
  0
ENDTAB
  0
TABLE
  2
UCS
  5
7
330
0
100
AcDbSymbolTable
 70
     0
  0
ENDTAB
  0
TABLE
  2
APPID
  5
9
330
0
100
AcDbSymbolTable
 70
     2
  0
APPID
  5
12
330
9
100
AcDbSymbolTableRecord
100
AcDbRegAppTableRecord
  2
ACAD
 70
     0
  0
ENDTAB
  0
TABLE
  2
DIMSTYLE
  5
A
330
0
100
AcDbSymbolTable
 70
     1
  0
DIMSTYLE
105
27
330
A
100
AcDbSymbolTableRecord
100
AcDbDimStyleTableRecord
  2
ISO-25
 70
     0
  3

  4

  5

  6

  7

 40
1.0
 41
2.5
 42
0.625
 43
3.75
 44
1.25
 45
0.0
 46
0.0
 47
0.0
 48
0.0
140
2.5
141
2.5
142
0.0
143
0.03937007874016
144
1.0
145
0.0
146
1.0
147
0.625
 71
     0
 72
     0
 73
     0
 74
     0
 75
     0
 76
     0
 77
     1
 78
     8
170
     0
171
     3
172
     1
173
     0
174
     0
175
     0
176
     0
177
     0
178
     0
270
     2
271
     2
272
     2
273
     2
274
     3
340
11
275
     0
280
     0
281
     0
282
     0
283
     0
284
     8
285
     0
286
     0
287
     3
288
     0
  0
ENDTAB
  0
TABLE
  2
BLOCK_RECORD
  5
1
330
0
100
AcDbSymbolTable
 70
     1
  0
BLOCK_RECORD
  5
1F
330
1
100
AcDbSymbolTableRecord
100
AcDbBlockTableRecord
  2
*MODEL_SPACE
  0
BLOCK_RECORD
  5
1B
330
1
100
AcDbSymbolTableRecord
100
AcDbBlockTableRecord
  2
*PAPER_SPACE
  0
ENDTAB
  0
ENDSEC
  0
SECTION
  2
BLOCKS
  0
BLOCK
  5
20
330
1F
100
AcDbEntity
  8
0
100
AcDbBlockBegin
  2
*MODEL_SPACE
 70
     0
 10
0.0
 20
0.0
 30
0.0
  3
*MODEL_SPACE
  1

  0
ENDBLK
  5
21
330
1F
100
AcDbEntity
  8
0
100
AcDbBlockEnd
  0
BLOCK
  5
1C
330
1B
100
AcDbEntity
 67
     1
  8
0
100
AcDbBlockBegin
  2
*PAPER_SPACE
  1

  0
ENDBLK
  5
1D
330
1B
100
AcDbEntity
 67
     1
  8
0
100
AcDbBlockEnd
  0
ENDSEC
  0
SECTION
  2
ENTITIES
  0
SPLINE
  5
100
100
AcDbEntity
  8
Layer_1
 62
7
100
AcDbSpline
 70
8
 71
3
 72
8
 73
4
 74
0
 40
0
 40
0
 40
0
 40
0
 40
1
 40
1
 40
1
 40
1
 10
253.836832
 20
515.752524
 30
0.0
 10
251.489475
 20
515.752524
 30
0.0
 10
249.585922
 20
513.849991
 30
0.0
 10
249.584392
 20
511.503016
 30
0.0
  0
SPLINE
  5
101
100
AcDbEntity
  8
Layer_1
 62
7
100
AcDbSpline
 70
8
 71
3
 72
8
 73
4
 74
0
 40
0
 40
0
 40
0
 40
0
 40
1
 40
1
 40
1
 40
1
 10
249.584392
 20
454.807697
 30
0.0
 10
249.584392
 20
454.024952
 30
0.0
 10
248.950650
 20
453.389732
 30
0.0
 10
248.167883
 20
453.389732
 30
0.0
  0
SPLINE
  5
102
100
AcDbEntity
  8
Layer_1
 62
7
100
AcDbSpline
 70
8
 71
3
 72
8
 73
4
 74
0
 40
0
 40
0
 40
0
 40
0
 40
1
 40
1
 40
1
 40
1
 10
248.167883
 20
453.389732
 30
0.0
 10
247.385138
 20
453.389732
 30
0.0
 10
246.749918
 20
454.024952
 30
0.0
 10
246.749918
 20
454.807697
 30
0.0
  0
LWPOLYLINE
  5
103
100
AcDbEntity
  8
Layer_1
 62
7
100
AcDbPolyline
 90
2
 70
0
 10
249.584392
 20
511.503016
 30
0.0
 10
249.584392
 20
454.807697
 30
0.0
  0
SPLINE
  5
104
100
AcDbEntity
  8
Layer_1
 62
7
100
AcDbSpline
 70
8
 71
3
 72
8
 73
4
 74
0
 40
0
 40
0
 40
0
 40
0
 40
1
 40
1
 40
1
 40
1
 10
206.030191
 20
484.570396
 30
0.0
 10
205.468853
 20
485.676781
 30
0.0
 10
204.540316
 20
486.555256
 30
0.0
 10
203.214758
 20
486.555256
 30
0.0
  0
SPLINE
  5
105
100
AcDbEntity
  8
Layer_1
 62
7
100
AcDbSpline
 70
8
 71
3
 72
8
 73
4
 74
0
 40
0
 40
0
 40
0
 40
0
 40
1
 40
1
 40
1
 40
1
 10
203.214758
 20
486.555256
 30
0.0
 10
203.109548
 20
486.555256
 30
0.0
 10
203.048011
 20
486.453279
 30
0.0
 10
202.945231
 20
486.443934
 30
0.0
  0
LWPOLYLINE
  5
106
100
AcDbEntity
  8
Layer_1
 62
7
100
AcDbPolyline
 90
4
 70
0
 10
246.749918
 20
454.807697
 30
0.0
 10
246.749918
 20
484.570396
 30
0.0
 10
243.915443
 20
484.570396
 30
0.0
 10
206.030191
 20
484.570396
 30
0.0
  0
SPLINE
  5
107
100
AcDbEntity
  8
Layer_1
 62
7
100
AcDbSpline
 70
8
 71
3
 72
8
 73
4
 74
0
 40
0
 40
0
 40
0
 40
0
 40
1
 40
1
 40
1
 40
1
 10
178.158608
 20
511.229086
 30
0.0
 10
178.168043
 20
511.332331
 30
0.0
 10
178.269938
 20
511.394379
 30
0.0
 10
178.269938
 20
511.500084
 30
0.0
  0
SPLINE
  5
108
100
AcDbEntity
  8
Layer_1
 62
7
100
AcDbSpline
 70
8
 71
3
 72
8
 73
4
 74
0
 40
0
 40
0
 40
0
 40
0
 40
1
 40
1
 40
1
 40
1
 10
178.269938
 20
511.500084
 30
0.0
 10
178.269938
 20
513.378721
 30
0.0
 10
176.747206
 20
514.901446
 30
0.0
 10
174.868568
 20
514.901446
 30
0.0
  0
SPLINE
  5
109
100
AcDbEntity
  8
Layer_1
 62
7
100
AcDbSpline
 70
8
 71
3
 72
8
 73
4
 74
0
 40
0
 40
0
 40
0
 40
0
 40
1
 40
1
 40
1
 40
1
 10
174.868568
 20
514.901446
 30
0.0
 10
172.989931
 20
514.901446
 30
0.0
 10
171.467206
 20
513.378721
 30
0.0
 10
171.467206
 20
511.500084
 30
0.0
  0
SPLINE
  5
10a
100
AcDbEntity
  8
Layer_1
 62
7
100
AcDbSpline
 70
8
 71
3
 72
8
 73
4
 74
0
 40
0
 40
0
 40
0
 40
0
 40
1
 40
1
 40
1
 40
1
 10
171.467206
 20
511.500084
 30
0.0
 10
171.467206
 20
509.621446
 30
0.0
 10
172.989931
 20
508.098714
 30
0.0
 10
174.868568
 20
508.098714
 30
0.0
  0
SPLINE
  5
10b
100
AcDbEntity
  8
Layer_1
 62
7
100
AcDbSpline
 70
8
 71
3
 72
8
 73
4
 74
0
 40
0
 40
0
 40
0
 40
0
 40
1
 40
1
 40
1
 40
1
 10
174.868568
 20
508.098714
 30
0.0
 10
175.534928
 20
508.098714
 30
0.0
 10
176.050351
 20
508.473646
 30
0.0
 10
176.575111
 20
508.804771
 30
0.0
  0
LWPOLYLINE
  5
10c
100
AcDbEntity
  8
Layer_1
 62
7
100
AcDbPolyline
 90
2
 70
0
 10
202.945231
 20
486.443934
 30
0.0
 10
178.158608
 20
511.229086
 30
0.0
  0
SPLINE
  5
10d
100
AcDbEntity
  8
Layer_1
 62
7
100
AcDbSpline
 70
8
 71
3
 72
8
 73
4
 74
0
 40
0
 40
0
 40
0
 40
0
 40
1
 40
1
 40
1
 40
1
 10
200.519453
 20
484.860436
 30
0.0
 10
200.188328
 20
484.335669
 30
0.0
 10
199.813396
 20
483.820246
 30
0.0
 10
199.813396
 20
483.153894
 30
0.0
  0
SPLINE
  5
10e
100
AcDbEntity
  8
Layer_1
 62
7
100
AcDbSpline
 70
8
 71
3
 72
8
 73
4
 74
0
 40
0
 40
0
 40
0
 40
0
 40
1
 40
1
 40
1
 40
1
 10
199.813396
 20
483.153894
 30
0.0
 10
199.813396
 20
482.487534
 30
0.0
 10
200.188328
 20
481.972111
 30
0.0
 10
200.519453
 20
481.447351
 30
0.0
  0
LWPOLYLINE
  5
10f
100
AcDbEntity
  8
Layer_1
 62
7
100
AcDbPolyline
 90
2
 70
0
 10
176.575111
 20
508.804771
 30
0.0
 10
200.519453
 20
484.860436
 30
0.0
  0
SPLINE
  5
110
100
AcDbEntity
  8
Layer_1
 62
7
100
AcDbSpline
 70
8
 71
3
 72
8
 73
4
 74
0
 40
0
 40
0
 40
0
 40
0
 40
1
 40
1
 40
1
 40
1
 10
176.575111
 20
457.503017
 30
0.0
 10
176.050351
 20
457.834134
 30
0.0
 10
175.534928
 20
458.209067
 30
0.0
 10
174.868568
 20
458.209067
 30
0.0
  0
SPLINE
  5
111
100
AcDbEntity
  8
Layer_1
 62
7
100
AcDbSpline
 70
8
 71
3
 72
8
 73
4
 74
0
 40
0
 40
0
 40
0
 40
0
 40
1
 40
1
 40
1
 40
1
 10
174.868568
 20
458.209067
 30
0.0
 10
172.989931
 20
458.209067
 30
0.0
 10
171.467206
 20
456.686342
 30
0.0
 10
171.467206
 20
454.807697
 30
0.0
  0
SPLINE
  5
112
100
AcDbEntity
  8
Layer_1
 62
7
100
AcDbSpline
 70
8
 71
3
 72
8
 73
4
 74
0
 40
0
 40
0
 40
0
 40
0
 40
1
 40
1
 40
1
 40
1
 10
171.467206
 20
454.807697
 30
0.0
 10
171.467206
 20
452.929059
 30
0.0
 10
172.989931
 20
451.404872
 30
0.0
 10
174.868568
 20
451.404872
 30
0.0
  0
SPLINE
  5
113
100
AcDbEntity
  8
Layer_1
 62
7
100
AcDbSpline
 70
8
 71
3
 72
8
 73
4
 74
0
 40
0
 40
0
 40
0
 40
0
 40
1
 40
1
 40
1
 40
1
 10
174.868568
 20
451.404872
 30
0.0
 10
176.747206
 20
451.404872
 30
0.0
 10
178.269938
 20
452.929059
 30
0.0
 10
178.269938
 20
454.807697
 30
0.0
  0
SPLINE
  5
114
100
AcDbEntity
  8
Layer_1
 62
7
100
AcDbSpline
 70
8
 71
3
 72
8
 73
4
 74
0
 40
0
 40
0
 40
0
 40
0
 40
1
 40
1
 40
1
 40
1
 10
178.269938
 20
454.807697
 30
0.0
 10
178.269938
 20
454.912922
 30
0.0
 10
178.167961
 20
454.974452
 30
0.0
 10
178.158608
 20
455.077232
 30
0.0
  0
LWPOLYLINE
  5
115
100
AcDbEntity
  8
Layer_1
 62
7
100
AcDbPolyline
 90
2
 70
0
 10
200.519453
 20
481.447351
 30
0.0
 10
176.575111
 20
457.503017
 30
0.0
  0
SPLINE
  5
116
100
AcDbEntity
  8
Layer_1
 62
7
100
AcDbSpline
 70
8
 71
3
 72
8
 73
4
 74
0
 40
0
 40
0
 40
0
 40
0
 40
1
 40
1
 40
1
 40
1
 10
202.945231
 20
479.863854
 30
0.0
 10
203.048011
 20
479.854501
 30
0.0
 10
203.109548
 20
479.752524
 30
0.0
 10
203.214758
 20
479.752524
 30
0.0
  0
SPLINE
  5
117
100
AcDbEntity
  8
Layer_1
 62
7
100
AcDbSpline
 70
8
 71
3
 72
8
 73
4
 74
0
 40
0
 40
0
 40
0
 40
0
 40
1
 40
1
 40
1
 40
1
 10
203.214758
 20
479.752524
 30
0.0
 10
204.539626
 20
479.752524
 30
0.0
 10
205.467068
 20
480.630474
 30
0.0
 10
206.028728
 20
481.735921
 30
0.0
  0
LWPOLYLINE
  5
118
100
AcDbEntity
  8
Layer_1
 62
7
100
AcDbPolyline
 90
2
 70
0
 10
178.158608
 20
455.077232
 30
0.0
 10
202.945231
 20
479.863854
 30
0.0
  0
SPLINE
  5
119
100
AcDbEntity
  8
Layer_1
 62
7
100
AcDbSpline
 70
8
 71
3
 72
8
 73
4
 74
0
 40
0
 40
0
 40
0
 40
0
 40
1
 40
1
 40
1
 40
1
 10
243.915443
 20
454.804772
 30
0.0
 10
243.916980
 20
452.457774
 30
0.0
 10
245.820548
 20
450.555257
 30
0.0
 10
248.167883
 20
450.555257
 30
0.0
  0
SPLINE
  5
11a
100
AcDbEntity
  8
Layer_1
 62
7
100
AcDbSpline
 70
8
 71
3
 72
8
 73
4
 74
0
 40
0
 40
0
 40
0
 40
0
 40
1
 40
1
 40
1
 40
1
 10
248.167883
 20
450.555257
 30
0.0
 10
250.515240
 20
450.555257
 30
0.0
 10
252.417330
 20
452.457774
 30
0.0
 10
252.418860
 20
454.804772
 30
0.0
  0
LWPOLYLINE
  5
11b
100
AcDbEntity
  8
Layer_1
 62
7
100
AcDbPolyline
 90
3
 70
0
 10
206.028728
 20
481.735921
 30
0.0
 10
243.915443
 20
481.735921
 30
0.0
 10
243.915443
 20
454.804772
 30
0.0
  0
SPLINE
  5
11c
100
AcDbEntity
  8
Layer_1
 62
7
100
AcDbSpline
 70
8
 71
3
 72
8
 73
4
 74
0
 40
0
 40
0
 40
0
 40
0
 40
1
 40
1
 40
1
 40
1
 10
252.418860
 20
511.500084
 30
0.0
 10
252.418860
 20
512.282851
 30
0.0
 10
253.054065
 20
512.916586
 30
0.0
 10
253.836832
 20
512.916586
 30
0.0
  0
SPLINE
  5
11d
100
AcDbEntity
  8
Layer_1
 62
7
100
AcDbSpline
 70
8
 71
3
 72
8
 73
4
 74
0
 40
0
 40
0
 40
0
 40
0
 40
1
 40
1
 40
1
 40
1
 10
253.836832
 20
512.916586
 30
0.0
 10
254.619600
 20
512.916586
 30
0.0
 10
255.254797
 20
512.282851
 30
0.0
 10
255.254797
 20
511.500084
 30
0.0
  0
LWPOLYLINE
  5
11e
100
AcDbEntity
  8
Layer_1
 62
7
100
AcDbPolyline
 90
2
 70
0
 10
252.418860
 20
454.804772
 30
0.0
 10
252.418860
 20
511.500084
 30
0.0
  0
SPLINE
  5
11f
100
AcDbEntity
  8
Layer_1
 62
7
100
AcDbSpline
 70
8
 71
3
 72
8
 73
4
 74
0
 40
0
 40
0
 40
0
 40
0
 40
1
 40
1
 40
1
 40
1
 10
255.254797
 20
454.804772
 30
0.0
 10
255.256335
 20
452.457774
 30
0.0
 10
257.158425
 20
450.555257
 30
0.0
 10
259.505775
 20
450.555257
 30
0.0
  0
SPLINE
  5
120
100
AcDbEntity
  8
Layer_1
 62
7
100
AcDbSpline
 70
8
 71
3
 72
8
 73
4
 74
0
 40
0
 40
0
 40
0
 40
0
 40
1
 40
1
 40
1
 40
1
 10
259.505775
 20
450.555257
 30
0.0
 10
261.853132
 20
450.555257
 30
0.0
 10
263.756685
 20
452.457774
 30
0.0
 10
263.758215
 20
454.804772
 30
0.0
  0
LWPOLYLINE
  5
121
100
AcDbEntity
  8
Layer_1
 62
7
100
AcDbPolyline
 90
2
 70
0
 10
255.254797
 20
511.500084
 30
0.0
 10
255.254797
 20
454.804772
 30
0.0
  0
SPLINE
  5
122
100
AcDbEntity
  8
Layer_1
 62
7
100
AcDbSpline
 70
8
 71
3
 72
8
 73
4
 74
0
 40
0
 40
0
 40
0
 40
0
 40
1
 40
1
 40
1
 40
1
 10
263.758215
 20
511.500084
 30
0.0
 10
263.758215
 20
512.282851
 30
0.0
 10
264.391957
 20
512.916586
 30
0.0
 10
265.174725
 20
512.916586
 30
0.0
  0
SPLINE
  5
123
100
AcDbEntity
  8
Layer_1
 62
7
100
AcDbSpline
 70
8
 71
3
 72
8
 73
4
 74
0
 40
0
 40
0
 40
0
 40
0
 40
1
 40
1
 40
1
 40
1
 10
265.174725
 20
512.916586
 30
0.0
 10
265.957485
 20
512.916586
 30
0.0
 10
266.592690
 20
512.282851
 30
0.0
 10
266.592690
 20
511.500084
 30
0.0
  0
LWPOLYLINE
  5
124
100
AcDbEntity
  8
Layer_1
 62
7
100
AcDbPolyline
 90
2
 70
0
 10
263.758215
 20
454.804772
 30
0.0
 10
263.758215
 20
511.500084
 30
0.0
  0
SPLINE
  5
125
100
AcDbEntity
  8
Layer_1
 62
7
100
AcDbSpline
 70
8
 71
3
 72
8
 73
4
 74
0
 40
0
 40
0
 40
0
 40
0
 40
1
 40
1
 40
1
 40
1
 10
266.592690
 20
454.804772
 30
0.0
 10
266.594227
 20
452.457774
 30
0.0
 10
268.497780
 20
450.555257
 30
0.0
 10
270.845130
 20
450.555257
 30
0.0
  0
SPLINE
  5
126
100
AcDbEntity
  8
Layer_1
 62
7
100
AcDbSpline
 70
8
 71
3
 72
8
 73
4
 74
0
 40
0
 40
0
 40
0
 40
0
 40
1
 40
1
 40
1
 40
1
 10
270.845130
 20
450.555257
 30
0.0
 10
273.192487
 20
450.555257
 30
0.0
 10
275.094577
 20
452.457774
 30
0.0
 10
275.096107
 20
454.804772
 30
0.0
  0
LWPOLYLINE
  5
127
100
AcDbEntity
  8
Layer_1
 62
7
100
AcDbPolyline
 90
2
 70
0
 10
266.592690
 20
511.500084
 30
0.0
 10
266.592690
 20
454.804772
 30
0.0
  0
SPLINE
  5
128
100
AcDbEntity
  8
Layer_1
 62
7
100
AcDbSpline
 70
8
 71
3
 72
8
 73
4
 74
0
 40
0
 40
0
 40
0
 40
0
 40
1
 40
1
 40
1
 40
1
 10
275.096107
 20
511.500084
 30
0.0
 10
275.096107
 20
512.282851
 30
0.0
 10
275.731312
 20
512.916586
 30
0.0
 10
276.514080
 20
512.916586
 30
0.0
  0
SPLINE
  5
129
100
AcDbEntity
  8
Layer_1
 62
7
100
AcDbSpline
 70
8
 71
3
 72
8
 73
4
 74
0
 40
0
 40
0
 40
0
 40
0
 40
1
 40
1
 40
1
 40
1
 10
276.514080
 20
512.916586
 30
0.0
 10
277.296840
 20
512.916586
 30
0.0
 10
277.932045
 20
512.282851
 30
0.0
 10
277.932045
 20
511.500084
 30
0.0
  0
LWPOLYLINE
  5
12a
100
AcDbEntity
  8
Layer_1
 62
7
100
AcDbPolyline
 90
2
 70
0
 10
275.096107
 20
454.804772
 30
0.0
 10
275.096107
 20
511.500084
 30
0.0
  0
SPLINE
  5
12b
100
AcDbEntity
  8
Layer_1
 62
7
100
AcDbSpline
 70
8
 71
3
 72
8
 73
4
 74
0
 40
0
 40
0
 40
0
 40
0
 40
1
 40
1
 40
1
 40
1
 10
277.932045
 20
454.804772
 30
0.0
 10
277.933582
 20
452.457774
 30
0.0
 10
279.835672
 20
450.555257
 30
0.0
 10
282.183022
 20
450.555257
 30
0.0
  0
SPLINE
  5
12c
100
AcDbEntity
  8
Layer_1
 62
7
100
AcDbSpline
 70
8
 71
3
 72
8
 73
4
 74
0
 40
0
 40
0
 40
0
 40
0
 40
1
 40
1
 40
1
 40
1
 10
282.183022
 20
450.555257
 30
0.0
 10
284.530372
 20
450.555257
 30
0.0
 10
286.433932
 20
452.457774
 30
0.0
 10
286.435462
 20
454.804772
 30
0.0
  0
LWPOLYLINE
  5
12d
100
AcDbEntity
  8
Layer_1
 62
7
100
AcDbPolyline
 90
2
 70
0
 10
277.932045
 20
511.500084
 30
0.0
 10
277.932045
 20
454.804772
 30
0.0
  0
SPLINE
  5
12e
100
AcDbEntity
  8
Layer_1
 62
7
100
AcDbSpline
 70
8
 71
3
 72
8
 73
4
 74
0
 40
0
 40
0
 40
0
 40
0
 40
1
 40
1
 40
1
 40
1
 10
286.435462
 20
511.500084
 30
0.0
 10
286.435462
 20
512.282851
 30
0.0
 10
287.069205
 20
512.916586
 30
0.0
 10
287.851965
 20
512.916586
 30
0.0
  0
SPLINE
  5
12f
100
AcDbEntity
  8
Layer_1
 62
7
100
AcDbSpline
 70
8
 71
3
 72
8
 73
4
 74
0
 40
0
 40
0
 40
0
 40
0
 40
1
 40
1
 40
1
 40
1
 10
287.851965
 20
512.916586
 30
0.0
 10
288.634732
 20
512.916586
 30
0.0
 10
289.269937
 20
512.282851
 30
0.0
 10
289.269937
 20
511.500084
 30
0.0
  0
LWPOLYLINE
  5
130
100
AcDbEntity
  8
Layer_1
 62
7
100
AcDbPolyline
 90
2
 70
0
 10
286.435462
 20
454.804772
 30
0.0
 10
286.435462
 20
511.500084
 30
0.0
  0
SPLINE
  5
131
100
AcDbEntity
  8
Layer_1
 62
7
100
AcDbSpline
 70
8
 71
3
 72
8
 73
4
 74
0
 40
0
 40
0
 40
0
 40
0
 40
1
 40
1
 40
1
 40
1
 10
289.269937
 20
454.804772
 30
0.0
 10
289.271467
 20
452.457774
 30
0.0
 10
291.175027
 20
450.555257
 30
0.0
 10
293.522377
 20
450.555257
 30
0.0
  0
SPLINE
  5
132
100
AcDbEntity
  8
Layer_1
 62
7
100
AcDbSpline
 70
8
 71
3
 72
8
 73
4
 74
0
 40
0
 40
0
 40
0
 40
0
 40
1
 40
1
 40
1
 40
1
 10
293.522377
 20
450.555257
 30
0.0
 10
295.869734
 20
450.555257
 30
0.0
 10
297.771824
 20
452.457774
 30
0.0
 10
297.773354
 20
454.804772
 30
0.0
  0
LWPOLYLINE
  5
133
100
AcDbEntity
  8
Layer_1
 62
7
100
AcDbPolyline
 90
2
 70
0
 10
289.269937
 20
511.500084
 30
0.0
 10
289.269937
 20
454.804772
 30
0.0
  0
SPLINE
  5
134
100
AcDbEntity
  8
Layer_1
 62
7
100
AcDbSpline
 70
8
 71
3
 72
8
 73
4
 74
0
 40
0
 40
0
 40
0
 40
0
 40
1
 40
1
 40
1
 40
1
 10
297.773354
 20
511.500084
 30
0.0
 10
297.773354
 20
512.282851
 30
0.0
 10
298.408559
 20
512.916586
 30
0.0
 10
299.191327
 20
512.916586
 30
0.0
  0
SPLINE
  5
135
100
AcDbEntity
  8
Layer_1
 62
7
100
AcDbSpline
 70
8
 71
3
 72
8
 73
4
 74
0
 40
0
 40
0
 40
0
 40
0
 40
1
 40
1
 40
1
 40
1
 10
299.191327
 20
512.916586
 30
0.0
 10
299.974072
 20
512.916586
 30
0.0
 10
300.607829
 20
512.282851
 30
0.0
 10
300.607829
 20
511.500084
 30
0.0
  0
LWPOLYLINE
  5
136
100
AcDbEntity
  8
Layer_1
 62
7
100
AcDbPolyline
 90
2
 70
0
 10
297.773354
 20
454.804772
 30
0.0
 10
297.773354
 20
511.500084
 30
0.0
  0
SPLINE
  5
137
100
AcDbEntity
  8
Layer_1
 62
7
100
AcDbSpline
 70
8
 71
3
 72
8
 73
4
 74
0
 40
0
 40
0
 40
0
 40
0
 40
1
 40
1
 40
1
 40
1
 10
300.607829
 20
454.804772
 30
0.0
 10
300.609359
 20
452.457774
 30
0.0
 10
302.512912
 20
450.555257
 30
0.0
 10
304.860269
 20
450.555257
 30
0.0
  0
SPLINE
  5
138
100
AcDbEntity
  8
Layer_1
 62
7
100
AcDbSpline
 70
8
 71
3
 72
8
 73
4
 74
0
 40
0
 40
0
 40
0
 40
0
 40
1
 40
1
 40
1
 40
1
 10
304.860269
 20
450.555257
 30
0.0
 10
307.207619
 20
450.555257
 30
0.0
 10
309.111179
 20
452.457774
 30
0.0
 10
309.112709
 20
454.804772
 30
0.0
  0
LWPOLYLINE
  5
139
100
AcDbEntity
  8
Layer_1
 62
7
100
AcDbPolyline
 90
2
 70
0
 10
300.607829
 20
511.500084
 30
0.0
 10
300.607829
 20
454.804772
 30
0.0
  0
SPLINE
  5
13a
100
AcDbEntity
  8
Layer_1
 62
7
100
AcDbSpline
 70
8
 71
3
 72
8
 73
4
 74
0
 40
0
 40
0
 40
0
 40
0
 40
1
 40
1
 40
1
 40
1
 10
309.112709
 20
511.500084
 30
0.0
 10
309.112709
 20
512.282851
 30
0.0
 10
309.746452
 20
512.916586
 30
0.0
 10
310.529212
 20
512.916586
 30
0.0
  0
SPLINE
  5
13b
100
AcDbEntity
  8
Layer_1
 62
7
100
AcDbSpline
 70
8
 71
3
 72
8
 73
4
 74
0
 40
0
 40
0
 40
0
 40
0
 40
1
 40
1
 40
1
 40
1
 10
310.529212
 20
512.916586
 30
0.0
 10
311.311979
 20
512.916586
 30
0.0
 10
311.947184
 20
512.282851
 30
0.0
 10
311.947184
 20
511.500084
 30
0.0
  0
LWPOLYLINE
  5
13c
100
AcDbEntity
  8
Layer_1
 62
7
100
AcDbPolyline
 90
2
 70
0
 10
309.112709
 20
454.804772
 30
0.0
 10
309.112709
 20
511.500084
 30
0.0
  0
SPLINE
  5
13d
100
AcDbEntity
  8
Layer_1
 62
7
100
AcDbSpline
 70
8
 71
3
 72
8
 73
4
 74
0
 40
0
 40
0
 40
0
 40
0
 40
1
 40
1
 40
1
 40
1
 10
311.947184
 20
454.804772
 30
0.0
 10
311.948714
 20
452.457774
 30
0.0
 10
313.852274
 20
450.555257
 30
0.0
 10
316.199624
 20
450.555257
 30
0.0
  0
SPLINE
  5
13e
100
AcDbEntity
  8
Layer_1
 62
7
100
AcDbSpline
 70
8
 71
3
 72
8
 73
4
 74
0
 40
0
 40
0
 40
0
 40
0
 40
1
 40
1
 40
1
 40
1
 10
316.199624
 20
450.555257
 30
0.0
 10
318.546974
 20
450.555257
 30
0.0
 10
320.449064
 20
452.457774
 30
0.0
 10
320.450602
 20
454.804772
 30
0.0
  0
LWPOLYLINE
  5
13f
100
AcDbEntity
  8
Layer_1
 62
7
100
AcDbPolyline
 90
2
 70
0
 10
311.947184
 20
511.500084
 30
0.0
 10
311.947184
 20
454.804772
 30
0.0
  0
SPLINE
  5
140
100
AcDbEntity
  8
Layer_1
 62
7
100
AcDbSpline
 70
8
 71
3
 72
8
 73
4
 74
0
 40
0
 40
0
 40
0
 40
0
 40
1
 40
1
 40
1
 40
1
 10
320.450602
 20
511.500084
 30
0.0
 10
320.450602
 20
512.282851
 30
0.0
 10
321.085807
 20
512.916586
 30
0.0
 10
321.868567
 20
512.916586
 30
0.0
  0
SPLINE
  5
141
100
AcDbEntity
  8
Layer_1
 62
7
100
AcDbSpline
 70
8
 71
3
 72
8
 73
4
 74
0
 40
0
 40
0
 40
0
 40
0
 40
1
 40
1
 40
1
 40
1
 10
321.868567
 20
512.916586
 30
0.0
 10
322.651334
 20
512.916586
 30
0.0
 10
323.285069
 20
512.282851
 30
0.0
 10
323.285077
 20
511.500084
 30
0.0
  0
LWPOLYLINE
  5
142
100
AcDbEntity
  8
Layer_1
 62
7
100
AcDbPolyline
 90
2
 70
0
 10
320.450602
 20
454.804772
 30
0.0
 10
320.450602
 20
511.500084
 30
0.0
  0
SPLINE
  5
143
100
AcDbEntity
  8
Layer_1
 62
7
100
AcDbSpline
 70
8
 71
3
 72
8
 73
4
 74
0
 40
0
 40
0
 40
0
 40
0
 40
1
 40
1
 40
1
 40
1
 10
323.285077
 20
454.804772
 30
0.0
 10
323.286592
 20
452.457774
 30
0.0
 10
325.190159
 20
450.555257
 30
0.0
 10
327.537517
 20
450.555257
 30
0.0
  0
SPLINE
  5
144
100
AcDbEntity
  8
Layer_1
 62
7
100
AcDbSpline
 70
8
 71
3
 72
8
 73
4
 74
0
 40
0
 40
0
 40
0
 40
0
 40
1
 40
1
 40
1
 40
1
 10
327.537517
 20
450.555257
 30
0.0
 10
329.884866
 20
450.555257
 30
0.0
 10
331.788419
 20
452.457774
 30
0.0
 10
331.789956
 20
454.804772
 30
0.0
  0
LWPOLYLINE
  5
145
100
AcDbEntity
  8
Layer_1
 62
7
100
AcDbPolyline
 90
2
 70
0
 10
323.285077
 20
511.500084
 30
0.0
 10
323.285077
 20
454.804772
 30
0.0
  0
SPLINE
  5
146
100
AcDbEntity
  8
Layer_1
 62
7
100
AcDbSpline
 70
8
 71
3
 72
8
 73
4
 74
0
 40
0
 40
0
 40
0
 40
0
 40
1
 40
1
 40
1
 40
1
 10
331.789956
 20
511.500084
 30
0.0
 10
331.789956
 20
512.282851
 30
0.0
 10
332.423691
 20
512.916586
 30
0.0
 10
333.206459
 20
512.916586
 30
0.0
  0
SPLINE
  5
147
100
AcDbEntity
  8
Layer_1
 62
7
100
AcDbSpline
 70
8
 71
3
 72
8
 73
4
 74
0
 40
0
 40
0
 40
0
 40
0
 40
1
 40
1
 40
1
 40
1
 10
333.206459
 20
512.916586
 30
0.0
 10
333.989226
 20
512.916586
 30
0.0
 10
334.624431
 20
512.282851
 30
0.0
 10
334.624431
 20
511.500084
 30
0.0
  0
LWPOLYLINE
  5
148
100
AcDbEntity
  8
Layer_1
 62
7
100
AcDbPolyline
 90
2
 70
0
 10
331.789956
 20
454.804772
 30
0.0
 10
331.789956
 20
511.500084
 30
0.0
  0
SPLINE
  5
149
100
AcDbEntity
  8
Layer_1
 62
7
100
AcDbSpline
 70
8
 71
3
 72
8
 73
4
 74
0
 40
0
 40
0
 40
0
 40
0
 40
1
 40
1
 40
1
 40
1
 10
334.624431
 20
454.804772
 30
0.0
 10
334.625961
 20
452.457774
 30
0.0
 10
336.529514
 20
450.555257
 30
0.0
 10
338.876871
 20
450.555257
 30
0.0
  0
SPLINE
  5
14a
100
AcDbEntity
  8
Layer_1
 62
7
100
AcDbSpline
 70
8
 71
3
 72
8
 73
4
 74
0
 40
0
 40
0
 40
0
 40
0
 40
1
 40
1
 40
1
 40
1
 10
338.876871
 20
450.555257
 30
0.0
 10
341.224221
 20
450.555257
 30
0.0
 10
343.126311
 20
452.457774
 30
0.0
 10
343.127849
 20
454.804772
 30
0.0
  0
LWPOLYLINE
  5
14b
100
AcDbEntity
  8
Layer_1
 62
7
100
AcDbPolyline
 90
2
 70
0
 10
334.624431
 20
511.500084
 30
0.0
 10
334.624431
 20
454.804772
 30
0.0
  0
SPLINE
  5
14c
100
AcDbEntity
  8
Layer_1
 62
7
100
AcDbSpline
 70
8
 71
3
 72
8
 73
4
 74
0
 40
0
 40
0
 40
0
 40
0
 40
1
 40
1
 40
1
 40
1
 10
343.127849
 20
511.500084
 30
0.0
 10
343.127849
 20
512.282851
 30
0.0
 10
343.763046
 20
512.916586
 30
0.0
 10
344.545814
 20
512.916586
 30
0.0
  0
SPLINE
  5
14d
100
AcDbEntity
  8
Layer_1
 62
7
100
AcDbSpline
 70
8
 71
3
 72
8
 73
4
 74
0
 40
0
 40
0
 40
0
 40
0
 40
1
 40
1
 40
1
 40
1
 10
344.545814
 20
512.916586
 30
0.0
 10
345.328581
 20
512.916586
 30
0.0
 10
345.962316
 20
512.282851
 30
0.0
 10
345.962316
 20
511.500084
 30
0.0
  0
LWPOLYLINE
  5
14e
100
AcDbEntity
  8
Layer_1
 62
7
100
AcDbPolyline
 90
2
 70
0
 10
343.127849
 20
454.804772
 30
0.0
 10
343.127849
 20
511.500084
 30
0.0
  0
SPLINE
  5
14f
100
AcDbEntity
  8
Layer_1
 62
7
100
AcDbSpline
 70
8
 71
3
 72
8
 73
4
 74
0
 40
0
 40
0
 40
0
 40
0
 40
1
 40
1
 40
1
 40
1
 10
345.962316
 20
454.804772
 30
0.0
 10
345.963854
 20
452.457774
 30
0.0
 10
347.867421
 20
450.555257
 30
0.0
 10
350.214756
 20
450.555257
 30
0.0
  0
SPLINE
  5
150
100
AcDbEntity
  8
Layer_1
 62
7
100
AcDbSpline
 70
8
 71
3
 72
8
 73
4
 74
0
 40
0
 40
0
 40
0
 40
0
 40
1
 40
1
 40
1
 40
1
 10
350.214756
 20
450.555257
 30
0.0
 10
352.562114
 20
450.555257
 30
0.0
 10
354.465666
 20
452.457774
 30
0.0
 10
354.467204
 20
454.804772
 30
0.0
  0
LWPOLYLINE
  5
151
100
AcDbEntity
  8
Layer_1
 62
7
100
AcDbPolyline
 90
2
 70
0
 10
345.962316
 20
511.500084
 30
0.0
 10
345.962316
 20
454.804772
 30
0.0
  0
SPLINE
  5
152
100
AcDbEntity
  8
Layer_1
 62
7
100
AcDbSpline
 70
8
 71
3
 72
8
 73
4
 74
0
 40
0
 40
0
 40
0
 40
0
 40
1
 40
1
 40
1
 40
1
 10
354.467204
 20
511.500084
 30
0.0
 10
354.467204
 20
512.282851
 30
0.0
 10
355.100939
 20
512.916586
 30
0.0
 10
355.883706
 20
512.916586
 30
0.0
  0
SPLINE
  5
153
100
AcDbEntity
  8
Layer_1
 62
7
100
AcDbSpline
 70
8
 71
3
 72
8
 73
4
 74
0
 40
0
 40
0
 40
0
 40
0
 40
1
 40
1
 40
1
 40
1
 10
355.883706
 20
512.916586
 30
0.0
 10
356.666474
 20
512.916586
 30
0.0
 10
357.301671
 20
512.282851
 30
0.0
 10
357.301671
 20
511.500084
 30
0.0
  0
LWPOLYLINE
  5
154
100
AcDbEntity
  8
Layer_1
 62
7
100
AcDbPolyline
 90
2
 70
0
 10
354.467204
 20
454.804772
 30
0.0
 10
354.467204
 20
511.500084
 30
0.0
  0
SPLINE
  5
155
100
AcDbEntity
  8
Layer_1
 62
7
100
AcDbSpline
 70
8
 71
3
 72
8
 73
4
 74
0
 40
0
 40
0
 40
0
 40
0
 40
1
 40
1
 40
1
 40
1
 10
398.825601
 20
481.735921
 30
0.0
 10
399.387261
 20
480.630474
 30
0.0
 10
400.314703
 20
479.752524
 30
0.0
 10
401.639563
 20
479.752524
 30
0.0
  0
SPLINE
  5
156
100
AcDbEntity
  8
Layer_1
 62
7
100
AcDbSpline
 70
8
 71
3
 72
8
 73
4
 74
0
 40
0
 40
0
 40
0
 40
0
 40
1
 40
1
 40
1
 40
1
 10
401.639563
 20
479.752524
 30
0.0
 10
403.518201
 20
479.752524
 30
0.0
 10
405.040933
 20
481.275256
 30
0.0
 10
405.040933
 20
483.153894
 30
0.0
  0
SPLINE
  5
157
100
AcDbEntity
  8
Layer_1
 62
7
100
AcDbSpline
 70
8
 71
3
 72
8
 73
4
 74
0
 40
0
 40
0
 40
0
 40
0
 40
1
 40
1
 40
1
 40
1
 10
405.040933
 20
483.153894
 30
0.0
 10
405.040933
 20
485.032531
 30
0.0
 10
403.518201
 20
486.555256
 30
0.0
 10
401.639563
 20
486.555256
 30
0.0
  0
SPLINE
  5
158
100
AcDbEntity
  8
Layer_1
 62
7
100
AcDbSpline
 70
8
 71
3
 72
8
 73
4
 74
0
 40
0
 40
0
 40
0
 40
0
 40
1
 40
1
 40
1
 40
1
 10
401.639563
 20
486.555256
 30
0.0
 10
400.314013
 20
486.555256
 30
0.0
 10
399.385476
 20
485.676781
 30
0.0
 10
398.824131
 20
484.570396
 30
0.0
  0
LWPOLYLINE
  5
159
100
AcDbEntity
  8
Layer_1
 62
7
100
AcDbPolyline
 90
4
 70
0
 10
357.301671
 20
511.500084
 30
0.0
 10
357.301671
 20
481.735921
 30
0.0
 10
360.136146
 20
481.735921
 30
0.0
 10
398.825601
 20
481.735921
 30
0.0
  0
SPLINE
  5
15a
100
AcDbEntity
  8
Layer_1
 62
7
100
AcDbSpline
 70
8
 71
3
 72
8
 73
4
 74
0
 40
0
 40
0
 40
0
 40
0
 40
1
 40
1
 40
1
 40
1
 10
360.136146
 20
511.503016
 30
0.0
 10
360.134616
 20
513.849991
 30
0.0
 10
358.231056
 20
515.752524
 30
0.0
 10
355.883706
 20
515.752524
 30
0.0
  0
SPLINE
  5
15b
100
AcDbEntity
  8
Layer_1
 62
7
100
AcDbSpline
 70
8
 71
3
 72
8
 73
4
 74
0
 40
0
 40
0
 40
0
 40
0
 40
1
 40
1
 40
1
 40
1
 10
355.883706
 20
515.752524
 30
0.0
 10
353.536349
 20
515.752524
 30
0.0
 10
351.634259
 20
513.849991
 30
0.0
 10
351.632729
 20
511.503016
 30
0.0
  0
LWPOLYLINE
  5
15c
100
AcDbEntity
  8
Layer_1
 62
7
100
AcDbPolyline
 90
3
 70
0
 10
398.824131
 20
484.570396
 30
0.0
 10
360.136146
 20
484.570396
 30
0.0
 10
360.136146
 20
511.503016
 30
0.0
  0
SPLINE
  5
15d
100
AcDbEntity
  8
Layer_1
 62
7
100
AcDbSpline
 70
8
 71
3
 72
8
 73
4
 74
0
 40
0
 40
0
 40
0
 40
0
 40
1
 40
1
 40
1
 40
1
 10
351.632729
 20
454.807697
 30
0.0
 10
351.632729
 20
454.024952
 30
0.0
 10
350.997524
 20
453.389732
 30
0.0
 10
350.214756
 20
453.389732
 30
0.0
  0
SPLINE
  5
15e
100
AcDbEntity
  8
Layer_1
 62
7
100
AcDbSpline
 70
8
 71
3
 72
8
 73
4
 74
0
 40
0
 40
0
 40
0
 40
0
 40
1
 40
1
 40
1
 40
1
 10
350.214756
 20
453.389732
 30
0.0
 10
349.432011
 20
453.389732
 30
0.0
 10
348.796791
 20
454.024952
 30
0.0
 10
348.796791
 20
454.807697
 30
0.0
  0
LWPOLYLINE
  5
15f
100
AcDbEntity
  8
Layer_1
 62
7
100
AcDbPolyline
 90
2
 70
0
 10
351.632729
 20
511.503016
 30
0.0
 10
351.632729
 20
454.807697
 30
0.0
  0
SPLINE
  5
160
100
AcDbEntity
  8
Layer_1
 62
7
100
AcDbSpline
 70
8
 71
3
 72
8
 73
4
 74
0
 40
0
 40
0
 40
0
 40
0
 40
1
 40
1
 40
1
 40
1
 10
348.796791
 20
511.503016
 30
0.0
 10
348.795261
 20
513.849991
 30
0.0
 10
346.893171
 20
515.752524
 30
0.0
 10
344.545814
 20
515.752524
 30
0.0
  0
SPLINE
  5
161
100
AcDbEntity
  8
Layer_1
 62
7
100
AcDbSpline
 70
8
 71
3
 72
8
 73
4
 74
0
 40
0
 40
0
 40
0
 40
0
 40
1
 40
1
 40
1
 40
1
 10
344.545814
 20
515.752524
 30
0.0
 10
342.198464
 20
515.752524
 30
0.0
 10
340.294904
 20
513.849991
 30
0.0
 10
340.293374
 20
511.503016
 30
0.0
  0
LWPOLYLINE
  5
162
100
AcDbEntity
  8
Layer_1
 62
7
100
AcDbPolyline
 90
2
 70
0
 10
348.796791
 20
454.807697
 30
0.0
 10
348.796791
 20
511.503016
 30
0.0
  0
SPLINE
  5
163
100
AcDbEntity
  8
Layer_1
 62
7
100
AcDbSpline
 70
8
 71
3
 72
8
 73
4
 74
0
 40
0
 40
0
 40
0
 40
0
 40
1
 40
1
 40
1
 40
1
 10
340.293374
 20
454.807697
 30
0.0
 10
340.293374
 20
454.024952
 30
0.0
 10
339.659631
 20
453.389732
 30
0.0
 10
338.876871
 20
453.389732
 30
0.0
  0
SPLINE
  5
164
100
AcDbEntity
  8
Layer_1
 62
7
100
AcDbSpline
 70
8
 71
3
 72
8
 73
4
 74
0
 40
0
 40
0
 40
0
 40
0
 40
1
 40
1
 40
1
 40
1
 10
338.876871
 20
453.389732
 30
0.0
 10
338.094104
 20
453.389732
 30
0.0
 10
337.458899
 20
454.024952
 30
0.0
 10
337.458899
 20
454.807697
 30
0.0
  0
LWPOLYLINE
  5
165
100
AcDbEntity
  8
Layer_1
 62
7
100
AcDbPolyline
 90
2
 70
0
 10
340.293374
 20
511.503016
 30
0.0
 10
340.293374
 20
454.807697
 30
0.0
  0
SPLINE
  5
166
100
AcDbEntity
  8
Layer_1
 62
7
100
AcDbSpline
 70
8
 71
3
 72
8
 73
4
 74
0
 40
0
 40
0
 40
0
 40
0
 40
1
 40
1
 40
1
 40
1
 10
337.458899
 20
511.503016
 30
0.0
 10
337.457369
 20
513.849991
 30
0.0
 10
335.553809
 20
515.752524
 30
0.0
 10
333.206459
 20
515.752524
 30
0.0
  0
SPLINE
  5
167
100
AcDbEntity
  8
Layer_1
 62
7
100
AcDbSpline
 70
8
 71
3
 72
8
 73
4
 74
0
 40
0
 40
0
 40
0
 40
0
 40
1
 40
1
 40
1
 40
1
 10
333.206459
 20
515.752524
 30
0.0
 10
330.859109
 20
515.752524
 30
0.0
 10
328.957019
 20
513.849991
 30
0.0
 10
328.955481
 20
511.503016
 30
0.0
  0
LWPOLYLINE
  5
168
100
AcDbEntity
  8
Layer_1
 62
7
100
AcDbPolyline
 90
2
 70
0
 10
337.458899
 20
454.807697
 30
0.0
 10
337.458899
 20
511.503016
 30
0.0
  0
SPLINE
  5
169
100
AcDbEntity
  8
Layer_1
 62
7
100
AcDbSpline
 70
8
 71
3
 72
8
 73
4
 74
0
 40
0
 40
0
 40
0
 40
0
 40
1
 40
1
 40
1
 40
1
 10
328.955481
 20
454.807697
 30
0.0
 10
328.955481
 20
454.024952
 30
0.0
 10
328.320276
 20
453.389732
 30
0.0
 10
327.537517
 20
453.389732
 30
0.0
  0
SPLINE
  5
16a
100
AcDbEntity
  8
Layer_1
 62
7
100
AcDbSpline
 70
8
 71
3
 72
8
 73
4
 74
0
 40
0
 40
0
 40
0
 40
0
 40
1
 40
1
 40
1
 40
1
 10
327.537517
 20
453.389732
 30
0.0
 10
326.754749
 20
453.389732
 30
0.0
 10
326.121014
 20
454.024952
 30
0.0
 10
326.121007
 20
454.807697
 30
0.0
  0
LWPOLYLINE
  5
16b
100
AcDbEntity
  8
Layer_1
 62
7
100
AcDbPolyline
 90
2
 70
0
 10
328.955481
 20
511.503016
 30
0.0
 10
328.955481
 20
454.807697
 30
0.0
  0
SPLINE
  5
16c
100
AcDbEntity
  8
Layer_1
 62
7
100
AcDbSpline
 70
8
 71
3
 72
8
 73
4
 74
0
 40
0
 40
0
 40
0
 40
0
 40
1
 40
1
 40
1
 40
1
 10
326.121007
 20
511.503016
 30
0.0
 10
326.119492
 20
513.849991
 30
0.0
 10
324.215924
 20
515.752524
 30
0.0
 10
321.868567
 20
515.752524
 30
0.0
  0
SPLINE
  5
16d
100
AcDbEntity
  8
Layer_1
 62
7
100
AcDbSpline
 70
8
 71
3
 72
8
 73
4
 74
0
 40
0
 40
0
 40
0
 40
0
 40
1
 40
1
 40
1
 40
1
 10
321.868567
 20
515.752524
 30
0.0
 10
319.521217
 20
515.752524
 30
0.0
 10
317.617664
 20
513.849991
 30
0.0
 10
317.616127
 20
511.503016
 30
0.0
  0
LWPOLYLINE
  5
16e
100
AcDbEntity
  8
Layer_1
 62
7
100
AcDbPolyline
 90
2
 70
0
 10
326.121007
 20
454.807697
 30
0.0
 10
326.121007
 20
511.503016
 30
0.0
  0
SPLINE
  5
16f
100
AcDbEntity
  8
Layer_1
 62
7
100
AcDbSpline
 70
8
 71
3
 72
8
 73
4
 74
0
 40
0
 40
0
 40
0
 40
0
 40
1
 40
1
 40
1
 40
1
 10
317.616127
 20
454.807697
 30
0.0
 10
317.616127
 20
454.024952
 30
0.0
 10
316.982392
 20
453.389732
 30
0.0
 10
316.199624
 20
453.389732
 30
0.0
  0
SPLINE
  5
170
100
AcDbEntity
  8
Layer_1
 62
7
100
AcDbSpline
 70
8
 71
3
 72
8
 73
4
 74
0
 40
0
 40
0
 40
0
 40
0
 40
1
 40
1
 40
1
 40
1
 10
316.199624
 20
453.389732
 30
0.0
 10
315.416857
 20
453.389732
 30
0.0
 10
314.781652
 20
454.024952
 30
0.0
 10
314.781652
 20
454.807697
 30
0.0
  0
LWPOLYLINE
  5
171
100
AcDbEntity
  8
Layer_1
 62
7
100
AcDbPolyline
 90
2
 70
0
 10
317.616127
 20
511.503016
 30
0.0
 10
317.616127
 20
454.807697
 30
0.0
  0
SPLINE
  5
172
100
AcDbEntity
  8
Layer_1
 62
7
100
AcDbSpline
 70
8
 71
3
 72
8
 73
4
 74
0
 40
0
 40
0
 40
0
 40
0
 40
1
 40
1
 40
1
 40
1
 10
314.781652
 20
511.503016
 30
0.0
 10
314.780122
 20
513.849991
 30
0.0
 10
312.876569
 20
515.752524
 30
0.0
 10
310.529212
 20
515.752524
 30
0.0
  0
SPLINE
  5
173
100
AcDbEntity
  8
Layer_1
 62
7
100
AcDbSpline
 70
8
 71
3
 72
8
 73
4
 74
0
 40
0
 40
0
 40
0
 40
0
 40
1
 40
1
 40
1
 40
1
 10
310.529212
 20
515.752524
 30
0.0
 10
308.181862
 20
515.752524
 30
0.0
 10
306.279772
 20
513.849991
 30
0.0
 10
306.278234
 20
511.503016
 30
0.0
  0
LWPOLYLINE
  5
174
100
AcDbEntity
  8
Layer_1
 62
7
100
AcDbPolyline
 90
2
 70
0
 10
314.781652
 20
454.807697
 30
0.0
 10
314.781652
 20
511.503016
 30
0.0
  0
SPLINE
  5
175
100
AcDbEntity
  8
Layer_1
 62
7
100
AcDbSpline
 70
8
 71
3
 72
8
 73
4
 74
0
 40
0
 40
0
 40
0
 40
0
 40
1
 40
1
 40
1
 40
1
 10
306.278234
 20
454.807697
 30
0.0
 10
306.278234
 20
454.024952
 30
0.0
 10
305.643037
 20
453.389732
 30
0.0
 10
304.860269
 20
453.389732
 30
0.0
  0
SPLINE
  5
176
100
AcDbEntity
  8
Layer_1
 62
7
100
AcDbSpline
 70
8
 71
3
 72
8
 73
4
 74
0
 40
0
 40
0
 40
0
 40
0
 40
1
 40
1
 40
1
 40
1
 10
304.860269
 20
453.389732
 30
0.0
 10
304.077502
 20
453.389732
 30
0.0
 10
303.443767
 20
454.024952
 30
0.0
 10
303.443767
 20
454.807697
 30
0.0
  0
LWPOLYLINE
  5
177
100
AcDbEntity
  8
Layer_1
 62
7
100
AcDbPolyline
 90
2
 70
0
 10
306.278234
 20
511.503016
 30
0.0
 10
306.278234
 20
454.807697
 30
0.0
  0
SPLINE
  5
178
100
AcDbEntity
  8
Layer_1
 62
7
100
AcDbSpline
 70
8
 71
3
 72
8
 73
4
 74
0
 40
0
 40
0
 40
0
 40
0
 40
1
 40
1
 40
1
 40
1
 10
303.443767
 20
511.503016
 30
0.0
 10
303.442229
 20
513.849991
 30
0.0
 10
301.538662
 20
515.752524
 30
0.0
 10
299.191327
 20
515.752524
 30
0.0
  0
SPLINE
  5
179
100
AcDbEntity
  8
Layer_1
 62
7
100
AcDbSpline
 70
8
 71
3
 72
8
 73
4
 74
0
 40
0
 40
0
 40
0
 40
0
 40
1
 40
1
 40
1
 40
1
 10
299.191327
 20
515.752524
 30
0.0
 10
296.843969
 20
515.752524
 30
0.0
 10
294.940417
 20
513.849991
 30
0.0
 10
294.938879
 20
511.503016
 30
0.0
  0
LWPOLYLINE
  5
17a
100
AcDbEntity
  8
Layer_1
 62
7
100
AcDbPolyline
 90
2
 70
0
 10
303.443767
 20
454.807697
 30
0.0
 10
303.443767
 20
511.503016
 30
0.0
  0
SPLINE
  5
17b
100
AcDbEntity
  8
Layer_1
 62
7
100
AcDbSpline
 70
8
 71
3
 72
8
 73
4
 74
0
 40
0
 40
0
 40
0
 40
0
 40
1
 40
1
 40
1
 40
1
 10
294.938879
 20
454.807697
 30
0.0
 10
294.938879
 20
454.024952
 30
0.0
 10
294.305144
 20
453.389732
 30
0.0
 10
293.522377
 20
453.389732
 30
0.0
  0
SPLINE
  5
17c
100
AcDbEntity
  8
Layer_1
 62
7
100
AcDbSpline
 70
8
 71
3
 72
8
 73
4
 74
0
 40
0
 40
0
 40
0
 40
0
 40
1
 40
1
 40
1
 40
1
 10
293.522377
 20
453.389732
 30
0.0
 10
292.739609
 20
453.389732
 30
0.0
 10
292.104412
 20
454.024952
 30
0.0
 10
292.104412
 20
454.807697
 30
0.0
  0
LWPOLYLINE
  5
17d
100
AcDbEntity
  8
Layer_1
 62
7
100
AcDbPolyline
 90
2
 70
0
 10
294.938879
 20
511.503016
 30
0.0
 10
294.938879
 20
454.807697
 30
0.0
  0
SPLINE
  5
17e
100
AcDbEntity
  8
Layer_1
 62
7
100
AcDbSpline
 70
8
 71
3
 72
8
 73
4
 74
0
 40
0
 40
0
 40
0
 40
0
 40
1
 40
1
 40
1
 40
1
 10
292.104412
 20
511.503016
 30
0.0
 10
292.102874
 20
513.849991
 30
0.0
 10
290.199322
 20
515.752524
 30
0.0
 10
287.851965
 20
515.752524
 30
0.0
  0
SPLINE
  5
17f
100
AcDbEntity
  8
Layer_1
 62
7
100
AcDbSpline
 70
8
 71
3
 72
8
 73
4
 74
0
 40
0
 40
0
 40
0
 40
0
 40
1
 40
1
 40
1
 40
1
 10
287.851965
 20
515.752524
 30
0.0
 10
285.504615
 20
515.752524
 30
0.0
 10
283.602525
 20
513.849991
 30
0.0
 10
283.600995
 20
511.503016
 30
0.0
  0
LWPOLYLINE
  5
180
100
AcDbEntity
  8
Layer_1
 62
7
100
AcDbPolyline
 90
2
 70
0
 10
292.104412
 20
454.807697
 30
0.0
 10
292.104412
 20
511.503016
 30
0.0
  0
SPLINE
  5
181
100
AcDbEntity
  8
Layer_1
 62
7
100
AcDbSpline
 70
8
 71
3
 72
8
 73
4
 74
0
 40
0
 40
0
 40
0
 40
0
 40
1
 40
1
 40
1
 40
1
 10
283.600995
 20
454.807697
 30
0.0
 10
283.600995
 20
454.024952
 30
0.0
 10
282.965790
 20
453.389732
 30
0.0
 10
282.183022
 20
453.389732
 30
0.0
  0
SPLINE
  5
182
100
AcDbEntity
  8
Layer_1
 62
7
100
AcDbSpline
 70
8
 71
3
 72
8
 73
4
 74
0
 40
0
 40
0
 40
0
 40
0
 40
1
 40
1
 40
1
 40
1
 10
282.183022
 20
453.389732
 30
0.0
 10
281.400255
 20
453.389732
 30
0.0
 10
280.766520
 20
454.024952
 30
0.0
 10
280.766520
 20
454.807697
 30
0.0
  0
LWPOLYLINE
  5
183
100
AcDbEntity
  8
Layer_1
 62
7
100
AcDbPolyline
 90
2
 70
0
 10
283.600995
 20
511.503016
 30
0.0
 10
283.600995
 20
454.807697
 30
0.0
  0
SPLINE
  5
184
100
AcDbEntity
  8
Layer_1
 62
7
100
AcDbSpline
 70
8
 71
3
 72
8
 73
4
 74
0
 40
0
 40
0
 40
0
 40
0
 40
1
 40
1
 40
1
 40
1
 10
280.766520
 20
511.503016
 30
0.0
 10
280.764982
 20
513.849991
 30
0.0
 10
278.861430
 20
515.752524
 30
0.0
 10
276.514080
 20
515.752524
 30
0.0
  0
SPLINE
  5
185
100
AcDbEntity
  8
Layer_1
 62
7
100
AcDbSpline
 70
8
 71
3
 72
8
 73
4
 74
0
 40
0
 40
0
 40
0
 40
0
 40
1
 40
1
 40
1
 40
1
 10
276.514080
 20
515.752524
 30
0.0
 10
274.166722
 20
515.752524
 30
0.0
 10
272.263170
 20
513.849991
 30
0.0
 10
272.261632
 20
511.503016
 30
0.0
  0
LWPOLYLINE
  5
186
100
AcDbEntity
  8
Layer_1
 62
7
100
AcDbPolyline
 90
2
 70
0
 10
280.766520
 20
454.807697
 30
0.0
 10
280.766520
 20
511.503016
 30
0.0
  0
SPLINE
  5
187
100
AcDbEntity
  8
Layer_1
 62
7
100
AcDbSpline
 70
8
 71
3
 72
8
 73
4
 74
0
 40
0
 40
0
 40
0
 40
0
 40
1
 40
1
 40
1
 40
1
 10
272.261632
 20
454.807697
 30
0.0
 10
272.261640
 20
454.024952
 30
0.0
 10
271.627897
 20
453.389732
 30
0.0
 10
270.845130
 20
453.389732
 30
0.0
  0
SPLINE
  5
188
100
AcDbEntity
  8
Layer_1
 62
7
100
AcDbSpline
 70
8
 71
3
 72
8
 73
4
 74
0
 40
0
 40
0
 40
0
 40
0
 40
1
 40
1
 40
1
 40
1
 10
270.845130
 20
453.389732
 30
0.0
 10
270.062370
 20
453.389732
 30
0.0
 10
269.427165
 20
454.024952
 30
0.0
 10
269.427165
 20
454.807697
 30
0.0
  0
LWPOLYLINE
  5
189
100
AcDbEntity
  8
Layer_1
 62
7
100
AcDbPolyline
 90
2
 70
0
 10
272.261632
 20
511.503016
 30
0.0
 10
272.261632
 20
454.807697
 30
0.0
  0
SPLINE
  5
18a
100
AcDbEntity
  8
Layer_1
 62
7
100
AcDbSpline
 70
8
 71
3
 72
8
 73
4
 74
0
 40
0
 40
0
 40
0
 40
0
 40
1
 40
1
 40
1
 40
1
 10
269.427165
 20
511.503016
 30
0.0
 10
269.425627
 20
513.849991
 30
0.0
 10
267.522075
 20
515.752524
 30
0.0
 10
265.174725
 20
515.752524
 30
0.0
  0
SPLINE
  5
18b
100
AcDbEntity
  8
Layer_1
 62
7
100
AcDbSpline
 70
8
 71
3
 72
8
 73
4
 74
0
 40
0
 40
0
 40
0
 40
0
 40
1
 40
1
 40
1
 40
1
 10
265.174725
 20
515.752524
 30
0.0
 10
262.827367
 20
515.752524
 30
0.0
 10
260.925277
 20
513.849991
 30
0.0
 10
260.923747
 20
511.503016
 30
0.0
  0
LWPOLYLINE
  5
18c
100
AcDbEntity
  8
Layer_1
 62
7
100
AcDbPolyline
 90
2
 70
0
 10
269.427165
 20
454.807697
 30
0.0
 10
269.427165
 20
511.503016
 30
0.0
  0
SPLINE
  5
18d
100
AcDbEntity
  8
Layer_1
 62
7
100
AcDbSpline
 70
8
 71
3
 72
8
 73
4
 74
0
 40
0
 40
0
 40
0
 40
0
 40
1
 40
1
 40
1
 40
1
 10
260.923747
 20
454.807697
 30
0.0
 10
260.923747
 20
454.024952
 30
0.0
 10
260.288542
 20
453.389732
 30
0.0
 10
259.505775
 20
453.389732
 30
0.0
  0
SPLINE
  5
18e
100
AcDbEntity
  8
Layer_1
 62
7
100
AcDbSpline
 70
8
 71
3
 72
8
 73
4
 74
0
 40
0
 40
0
 40
0
 40
0
 40
1
 40
1
 40
1
 40
1
 10
259.505775
 20
453.389732
 30
0.0
 10
258.723015
 20
453.389732
 30
0.0
 10
258.089272
 20
454.024952
 30
0.0
 10
258.089272
 20
454.807697
 30
0.0
  0
LWPOLYLINE
  5
18f
100
AcDbEntity
  8
Layer_1
 62
7
100
AcDbPolyline
 90
2
 70
0
 10
260.923747
 20
511.503016
 30
0.0
 10
260.923747
 20
454.807697
 30
0.0
  0
SPLINE
  5
190
100
AcDbEntity
  8
Layer_1
 62
7
100
AcDbSpline
 70
8
 71
3
 72
8
 73
4
 74
0
 40
0
 40
0
 40
0
 40
0
 40
1
 40
1
 40
1
 40
1
 10
258.089272
 20
511.503016
 30
0.0
 10
258.087742
 20
513.849991
 30
0.0
 10
256.184182
 20
515.752524
 30
0.0
 10
253.836832
 20
515.752524
 30
0.0
  0
LWPOLYLINE
  5
191
100
AcDbEntity
  8
Layer_1
 62
7
100
AcDbPolyline
 90
2
 70
0
 10
258.089272
 20
454.807697
 30
0.0
 10
258.089272
 20
511.503016
 30
0.0
  0
LWPOLYLINE
  5
192
100
AcDbEntity
  8
Layer_1
 62
7
100
AcDbPolyline
 90
1
 70
1
 10
253.836832
 20
515.752524
 30
0.0
  0
ENDSEC
  0
SECTION
  2
OBJECTS
  0
DICTIONARY
  5
C
330
0
100
AcDbDictionary
  3
ACAD_GROUP
350
D
  3
ACAD_MLINESTYLE
350
17
  0
DICTIONARY
  5
D
330
C
100
AcDbDictionary
  0
DICTIONARY
  5
1A
330
C
100
AcDbDictionary
  0
DICTIONARY
  5
17
330
C
100
AcDbDictionary
  3
STANDARD
350
18
  0
DICTIONARY
  5
19
330
C
100
AcDbDictionary
  0
ENDSEC
  0
EOF
