0
SECTION
2
HEADER
9
$INSUNITS
70
4
9
$ACADVER
1
AC1014
9
$HANDSEED
5
FFFF
0
ENDSEC
0
SECTION
2
TABLES
0
TABLE
2
VPORT
5
8
100
AcDbSymbolTable
0
ENDTAB
0
TABLE
2
LTYPE
5
5
100
AcDbSymbolTable
0
LTYPE
5
14
100
AcDbSymbolTableRecord
100
AcDbLinetypeTableRecord
2
BYBLOCK
70
0
0
LTYPE
5
15
100
AcDbSymbolTableRecord
100
AcDbLinetypeTableRecord
2
BYLAYER
70
0
0
ENDTAB
0
TABLE
2
LAYER
5
2
100
AcDbSymbolTable
70
2
0
LAYER
5
50
100
AcDbSymbolTableRecord
100
AcDbLayerTableRecord
2
0
70
0
6
CONTINUOUS
0
ENDTAB
0
TABLE
2
STYLE
5
3
100
AcDbSymbolTable
70
1
0
STYLE
5
11
100
AcDbSymbolTableRecord
100
AcDbTextStyleTableRecord
2
STANDARD
70
0
0
ENDTAB
0
TABLE
2
VIEW
5
6
100
AcDbSymbolTable
70
0
0
ENDTAB
0
TABLE
2
UCS
5
7
100
AcDbSymbolTable
70
0
0
ENDTAB
0
TABLE
2
APPID
5
9
100
AcDbSymbolTable
70
2
0
APPID
5
12
100
AcDbSymbolTableRecord
100
AcDbRegAppTableRecord
2
ACAD
70
0
0
ENDTAB
0
TABLE
2
DIMSTYLE
5
A
100
AcDbSymbolTable
70
1
0
ENDTAB
0
TABLE
2
BLOCK_RECORD
5
1
100
AcDbSymbolTable
70
1
0
BLOCK_RECORD
5
1F
100
AcDbSymbolTableRecord
100
AcDbBlockTableRecord
2
*MODEL_SPACE
0
BLOCK_RECORD
5
1B
100
AcDbSymbolTableRecord
100
AcDbBlockTableRecord
2
*PAPER_SPACE
0
ENDTAB
0
ENDSEC
0
SECTION
2
BLOCKS
0
BLOCK
5
20
100
AcDbEntity
100
AcDbBlockBegin
2
*MODEL_SPACE
0
ENDBLK
5
21
100
AcDbEntity
100
AcDbBlockEnd
0
BLOCK
5
1C
100
AcDbEntity
100
AcDbBlockBegin
2
*PAPER_SPACE
0
ENDBLK
5
1D
100
AcDbEntity
100
AcDbBlockEnd
0
ENDSEC
0
SECTION
2
ENTITIES
0
LWPOLYLINE
5
100
100
AcDbEntity
8
0
100
AcDbPolyline
90
20
70
1
43
0.0
10
390.70372031109866
20
75.999981603196545
10
390.70372031109866
20
79.999981603196545
10
400.20372031109866
20
79.999981603196545
10
400.20372031109866
20
70.371679186540788
10
396.21424662688696
20
70.371679186540817
10
396.21424662688702
20
69.371679186540817
10
400.20372031109872
20
69.371679186540774
10
400.20372031109872
20
59.999981603196545
10
390.58594421023196
20
59.999981603195906
10
390.58594421023196
20
63.971679186540769
10
389.5859442102319
20
63.971679186540769
10
389.5859442102319
20
59.999981603195906
10
380.20372031109872
20
59.999981603196531
10
380.20372031109872
20
69.599981603211816
10
384.18594985632637
20
69.599981603211816
10
384.18594421023192
20
70.599981603195886
10
380.20372031109872
20
70.599981603195914
10
380.20372031109878
20
79.999981603196545
10
389.70372031109866
20
79.999981603196545
10
389.70372031109866
20
75.999981603196545
0
LINE
5
101
100
AcDbEntity
8
0
100
AcDbLine
10
294.61279657432323
20
0.88663913837409181
30
0
11
294.61279657432317
21
4.8487701231553695
31
0
0
LINE
5
102
100
AcDbEntity
8
0
100
AcDbLine
10
294.61279657432317
20
4.8487701231553695
30
0
11
293.61279917254592
21
4.8487701231555134
31
0
0
LINE
5
103
100
AcDbEntity
8
0
100
AcDbLine
10
293.61279917254592
20
4.8487701231555134
30
0
11
293.61279917254302
21
0.8843595698018798
31
0
0
LINE
5
104
100
AcDbEntity
8
0
100
AcDbLine
10
304.5706733238631
20
0.9093388602371697
30
0
11
294.61279657432323
21
0.88663913837409181
31
0
0
LINE
5
105
100
AcDbEntity
8
0
100
AcDbLine
10
293.61279917254302
20
0.8843595698018798
30
0
11
283.60544324265413
21
0.86154705646123753
31
0
0
LINE
5
106
100
AcDbEntity
8
0
100
AcDbLine
10
298.9913211687433
20
10.455494496802347
30
0
11
295.5600150828044
21
8.4744290044099895
31
0
0
LINE
5
107
100
AcDbEntity
8
0
100
AcDbLine
10
295.5600150828044
20
8.4744290044099895
30
0
11
296.06001378369069
21
7.6084058507496275
31
0
0
LINE
5
108
100
AcDbEntity
8
0
100
AcDbLine
10
296.06001378369069
20
7.6084058507496275
30
0
11
299.49329403393176
21
9.5906111274246584
31
0
0
LINE
5
109
100
AcDbEntity
8
0
100
AcDbLine
10
288.5151870459955
20
9.4629803474509782
30
0
11
291.9464931319406
21
7.4819148550622625
31
0
0
LINE
5
110
100
AcDbEntity
8
0
100
AcDbLine
10
291.9464931319406
20
7.4819148550622625
30
0
11
292.44649183283065
21
8.3479380087164383
31
0
0
LINE
5
111
100
AcDbEntity
8
0
100
AcDbLine
10
292.44649183283065
20
8.3479380087164383
30
0
11
289.01321158259822
21
10.330143285399771
31
0
0
LINE
5
112
100
AcDbEntity
8
0
100
AcDbLine
10
293.97728119705641
20
19.021856368680456
30
0
11
298.98842969659756
21
10.45382510458067
31
0
0
LINE
5
113
100
AcDbEntity
8
0
100
AcDbLine
10
299.49329403393176
20
9.5906111274246584
30
0
11
304.5706733238631
21
0.9093388602371697
31
0
0
LINE
5
114
100
AcDbEntity
8
0
100
AcDbLine
10
283.60544324265413
20
0.86154705646123753
30
0
11
288.51726610566351
21
9.4617800017920075
31
0
0
LINE
5
115
100
AcDbEntity
8
0
100
AcDbLine
10
289.01321158259822
20
10.330143285399771
30
0
11
293.97728119705641
21
19.021856368680456
31
0
0
LWPOLYLINE
5
116
100
AcDbEntity
8
0
100
AcDbPolyline
90
20
70
1
43
0.0
10
358.08219726819317
20
12.641154479518544
10
358.08219726819323
20
17.604912682221119
10
402.55671748143925
20
17.604912682221126
10
402.55671748143925
20
10.430293386821301
10
397.55671748143925
20
10.430293386821303
10
397.55671748143925
20
9.4302933868213046
10
402.55671748143925
20
9.4302933868213046
10
402.55671748143919
20
2.6049126822211033
10
358.03123769468664
20
2.6049126822212849
10
358.0312376946859
20
7.5686708849240292
10
357.03123769468584
20
7.5686708849240265
10
357.03123769468527
20
2.6049126822214368
10
312.55671748143914
20
2.6049126822214097
10
312.55671748143914
20
9.7795319776212466
10
317.55671748143919
20
9.7795319776211826
10
317.55671748143908
20
10.779531977621168
10
312.55671748143908
20
10.779531977621184
10
312.55671748143914
20
17.6049126822214
10
357.08219726819289
20
17.604912682221116
10
357.08219726819254
20
12.641154479518544
0
ENDSEC
0
SECTION
2
OBJECTS
0
DICTIONARY
5
C
100
AcDbDictionary
3
ACAD_GROUP
350
D
3
ACAD_MLINESTYLE
350
17
0
DICTIONARY
5
D
100
AcDbDictionary
0
DICTIONARY
5
1A
330
C
100
AcDbDictionary
0
DICTIONARY
5
17
100
AcDbDictionary
0
ENDSEC
0
EOF
