0
SECTION
2
HEADER
9
$INSUNITS
70
4
9
$ACADVER
1
AC1014
9
$HANDSEED
5
FFFF
0
ENDSEC
0
SECTION
2
TABLES
0
TABLE
2
VPORT
5
8
100
AcDbSymbolTable
0
ENDTAB
0
TABLE
2
LTYPE
5
5
100
AcDbSymbolTable
0
LTYPE
5
14
100
AcDbSymbolTableRecord
100
AcDbLinetypeTableRecord
2
BYBLOCK
70
0
0
LTYPE
5
15
100
AcDbSymbolTableRecord
100
AcDbLinetypeTableRecord
2
BYLAYER
70
0
0
ENDTAB
0
TABLE
2
LAYER
5
2
100
AcDbSymbolTable
70
2
0
LAYER
5
50
100
AcDbSymbolTableRecord
100
AcDbLayerTableRecord
2
0
70
0
6
CONTINUOUS
0
ENDTAB
0
TABLE
2
STYLE
5
3
100
AcDbSymbolTable
70
1
0
STYLE
5
11
100
AcDbSymbolTableRecord
100
AcDbTextStyleTableRecord
2
STANDARD
70
0
0
ENDTAB
0
TABLE
2
VIEW
5
6
100
AcDbSymbolTable
70
0
0
ENDTAB
0
TABLE
2
UCS
5
7
100
AcDbSymbolTable
70
0
0
ENDTAB
0
TABLE
2
APPID
5
9
100
AcDbSymbolTable
70
2
0
APPID
5
12
100
AcDbSymbolTableRecord
100
AcDbRegAppTableRecord
2
ACAD
70
0
0
ENDTAB
0
TABLE
2
DIMSTYLE
5
A
100
AcDbSymbolTable
70
1
0
ENDTAB
0
TABLE
2
BLOCK_RECORD
5
1
100
AcDbSymbolTable
70
1
0
BLOCK_RECORD
5
1F
100
AcDbSymbolTableRecord
100
AcDbBlockTableRecord
2
*MODEL_SPACE
0
BLOCK_RECORD
5
1B
100
AcDbSymbolTableRecord
100
AcDbBlockTableRecord
2
*PAPER_SPACE
0
ENDTAB
0
ENDSEC
0
SECTION
2
BLOCKS
0
BLOCK
5
20
100
AcDbEntity
100
AcDbBlockBegin
2
*MODEL_SPACE
0
ENDBLK
5
21
100
AcDbEntity
100
AcDbBlockEnd
0
BLOCK
5
1C
100
AcDbEntity
100
AcDbBlockBegin
2
*PAPER_SPACE
0
ENDBLK
5
1D
100
AcDbEntity
100
AcDbBlockEnd
0
ENDSEC
0
SECTION
2
ENTITIES
0
SPLINE
5
100
100
AcDbEntity
8
0
100
AcDbSpline
70
4
71
5
72
26
73
20
74
0
42
0.000000001
43
0.0000000001
44
0.0000000001
40
0
40
0
40
0
40
0
40
0
40
0
40
0.066666666666666666
40
0.13333333333333333
40
0.20000000000000001
40
0.26666666666666666
40
0.33333333333333331
40
0.39999999999999997
40
0.46666666666666662
40
0.53333333333333333
40
0.59999999999999998
40
0.66666666666666663
40
0.73333333333333328
40
0.79999999999999993
40
0.86666666666666659
40
0.93333333333333324
40
1
40
1
40
1
40
1
40
1
40
1
41
1
41
1
41
1
41
1
41
1
41
1
41
1
41
1
41
1
41
1
41
1
41
1
41
1
41
1
41
1
41
1
41
1
41
1
41
1
41
1
10
-116.22
20
-199.76237776892083
30
0
10
-117.42040115342283
20
-202.42561524413645
30
0
10
-119.92363697515569
20
-207.63065346549587
30
0
10
-123.9857932413576
20
-215.07390207586013
30
0
10
-130.02105812031164
20
-224.26430770382237
30
0
10
-138.6069092618506
20
-234.48935251013739
30
0
10
-148.21656632133113
20
-243.38785922982748
30
0
10
-158.77583918645189
20
-250.87737347683114
30
0
10
-170.11835221988298
20
-256.86516234597144
30
0
10
-181.95450485492051
20
-261.25825950141353
30
0
10
-193.81281642233401
20
-263.98178756011276
30
0
10
-205.0855133157412
20
-264.97946335039376
30
0
10
-215.1200623232769
20
-264.20746726970361
30
0
10
-223.30076096337405
20
-261.63745006666448
30
0
10
-229.12729650559447
20
-257.25994789540715
30
0
10
-232.3316610477379
20
-251.10052237574649
30
0
10
-232.73780965890919
20
-244.78425646563414
30
0
10
-231.83494655257203
20
-239.28412559722182
30
0
10
-230.70042426414531
20
-235.28077900879828
30
0
10
-230
20
-233.19495517139447
30
0
0
LINE
5
101
100
AcDbEntity
8
0
100
AcDbLine
10
-229.99999999999997
20
-233.19495517139441
30
0
11
-232.33376249238512
21
-233.19495517139447
31
0
0
LINE
5
102
100
AcDbEntity
8
0
100
AcDbLine
10
-232.33376249238512
20
-233.19495517139447
30
0
11
-232.33376249238512
21
-238.19495517139447
31
0
0
LINE
5
103
100
AcDbEntity
8
0
100
AcDbLine
10
-232.33376249238512
20
-238.19495517139447
30
0
11
-233.55376249238509
21
-238.19495517139447
31
0
0
LINE
5
104
100
AcDbEntity
8
0
100
AcDbLine
10
-233.55376249238509
20
-238.19495517139447
30
0
11
-233.55376249238509
21
-233.19495517139447
31
0
0
LINE
5
105
100
AcDbEntity
8
0
100
AcDbLine
10
-233.55376249238509
20
-233.19495517139447
30
0
11
-234.66752498477018
21
-233.19495517139447
31
0
0
SPLINE
5
106
100
AcDbEntity
8
0
100
AcDbSpline
70
4
71
5
72
26
73
20
74
0
42
0.000000001
43
0.0000000001
44
0.0000000001
40
0
40
0
40
0
40
0
40
0
40
0
40
0.066666666666666666
40
0.13333333333333333
40
0.20000000000000001
40
0.26666666666666666
40
0.33333333333333331
40
0.39999999999999997
40
0.46666666666666662
40
0.53333333333333333
40
0.59999999999999998
40
0.66666666666666663
40
0.73333333333333328
40
0.79999999999999993
40
0.86666666666666659
40
0.93333333333333324
40
1
40
1
40
1
40
1
40
1
40
1
41
1
41
1
41
1
41
1
41
1
41
1
41
1
41
1
41
1
41
1
41
1
41
1
41
1
41
1
41
1
41
1
41
1
41
1
41
1
41
1
10
-234.66752498477018
20
-233.19495517139447
30
0
10
-236.06284946978548
20
-235.45670892042378
30
0
10
-238.55287824374136
20
-239.79562225329204
30
0
10
-241.38602739737922
20
-245.7501952352828
30
0
10
-243.34694517085563
20
-252.57410490859036
30
0
10
-242.75937120854616
20
-259.22364510018576
30
0
10
-239.24568955983008
20
-264.0175937409212
30
0
10
-233.13675206264602
20
-267.07111905546674
30
0
10
-225.12987417108772
20
-268.66002915040787
30
0
10
-216.32083422142381
20
-269.23866609250814
30
0
10
-207.98730518670931
20
-269.34409960616182
30
0
10
-201.42421728782634
20
-269.52660701623017
30
0
10
-197.7788292788469
20
-270.28006429923465
30
0
10
-197.83197372264428
20
-271.95392748625142
30
0
10
-201.96504814118239
20
-274.73742005850772
30
0
10
-210.3197856403176
20
-278.7188909068193
30
0
10
-220.37245201221782
20
-282.87839804317298
30
0
10
-229.77744715789021
20
-286.54098253550393
30
0
10
-236.87048200043773
20
-289.2222452444941
30
0
10
-240.62276397552074
20
-290.62276334624687
30
0
0
LINE
5
107
100
AcDbEntity
8
0
100
AcDbLine
10
-240.62276397552074
20
-290.62276334624687
30
0
11
-233.59770333201087
21
-297.67990581932543
31
0
0
LINE
5
108
100
AcDbEntity
8
0
100
AcDbLine
10
-233.59770333201087
20
-297.67990581932543
30
0
11
-229.76748111641598
21
-294.46596777089275
31
0
0
LINE
5
109
100
AcDbEntity
8
0
100
AcDbLine
10
-229.76748111641598
20
-294.46596777089275
30
0
11
-228.98328023259839
21
-295.4005419914979
31
0
0
LINE
5
110
100
AcDbEntity
8
0
100
AcDbLine
10
-228.98328023259839
20
-295.4005419914979
30
0
11
-232.73388279876085
21
-298.54767122145739
31
0
0
LINE
5
111
100
AcDbEntity
8
0
100
AcDbLine
10
-232.73388279876085
20
-298.54767122145739
30
0
11
-230.64554535529695
21
-300.64554561973819
31
0
0
SPLINE
5
112
100
AcDbEntity
8
0
100
AcDbSpline
70
4
71
5
72
31
73
25
74
0
42
0.000000001
43
0.0000000001
44
0.0000000001
40
0
40
0
40
0
40
0
40
0
40
0
40
0.050000000000000003
40
0.10000000000000001
40
0.15000000000000002
40
0.20000000000000001
40
0.25
40
0.29999999999999999
40
0.34999999999999998
40
0.39999999999999997
40
0.44999999999999996
40
0.49999999999999994
40
0.54999999999999993
40
0.59999999999999998
40
0.65000000000000002
40
0.70000000000000007
40
0.75000000000000011
40
0.80000000000000016
40
0.8500000000000002
40
0.90000000000000024
40
0.95000000000000029
40
1
40
1
40
1
40
1
40
1
40
1
41
1
41
1
41
1
41
1
41
1
41
1
41
1
41
1
41
1
41
1
41
1
41
1
41
1
41
1
41
1
41
1
41
1
41
1
41
1
41
1
41
1
41
1
41
1
41
1
41
1
10
-230.64554535529695
20
-300.64554561973819
30
0
10
-229.05978008799832
20
-301.03434999862185
30
0
10
-225.96745233072352
20
-301.65441685044465
30
0
10
-221.56657157412491
20
-302.11190687963744
30
0
10
-216.17586925446028
20
-301.77268060917658
30
0
10
-210.2427617094784
20
-299.78501737724162
30
0
10
-205.12457900072604
20
-296.32674214061967
30
0
10
-200.82572519915331
20
-291.62070927699284
30
0
10
-197.33664848271701
20
-286.06232893294316
30
0
10
-194.63229772186116
20
-280.30359612439702
30
0
10
-192.62229119458382
20
-275.12501217211712
30
0
10
-191.07566350905
20
-271.2213172317883
30
0
10
-189.56369768710985
20
-269.03394893801601
30
0
10
-187.36169013571273
20
-268.51429971224371
30
0
10
-183.48635129455295
20
-269.06265714834024
30
0
10
-177.3020215015527
20
-269.8887792462445
30
0
10
-168.68660160566304
20
-270.2043194710069
30
0
10
-159.10011568707358
20
-269.64560186914986
30
0
10
-149.98502023067437
20
-268.07659046239502
30
0
10
-142.10298476086913
20
-265.38339052086735
30
0
10
-135.95169954318033
20
-261.52707326455027
30
0
10
-132.57637716104537
20
-257.50040093781985
30
0
10
-130.94141295744984
20
-253.95413203180175
30
0
10
-130.24773398748766
20
-251.35688401999658
30
0
10
-130
20
-250
30
0
0
SPLINE
5
113
100
AcDbEntity
8
0
100
AcDbSpline
70
4
71
5
72
36
73
30
74
0
42
0.000000001
43
0.0000000001
44
0.0000000001
40
0
40
0
40
0
40
0
40
0
40
0
40
0.012500000000000001
40
0.025000000000000001
40
0.037500000000000006
40
0.050000000000000003
40
0.0625
40
0.074999999999999997
40
0.087499999999999994
40
0.099999999999999992
40
0.11249999999999999
40
0.12499999999999999
40
0.13749999999999998
40
0.14999999999999999
40
0.16250000000000001
40
0.17500000000000002
40
0.18750000000000003
40
0.20000000000000004
40
0.21250000000000005
40
0.22500000000000006
40
0.23750000000000007
40
0.25000000000000006
40
0.26250000000000007
40
0.27500000000000008
40
0.28750000000000009
40
0.3000000000000001
40
0.30048617718174758
40
0.30048617718174758
40
0.30048617718174758
40
0.30048617718174758
40
0.30048617718174758
40
0.30048617718174758
41
1
41
1
41
1
41
1
41
1
41
1
41
1
41
1
41
1
41
1
41
1
41
1
41
1
41
1
41
1
41
1
41
1
41
1
41
1
41
1
41
1
41
1
41
1
41
1
41
1
41
1
41
1
41
1
41
1
41
1
10
-130
20
-250
30
0
10
-128.91772511072367
20
-252.35215310858106
30
0
10
-126.94902044978191
20
-256.88381303768676
30
0
10
-124.58349480949012
20
-263.16336726002771
30
0
10
-122.60485696152028
20
-270.49994366436971
30
0
10
-122.0708243808498
20
-277.96245173295853
30
0
10
-123.41450386944858
20
-283.77506292796346
30
0
10
-126.5093553721947
20
-288.05734442328469
30
0
10
-131.14477178831888
20
-291.00852547442122
30
0
10
-136.99708947563545
20
-292.93382296491745
30
0
10
-143.63077125338
20
-294.24673095222352
30
0
10
-150.57856264137519
20
-295.4086854401134
30
0
10
-157.40582189071935
20
-296.88099524740016
30
0
10
-163.78290257919838
20
-299.07116473754888
30
0
10
-169.55009159673773
20
-302.2833338949132
30
0
10
-174.79693007890532
20
-306.66212057632782
30
0
10
-179.77235496721957
20
-312.20785030404465
30
0
10
-184.77662264444666
20
-318.79857178076941
30
0
10
-190.06264943605404
20
-326.20974055665351
30
0
10
-195.72700610274813
20
-334.13426332622032
30
0
10
-201.61997470638181
20
-342.20344781892828
30
0
10
-207.21165332948181
20
-350.00469526328891
30
0
10
-211.58885452992777
20
-357.10928899203196
30
0
10
-213.81125868754737
20
-363.12699444516704
30
0
10
-213.21467019270301
20
-367.75800835095879
30
0
10
-210.38390723671273
20
-370.24878504079572
30
0
10
-207.30269075974832
20
-371.42633801407794
30
0
10
-205.08033548127287
20
-371.93962277079777
30
0
10
-203.94448309659438
20
-372.13420133759814
30
0
10
-203.901956051784
20
-372.14139238618498
30
0
0
LINE
5
114
100
AcDbEntity
8
0
100
AcDbLine
10
-203.901956051784
20
-372.14139238618498
30
0
11
-203.90195623262488
21
-367.31768372190635
31
0
0
LINE
5
115
100
AcDbEntity
8
0
100
AcDbLine
10
-203.90195623262488
20
-367.31768372190635
30
0
11
-202.68195623262488
21
-367.31768372190635
31
0
0
LINE
5
116
100
AcDbEntity
8
0
100
AcDbLine
10
-202.68195623262488
20
-367.31768372190635
30
0
11
-202.68195623219077
21
-372.3176837219587
31
0
0
SPLINE
5
117
100
AcDbEntity
8
0
100
AcDbSpline
70
4
71
5
72
35
73
29
74
0
42
0.000000001
43
0.0000000001
44
0.0000000001
40
0.30328179996581428
40
0.30328179996581428
40
0.30328179996581428
40
0.30328179996581428
40
0.30328179996581428
40
0.30328179996581428
40
0.31250000000000011
40
0.32500000000000012
40
0.33750000000000013
40
0.35000000000000014
40
0.36250000000000016
40
0.37500000000000017
40
0.38750000000000018
40
0.40000000000000019
40
0.4125000000000002
40
0.42500000000000021
40
0.43750000000000022
40
0.45000000000000023
40
0.46250000000000024
40
0.47500000000000026
40
0.48750000000000027
40
0.50000000000000022
40
0.51250000000000018
40
0.52500000000000013
40
0.53750000000000009
40
0.55000000000000004
40
0.5625
40
0.57499999999999996
40
0.58749999999999991
40
0.59540912708718152
40
0.59540912708718152
40
0.59540912708718152
40
0.59540912708718152
40
0.59540912708718152
40
0.59540912708718152
41
1
41
1
41
1
41
1
41
1
41
1
41
1
41
1
41
1
41
1
41
1
41
1
41
1
41
1
41
1
41
1
41
1
41
1
41
1
41
1
41
1
41
1
41
1
41
1
41
1
41
1
41
1
41
1
41
1
10
-202.68195623219077
20
-372.3176837219587
30
0
10
-201.88159707349101
20
-372.41417699781368
30
0
10
-200.02163128086681
20
-372.56597782001973
30
0
10
-197.30104370700883
20
-372.53983143355248
30
0
10
-194.60476422191897
20
-372.00609737942909
30
0
10
-194.02685332826803
20
-370.56673014049892
30
0
10
-196.16467324071516
20
-367.90513611850281
30
0
10
-199.21865022149848
20
-363.63015982133015
30
0
10
-201.0753045088212
20
-357.47729931684376
30
0
10
-200.39931423586935
20
-349.82467709593755
30
0
10
-197.08049245847192
20
-341.77403465427011
30
0
10
-191.74034694738438
20
-334.73207281236762
30
0
10
-185.48396553103311
20
-330.12001402647047
30
0
10
-179.55341369692346
20
-329.03243228458518
30
0
10
-175.02141406920157
20
-331.91439637898725
30
0
10
-172.47360944911887
20
-338.2391181333295
30
0
10
-172.09158908879641
20
-346.85496904279779
30
0
10
-173.72573622718508
20
-356.31196465112896
30
0
10
-176.97109285530499
20
-365.20898713833475
30
0
10
-181.24298428781918
20
-372.50173005371789
30
0
10
-185.84926699683069
20
-377.90106850859411
30
0
10
-190.07394812588362
20
-381.99535783359215
30
0
10
-193.28056377458492
20
-385.74842689647448
30
0
10
-195.02009695095964
20
-390.09755211826365
30
0
10
-195.11206844863426
20
-395.1616378436737
30
0
10
-194.26308333387391
20
-399.59203299461603
30
0
10
-193.3338731428374
20
-402.68065324862891
30
0
10
-192.68071956482066
20
-404.45170638856609
30
0
10
-192.41852809922858
20
-405.11079196740309
30
0
0
LINE
5
118
100
AcDbEntity
8
0
100
AcDbLine
10
-192.41852809922858
20
-405.11079196740309
30
0
11
-188.22369185960324
21
-402.68669653121913
31
0
0
LINE
5
119
100
AcDbEntity
8
0
100
AcDbLine
10
-188.22369185960324
20
-402.68669653121913
30
0
11
-187.61327535870291
21
-403.74300694744556
31
0
0
LINE
5
120
100
AcDbEntity
8
0
100
AcDbLine
10
-187.61327535870291
20
-403.74300694744556
30
0
11
-191.94241640863879
21
-406.24471391873772
31
0
0
SPLINE
5
121
100
AcDbEntity
8
0
100
AcDbSpline
70
4
71
5
72
44
73
38
74
0
42
0.000000001
43
0.0000000001
44
0.0000000001
40
0.59821908344467867
40
0.59821908344467867
40
0.59821908344467867
40
0.59821908344467867
40
0.59821908344467867
40
0.59821908344467867
40
0.59999999999999987
40
0.61249999999999982
40
0.62499999999999978
40
0.63749999999999973
40
0.64999999999999969
40
0.66249999999999964
40
0.6749999999999996
40
0.68749999999999956
40
0.69999999999999951
40
0.71249999999999947
40
0.72499999999999942
40
0.73749999999999938
40
0.74999999999999933
40
0.76249999999999929
40
0.77499999999999925
40
0.7874999999999992
40
0.79999999999999916
40
0.81249999999999911
40
0.82499999999999907
40
0.83749999999999902
40
0.84999999999999898
40
0.86249999999999893
40
0.87499999999999889
40
0.88749999999999885
40
0.8999999999999988
40
0.91249999999999876
40
0.92499999999999871
40
0.93749999999999867
40
0.94999999999999862
40
0.96249999999999858
40
0.97499999999999853
40
0.98749999999999849
40
1
40
1
40
1
40
1
40
1
40
1
41
1
41
1
41
1
41
1
41
1
41
1
41
1
41
1
41
1
41
1
41
1
41
1
41
1
41
1
41
1
41
1
41
1
41
1
41
1
41
1
41
1
41
1
41
1
41
1
41
1
41
1
41
1
41
1
41
1
41
1
41
1
41
1
41
1
41
1
41
1
41
1
41
1
41
1
10
-191.94241640863879
20
-406.24471391873772
30
0
10
-191.88089165468108
20
-406.38345924660916
30
0
10
-191.38489927101142
20
-407.48257198764185
30
0
10
-190.41845310272421
20
-409.33373625633851
30
0
10
-188.97281598831671
20
-411.30763376292805
30
0
10
-187.23911381422545
20
-411.94423461583517
30
0
10
-185.49306861744805
20
-409.38520499057802
30
0
10
-183.81785245433323
20
-404.00983601541941
30
0
10
-181.8400415975475
20
-396.73362532874637
30
0
10
-179.26769854099211
20
-388.59893009481448
30
0
10
-176.14568152189733
20
-380.39469214131492
30
0
10
-172.80065067860917
20
-372.62237058117944
30
0
10
-169.69488951401803
20
-365.55539421367064
30
0
10
-167.3130442776004
20
-359.26856667022719
30
0
10
-166.02886403477135
20
-353.67868911192386
30
0
10
-165.99518875188565
20
-348.5826861101184
30
0
10
-166.98599889112697
20
-343.69015663428399
30
0
10
-168.47368679786595
20
-338.69831644913398
30
0
10
-169.80988024891872
20
-333.39379144120176
30
0
10
-170.36198599391611
20
-327.73165370163281
30
0
10
-169.69331410347306
20
-321.95700244366765
30
0
10
-167.63563586456007
20
-316.59173709728231
30
0
10
-164.21121600875472
20
-312.21728026536812
30
0
10
-159.59099883861569
20
-309.31153615283017
30
0
10
-154.03730324530957
20
-308.05172896938456
30
0
10
-147.85646075808936
20
-308.16667633386578
30
0
10
-141.37714557770641
20
-309.08532808531498
30
0
10
-134.92666506819722
20
-310.05847916328844
30
0
10
-128.80874547964848
20
-310.28688844531393
30
0
10
-123.27889139405583
20
-309.05499247270484
30
0
10
-118.52606644769018
20
-305.83702572315565
30
0
10
-114.68502960017666
20
-300.25664398425272
30
0
10
-111.8446125823455
20
-292.06616285082072
30
0
10
-110.05751811584859
20
-281.11831439413231
30
0
10
-109.49104175317579
20
-270.09672356231823
30
0
10
-109.55534201579701
20
-260.5472752141643
30
0
10
-109.81555610016953
20
-253.61078966507921
30
0
10
-110
20
-250
30
0
0
SPLINE
5
122
100
AcDbEntity
8
0
100
AcDbSpline
70
4
71
5
72
36
73
30
74
0
42
0.000000001
43
0.0000000001
44
0.0000000001
40
0
40
0
40
0
40
0
40
0
40
0
40
0.0055555555555555558
40
0.011111111111111112
40
0.016666666666666666
40
0.022222222222222223
40
0.02777777777777778
40
0.033333333333333333
40
0.03888888888888889
40
0.044444444444444446
40
0.050000000000000003
40
0.055555555555555559
40
0.061111111111111116
40
0.066666666666666666
40
0.072222222222222215
40
0.077777777777777765
40
0.083333333333333315
40
0.088888888888888865
40
0.094444444444444414
40
0.099999999999999964
40
0.10555555555555551
40
0.11111111111111106
40
0.11666666666666661
40
0.12222222222222216
40
0.12777777777777771
40
0.13333333333333328
40
0.13690054701364734
40
0.13690054701364734
40
0.13690054701364734
40
0.13690054701364734
40
0.13690054701364734
40
0.13690054701364734
41
1
41
1
41
1
41
1
41
1
41
1
41
1
41
1
41
1
41
1
41
1
41
1
41
1
41
1
41
1
41
1
41
1
41
1
41
1
41
1
41
1
41
1
41
1
41
1
41
1
41
1
41
1
41
1
41
1
41
1
10
-110
20
-250
30
0
10
-109.82993071236831
20
-251.3287911728994
30
0
10
-109.535924507166
20
-254.08768704727888
30
0
10
-109.2333122374084
20
-258.52997184200103
30
0
10
-109.10663781743489
20
-265.06092729911524
30
0
10
-109.41037697767642
20
-274.22632077025406
30
0
10
-110.17827448572496
20
-284.35859408897778
30
0
10
-111.41435814849488
20
-295.38798670933431
30
0
10
-113.12529202056882
20
-307.19777688669456
30
0
10
-115.32089016603491
20
-319.61319823859014
30
0
10
-118.01502790980869
20
-332.38815848655491
30
0
10
-121.22562772262201
20
-345.19705171927592
30
0
10
-124.9768893261414
20
-357.6141919090864
30
0
10
-129.29397807741256
20
-369.13475697835804
30
0
10
-134.18613006103979
20
-379.25907990040707
30
0
10
-139.63276633542398
20
-387.56098051175803
30
0
10
-145.56784078561435
20
-393.76444206477117
30
0
10
-151.86618727710803
20
-397.81240914677909
30
0
10
-158.32608583800155
20
-399.9490899118428
30
0
10
-164.6602753113153
20
-400.77284167671769
30
0
10
-170.46559573453555
20
-401.36314607651485
30
0
10
-175.31591865830464
20
-402.98020736205831
30
0
10
-178.90795581978895
20
-406.58053220229931
30
0
10
-181.17285612173276
20
-412.45244913554427
30
0
10
-182.44383641895701
20
-419.65934401430758
30
0
10
-183.32367054147551
20
-425.69029431050012
30
0
10
-183.99362686713118
20
-428.74859219909263
30
0
10
-184.43099573355792
20
-429.73762614586815
30
0
10
-184.56020196253871
20
-429.96449819025418
30
0
10
-184.58190882900934
20
-429.99999999995566
30
0
0
SPLINE
5
123
100
AcDbEntity
8
0
100
AcDbSpline
70
4
71
5
72
15
73
9
74
0
42
0.000000001
43
0.0000000001
44
0.0000000001
40
0.13814083369551125
40
0.13814083369551125
40
0.13814083369551125
40
0.13814083369551125
40
0.13814083369551125
40
0.13814083369551125
40
0.13888888888888884
40
0.1444444444444444
40
0.14999999999999997
40
0.15081648793073907
40
0.15081648793073907
40
0.15081648793073907
40
0.15081648793073907
40
0.15081648793073907
40
0.15081648793073907
41
1
41
1
41
1
41
1
41
1
41
1
41
1
41
1
41
1
10
-184.58190882897441
20
-429.99999999990962
30
0
10
-184.57701411054626
20
-429.99287358425869
30
0
10
-184.52248184255382
20
-429.91552636440622
30
0
10
-184.20142209115599
20
-429.50361111404703
30
0
10
-183.29256217423244
20
-428.65872200949804
30
0
10
-181.68144720526521
20
-427.58127947691611
30
0
10
-179.71640247005055
20
-426.37293529460794
30
0
10
-178.57189717981993
20
-425.67296507499771
30
0
10
-178.42376144352687
20
-425.58238221583969
30
0
0
LINE
5
124
100
AcDbEntity
8
0
100
AcDbLine
10
-178.42376144352693
20
-425.58238221583969
30
0
11
-178.42376144352696
21
-420.58238221583969
31
0
0
LINE
5
125
100
AcDbEntity
8
0
100
AcDbLine
10
-178.42376144352696
20
-420.58238221583969
30
0
11
-177.20376144352696
21
-420.58238221583969
31
0
0
LINE
5
126
100
AcDbEntity
8
0
100
AcDbLine
10
-177.20376144352696
20
-420.58238221583969
30
0
11
-177.20376124310931
21
-424.83504468175352
31
0
0
SPLINE
5
127
100
AcDbEntity
8
0
100
AcDbSpline
70
4
71
5
72
24
73
18
74
0
42
0.000000001
43
0.0000000001
44
0.0000000001
40
0
40
0
40
0
40
0
40
0
40
0
40
0.0064516129032258064
40
0.012903225806451613
40
0.01935483870967742
40
0.025806451612903226
40
0.032258064516129031
40
0.03870967741935484
40
0.045161290322580649
40
0.051612903225806459
40
0.058064516129032268
40
0.064516129032258077
40
0.070967741935483886
40
0.077419354838709695
40
0.078827902420902068
40
0.078827902420902068
40
0.078827902420902068
40
0.078827902420902068
40
0.078827902420902068
40
0.078827902420902068
41
1
41
1
41
1
41
1
41
1
41
1
41
1
41
1
41
1
41
1
41
1
41
1
41
1
41
1
41
1
41
1
41
1
41
1
10
-177.20376124310931
20
-424.83504468175352
30
0
10
-176.69375868775649
20
-424.52139679505484
30
0
10
-175.69025065461884
20
-423.92806532270822
30
0
10
-174.23375369541992
20
-423.13877295727514
30
0
10
-172.23991513864394
20
-422.00493334800831
30
0
10
-169.10978427964861
20
-419.36283625963597
30
0
10
-165.36721171364616
20
-415.36154000802071
30
0
10
-161.90009672452746
20
-411.391645048947
30
0
10
-159.69259250931268
20
-409.23649857941376
30
0
10
-159.30260674988926
20
-410.31838156841195
30
0
10
-160.15774763664822
20
-414.69727042679716
30
0
10
-161.04099531431831
20
-421.40785447559807
30
0
10
-160.72866499977292
20
-428.9308878848388
30
0
10
-158.86363516144789
20
-434.56216784101122
30
0
10
-156.73537347891607
20
-437.72923352977341
30
0
10
-155.1644915688988
20
-439.22045635218228
30
0
10
-154.30946776370266
20
-439.81498143945043
30
0
10
-154.15671710044236
20
-439.91423233577535
30
0
0
LINE
5
128
100
AcDbEntity
8
0
100
AcDbLine
10
-154.15671710044239
20
-439.9142323357753
30
0
11
-154.15671710042434
21
-435.52538714025513
31
0
0
LINE
5
129
100
AcDbEntity
8
0
100
AcDbLine
10
-154.15671710042434
20
-435.52538714025513
30
0
11
-152.93671710042435
21
-435.52538714025513
31
0
0
LINE
5
130
100
AcDbEntity
8
0
100
AcDbLine
10
-152.93671710042435
20
-435.52538714025513
30
0
11
-152.93671709990531
21
-440.5253871404355
31
0
0
SPLINE
5
131
100
AcDbEntity
8
0
100
AcDbSpline
70
4
71
5
72
41
73
35
74
0
42
0.000000001
43
0.0000000001
44
0.0000000001
40
0.081118236016374912
40
0.081118236016374912
40
0.081118236016374912
40
0.081118236016374912
40
0.081118236016374912
40
0.081118236016374912
40
0.083870967741935504
40
0.090322580645161313
40
0.096774193548387122
40
0.10322580645161293
40
0.10967741935483874
40
0.11612903225806455
40
0.12258064516129036
40
0.12903225806451615
40
0.13548387096774195
40
0.14193548387096774
40
0.14838709677419354
40
0.15483870967741933
40
0.16129032258064513
40
0.16774193548387092
40
0.17419354838709672
40
0.18064516129032251
40
0.18709677419354831
40
0.1935483870967741
40
0.1999999999999999
40
0.2064516129032257
40
0.21290322580645149
40
0.21935483870967729
40
0.22580645161290308
40
0.23225806451612888
40
0.23870967741935467
40
0.24516129032258047
40
0.25161290322580626
40
0.25806451612903208
40
0.26451612903225791
40
0.26518629221936524
40
0.26518629221936524
40
0.26518629221936524
40
0.26518629221936524
40
0.26518629221936524
40
0.26518629221936524
41
1
41
1
41
1
41
1
41
1
41
1
41
1
41
1
41
1
41
1
41
1
41
1
41
1
41
1
41
1
41
1
41
1
41
1
41
1
41
1
41
1
41
1
41
1
41
1
41
1
41
1
41
1
41
1
41
1
41
1
41
1
41
1
41
1
41
1
41
1
10
-152.93671709990531
20
-440.5253871404355
30
0
10
-152.65094952645961
20
-440.62459517346565
30
0
10
-151.71488067974218
20
-440.85937191016086
30
0
10
-150.26266780867527
20
-440.70116520904082
30
0
10
-148.76716378126375
20
-439.11527069744989
30
0
10
-148.21432204186061
20
-434.80718174756396
30
0
10
-148.99126482310356
20
-427.95138094059376
30
0
10
-150.2377979981278
20
-420.35896514700943
30
0
10
-150.83293750373184
20
-413.24167831481986
30
0
10
-149.83008665245902
20
-407.47881085189101
30
0
10
-146.88190071001918
20
-403.23579915721507
30
0
10
-142.36473193157096
20
-399.91870212227019
30
0
10
-137.03486859650121
20
-396.62567333375057
30
0
10
-131.78560208485894
20
-392.50045867990076
30
0
10
-127.38967518457105
20
-387.08004543353866
30
0
10
-124.18358062944043
20
-380.75696436824211
30
0
10
-122.05712786955907
20
-374.70383091875453
30
0
10
-120.69102344965954
20
-370.36502231357048
30
0
10
-119.71224254695682
20
-369.09627980924381
30
0
10
-118.90517841421445
20
-371.69420415323037
30
0
10
-118.33006243071878
20
-378.12717076713847
30
0
10
-118.20790911205764
20
-387.79200687344661
30
0
10
-118.84592524869109
20
-399.67914982272168
30
0
10
-120.54575644066313
20
-412.57582060180732
30
0
10
-123.52204539705153
20
-425.24794563988058
30
0
10
-127.80960573709613
20
-436.64270987653282
30
0
10
-133.19167951030707
20
-446.05530828777398
30
0
10
-139.07824232113651
20
-453.37896798287096
30
0
10
-144.5974776848378
20
-459.00124596291988
30
0
10
-148.81462195895585
20
-463.49064344176719
30
0
10
-150.53976346855197
20
-466.64787331780644
30
0
10
-150.58361184576694
20
-468.79891040180104
30
0
10
-150.03682526901434
20
-470.07083922919497
30
0
10
-149.59974397233515
20
-470.66600497028037
30
0
10
-149.55729216057253
20
-470.72135293628048
30
0
0
LINE
5
132
100
AcDbEntity
8
0
100
AcDbLine
10
-149.55729216057253
20
-470.72135293628048
30
0
11
-145.73516126234435
21
-467.49779660874259
31
0
0
LINE
5
133
100
AcDbEntity
8
0
100
AcDbLine
10
-145.73516126234435
20
-467.49779660874259
30
0
11
-144.94861351842511
21
-468.43039654791033
31
0
0
LINE
5
134
100
AcDbEntity
8
0
100
AcDbLine
10
-144.94861351842511
20
-468.43039654791033
30
0
11
-148.68372071211982
21
-471.58055773977458
31
0
0
SPLINE
5
135
100
AcDbEntity
8
0
100
AcDbSpline
70
4
71
5
72
27
73
21
74
0
42
0.000000001
43
0.0000000001
44
0.0000000001
40
0.26747035913470674
40
0.26747035913470674
40
0.26747035913470674
40
0.26747035913470674
40
0.26747035913470674
40
0.26747035913470674
40
0.27096774193548373
40
0.27741935483870955
40
0.28387096774193538
40
0.2903225806451612
40
0.29677419354838702
40
0.30322580645161284
40
0.30967741935483867
40
0.31612903225806449
40
0.32258064516129031
40
0.32903225806451614
40
0.33548387096774196
40
0.34193548387096778
40
0.34838709677419361
40
0.35483870967741943
40
0.36129032258064525
40
0.36498500944254586
40
0.36498500944254586
40
0.36498500944254586
40
0.36498500944254586
40
0.36498500944254586
40
0.36498500944254586
41
1
41
1
41
1
41
1
41
1
41
1
41
1
41
1
41
1
41
1
41
1
41
1
41
1
41
1
41
1
41
1
41
1
41
1
41
1
41
1
41
1
10
-148.68372071211982
20
-471.58055773977458
30
0
10
-148.37138654445513
20
-471.81551077063608
30
0
10
-147.38808969871815
20
-472.41695415061167
30
0
10
-145.3443185892655
20
-473.05305662722174
30
0
10
-141.69935693920576
20
-472.82548851203444
30
0
10
-136.2925408906448
20
-469.67635298455087
30
0
10
-130.51510500275955
20
-462.14526736627982
30
0
10
-125.7963596323131
20
-451.48016045201723
30
0
10
-122.50834525073105
20
-440.98567302284766
30
0
10
-120.61825534609139
20
-434.79376224602248
30
0
10
-119.87357347069482
20
-435.75131247276943
30
0
10
-119.94793302506969
20
-443.78992729110723
30
0
10
-120.6433593261383
20
-453.23156537292476
30
0
10
-121.43485369532925
20
-461.44189040967422
30
0
10
-121.72922201423208
20
-467.09494745852794
30
0
10
-121.01737854756942
20
-470.03936676083981
30
0
10
-119.21000135386855
20
-470.55810079215178
30
0
10
-117.1291978192219
20
-469.61006405000796
30
0
10
-115.46033450061455
20
-468.22730910982671
30
0
10
-114.42207390236142
20
-467.12058686232893
30
0
10
-114.04377249631524
20
-466.68298614737853
30
0
0
LINE
5
136
100
AcDbEntity
8
0
100
AcDbLine
10
-114.04377249631524
20
-466.68298614737864
30
0
11
-117.86284400534529
21
-463.45580582876124
31
0
0
LINE
5
137
100
AcDbEntity
8
0
100
AcDbLine
10
-117.86284400534529
20
-463.45580582876124
30
0
11
-117.07541200760198
21
-462.5239523805572
31
0
0
LINE
5
138
100
AcDbEntity
8
0
100
AcDbLine
10
-117.07541200760198
20
-462.5239523805572
30
0
11
-113.27507519790561
21
-465.73530155880411
31
0
0
SPLINE
5
139
100
AcDbEntity
8
0
100
AcDbSpline
70
4
71
5
72
76
73
70
74
0
42
0.000000001
43
0.0000000001
44
0.0000000001
40
0.36648861701475954
40
0.36648861701475954
40
0.36648861701475954
40
0.36648861701475954
40
0.36648861701475954
40
0.36648861701475954
40
0.36774193548387107
40
0.3741935483870969
40
0.38064516129032272
40
0.38709677419354854
40
0.39354838709677437
40
0.40000000000000019
40
0.40645161290322601
40
0.41290322580645183
40
0.41935483870967766
40
0.42580645161290348
40
0.4322580645161293
40
0.43870967741935513
40
0.44516129032258095
40
0.45161290322580677
40
0.4580645161290326
40
0.46451612903225842
40
0.47096774193548424
40
0.47741935483871006
40
0.48387096774193589
40
0.49032258064516171
40
0.49677419354838753
40
0.5032258064516133
40
0.50967741935483912
40
0.51612903225806495
40
0.52258064516129077
40
0.52903225806451659
40
0.53548387096774241
40
0.54193548387096824
40
0.54838709677419406
40
0.55483870967741988
40
0.56129032258064571
40
0.56774193548387153
40
0.57419354838709735
40
0.58064516129032318
40
0.587096774193549
40
0.59354838709677482
40
0.60000000000000064
40
0.60645161290322647
40
0.61290322580645229
40
0.61935483870967811
40
0.62580645161290394
40
0.63225806451612976
40
0.63870967741935558
40
0.6451612903225814
40
0.65161290322580723
40
0.65806451612903305
40
0.66451612903225887
40
0.6709677419354847
40
0.67741935483871052
40
0.68387096774193634
40
0.69032258064516216
40
0.69677419354838799
40
0.70322580645161381
40
0.70967741935483963
40
0.71612903225806546
40
0.72258064516129128
40
0.7290322580645171
40
0.73548387096774293
40
0.74193548387096875
40
0.74838709677419457
40
0.75483870967742039
40
0.76129032258064622
40
0.76774193548387204
40
0.77419354838709786
40
0.77816826147575235
40
0.77816826147575235
40
0.77816826147575235
40
0.77816826147575235
40
0.77816826147575235
40
0.77816826147575235
41
1
41
1
41
1
41
1
41
1
41
1
41
1
41
1
41
1
41
1
41
1
41
1
41
1
41
1
41
1
41
1
41
1
41
1
41
1
41
1
41
1
41
1
41
1
41
1
41
1
41
1
41
1
41
1
41
1
41
1
41
1
41
1
41
1
41
1
41
1
41
1
41
1
41
1
41
1
41
1
41
1
41
1
41
1
41
1
41
1
41
1
41
1
41
1
41
1
41
1
41
1
41
1
41
1
41
1
41
1
41
1
41
1
41
1
41
1
41
1
41
1
41
1
41
1
41
1
41
1
41
1
41
1
41
1
41
1
41
1
10
-113.27507519790561
20
-465.73530155880411
30
0
10
-113.1473486807914
20
-465.56778275771472
30
0
10
-112.36382967640998
20
-464.51355046743652
30
0
10
-110.94914878133621
20
-462.30144064284417
30
0
10
-109.04969608356332
20
-458.35249250689543
30
0
10
-107.14755249198606
20
-451.83579876749695
30
0
10
-105.97711448568175
20
-442.4772680589557
30
0
10
-105.85476726808207
20
-432.09189861276013
30
0
10
-106.53788733597025
20
-421.33592223348626
30
0
10
-107.67535554871463
20
-410.87155608237964
30
0
10
-108.88363279505931
20
-401.28868767165505
30
0
10
-109.83150295904871
20
-393.01700937103578
30
0
10
-110.30986542530849
20
-386.25565694464672
30
0
10
-110.33592731580131
20
-380.86183546166194
30
0
10
-110.12629415561545
20
-376.39609393648726
30
0
10
-109.94394600843877
20
-372.31788219839757
30
0
10
-109.99435191044229
20
-368.12322924121736
30
0
10
-110.26935115013664
20
-363.54277265858161
30
0
10
-110.53366315604224
20
-358.5768118808079
30
0
10
-110.48145652672727
20
-353.33772085840735
30
0
10
-109.83929681986146
20
-347.95157703537285
30
0
10
-108.51438357154649
20
-342.41252402111826
30
0
10
-106.64216989097827
20
-336.53766380992988
30
0
10
-104.48244848853605
20
-330.07141379852106
30
0
10
-102.35152279738554
20
-322.7541822886069
30
0
10
-100.53621930575885
20
-314.4094174549727
30
0
10
-99.224183776187431
20
-305.0134489687598
30
0
10
-98.405979803629606
20
-294.79604640255508
30
0
10
-97.877990926829042
20
-284.23026394374438
30
0
10
-97.327350818415326
20
-273.93195631241838
30
0
10
-96.394426364096745
20
-264.58414611085942
30
0
10
-94.742738068619275
20
-256.85289336708695
30
0
10
-92.129739948098887
20
-251.30294716233658
30
0
10
-88.467809796880204
20
-248.32247932467382
30
0
10
-83.912699199411435
20
-248.02171900162904
30
0
10
-78.853253251682474
20
-250.22564934858917
30
0
10
-73.777118983250148
20
-254.58425355205048
30
0
10
-69.171259194163383
20
-260.65064891291007
30
0
10
-65.401459117105119
20
-267.97674858559867
30
0
10
-62.620895146328664
20
-276.18821274124451
30
0
10
-60.823616045897481
20
-284.96492762600292
30
0
10
-59.882571161607572
20
-294.03130205297504
30
0
10
-59.593415189473049
20
-303.14294233436152
30
0
10
-59.716055731648751
20
-312.07463171824452
30
0
10
-60.016634207805268
20
-320.60832349659739
30
0
10
-60.310559488241459
20
-328.5197844377837
30
0
10
-60.501594159868397
20
-335.56959834907343
30
0
10
-60.544066876696341
20
-341.57437141646926
30
0
10
-60.408329903047537
20
-346.47529279014293
30
0
10
-60.045733985284798
20
-350.40555304796555
30
0
10
-59.352088467192637
20
-353.76337659612591
30
0
10
-58.136956285158696
20
-357.26716004146078
30
0
10
-56.207197125927344
20
-361.65422212713588
30
0
10
-53.434893049153629
20
-367.43191939142639
30
0
10
-49.849676111866337
20
-374.54345944149372
30
0
10
-45.657291056040506
20
-382.29436021198376
30
0
10
-41.139512009358235
20
-389.6978720515848
30
0
10
-36.584284115623909
20
-395.71512867597073
30
0
10
-32.197913877415431
20
-399.55488426664493
30
0
10
-28.038272618999237
20
-400.90807236739516
30
0
10
-23.906020092607871
20
-400.30842513195807
30
0
10
-19.380810110329364
20
-399.06205474389378
30
0
10
-14.033788283520689
20
-398.65915691983929
30
0
10
-7.5777039432266635
20
-400.36197294730152
30
0
10
-0.07977196423578245
20
-404.62721091054192
30
0
10
7.3635005170176466
20
-410.44281788707701
30
0
10
13.096011016140743
20
-415.59625636479353
30
0
10
16.94346671221339
20
-419.20451380344821
30
0
10
19.148617069138137
20
-421.2846630542827
30
0
10
19.961278838110466
20
-422.05051067470777
30
0
0
LINE
5
140
100
AcDbEntity
8
0
100
AcDbLine
10
19.961278838110466
20
-422.05051067470777
30
0
11
24.96127883811047
21
-422.05051067470777
31
0
0
LINE
5
141
100
AcDbEntity
8
0
100
AcDbLine
10
24.96127883811047
20
-422.05051067470777
30
0
11
24.96127883811047
21
-423.27051067470779
31
0
0
LINE
5
142
100
AcDbEntity
8
0
100
AcDbLine
10
24.96127883811047
20
-423.27051067470779
30
0
11
21.257702748899518
21
-423.27051049136406
31
0
0
SPLINE
5
143
100
AcDbEntity
8
0
100
AcDbSpline
70
4
71
5
72
46
73
40
74
0
42
0.000000001
43
0.0000000001
44
0.0000000001
40
0.77946665859461917
40
0.77946665859461917
40
0.77946665859461917
40
0.77946665859461917
40
0.77946665859461917
40
0.77946665859461917
40
0.78064516129032369
40
0.78709677419354951
40
0.79354838709677533
40
0.80000000000000115
40
0.80645161290322698
40
0.8129032258064528
40
0.81935483870967862
40
0.82580645161290445
40
0.83225806451613027
40
0.83870967741935609
40
0.84516129032258192
40
0.85161290322580774
40
0.85806451612903356
40
0.86451612903225938
40
0.87096774193548521
40
0.87741935483871103
40
0.88387096774193685
40
0.89032258064516268
40
0.8967741935483885
40
0.90322580645161432
40
0.90967741935484014
40
0.91612903225806597
40
0.92258064516129179
40
0.92903225806451761
40
0.93548387096774344
40
0.94193548387096926
40
0.94838709677419508
40
0.9548387096774209
40
0.96129032258064673
40
0.96774193548387255
40
0.97419354838709837
40
0.9806451612903242
40
0.98709677419355002
40
0.99354838709677584
40
1
40
1
40
1
40
1
40
1
40
1
41
1
41
1
41
1
41
1
41
1
41
1
41
1
41
1
41
1
41
1
41
1
41
1
41
1
41
1
41
1
41
1
41
1
41
1
41
1
41
1
41
1
41
1
41
1
41
1
41
1
41
1
41
1
41
1
41
1
41
1
41
1
41
1
41
1
41
1
41
1
41
1
41
1
41
1
41
1
41
1
10
21.257702748899526
20
-423.27051049136406
30
0
10
21.487243374917909
20
-423.48603009465285
30
0
10
22.955784368853823
20
-424.86290802116014
30
0
10
25.449791371894833
20
-427.17230723012699
30
0
10
28.402466045166804
20
-429.73064375328318
30
0
10
30.656070343649375
20
-430.9646524954465
30
0
10
30.543340147338537
20
-428.62165991932443
30
0
10
27.690999704220459
20
-422.72055628412454
30
0
10
22.497075451697278
20
-414.16961127355222
30
0
10
15.584320010895496
20
-404.27607430584999
30
0
10
7.6958969697532718
20
-394.50054035213265
30
0
10
-0.40759300925342823
20
-386.21586351597375
30
0
10
-8.0565028656345969
20
-380.45016721145686
30
0
10
-14.766829089527088
20
-377.66932884621497
30
0
10
-20.369951323685282
20
-377.45865450365784
30
0
10
-24.964590632043272
20
-378.71768049728416
30
0
10
-28.786798216335136
20
-380.09648026911748
30
0
10
-32.114705209221519
20
-380.3217233525981
30
0
10
-35.138571281538844
20
-378.64712927506457
30
0
10
-37.940962086543479
20
-374.88200125430927
30
0
10
-40.538046228718287
20
-369.18338713948714
30
0
10
-42.903689480617942
20
-361.91163254384469
30
0
10
-44.997361595323312
20
-353.48223263556565
30
0
10
-46.771604541197291
20
-344.34771916958562
30
0
10
-48.183331499042737
20
-334.95764049993994
30
0
10
-49.203504818426467
20
-325.72749588830163
30
0
10
-49.827674407576133
20
-317.00339309641259
30
0
10
-50.085771873637896
20
-309.02956072968442
30
0
10
-50.053139343984192
20
-301.91214940615271
30
0
10
-49.858432139935459
20
-295.59167043754269
30
0
10
-49.661875884667957
20
-289.89610395985198
30
0
10
-49.635680830096703
20
-284.58803643747854
30
0
10
-49.944071595965355
20
-279.41311068691243
30
0
10
-50.72247246278566
20
-274.1500955397683
30
0
10
-52.059974797220377
20
-268.65391315056655
30
0
10
-54.010279113442941
20
-262.83680940946658
30
0
10
-56.082052366369332
20
-257.89157852418975
30
0
10
-57.927593147927595
20
-254.0121047958479
30
0
10
-59.287591330739673
20
-251.34999999763576
30
0
10
-60
20
-250
30
0
0
SPLINE
5
144
100
AcDbEntity
8
0
100
AcDbSpline
70
4
71
5
72
36
73
30
74
0
42
0.000000001
43
0.0000000001
44
0.0000000001
40
0
40
0
40
0
40
0
40
0
40
0
40
0.01
40
0.02
40
0.029999999999999999
40
0.040000000000000001
40
0.050000000000000003
40
0.060000000000000005
40
0.070000000000000007
40
0.080000000000000002
40
0.089999999999999997
40
0.099999999999999992
40
0.10999999999999999
40
0.11999999999999998
40
0.12999999999999998
40
0.13999999999999999
40
0.14999999999999999
40
0.16
40
0.17000000000000001
40
0.18000000000000002
40
0.19000000000000003
40
0.20000000000000004
40
0.21000000000000005
40
0.22000000000000006
40
0.23000000000000007
40
0.24000000000000007
40
0.24422916381121262
40
0.24422916381121262
40
0.24422916381121262
40
0.24422916381121262
40
0.24422916381121262
40
0.24422916381121262
41
1
41
1
41
1
41
1
41
1
41
1
41
1
41
1
41
1
41
1
41
1
41
1
41
1
41
1
41
1
41
1
41
1
41
1
41
1
41
1
41
1
41
1
41
1
41
1
41
1
41
1
41
1
41
1
41
1
41
1
10
-60
20
-250
30
0
10
-59.258529341880973
20
-250.98814074195971
30
0
10
-57.803658838900446
20
-253.03864042410646
30
0
10
-55.705565882696312
20
-256.33704505219919
30
0
10
-53.076558525352212
20
-261.18029618544267
30
0
10
-50.062893363382173
20
-267.96287809261179
30
0
10
-47.297018284005468
20
-275.43182534300848
30
0
10
-44.729208510111263
20
-283.50241110866898
30
0
10
-42.276163221384692
20
-292.03258512666224
30
0
10
-39.813187037316716
20
-300.80941083078977
30
0
10
-37.164334429121304
20
-309.53259512755676
30
0
10
-34.09809834919016
20
-317.80591694068687
30
0
10
-30.380397478430602
20
-325.21102963706176
30
0
10
-25.824567766623552
20
-331.3766653207922
30
0
10
-20.340044526454065
20
-336.04661857334304
30
0
10
-13.987273060924185
20
-339.15510492450437
30
0
10
-7.0169633294919382
20
-340.88325985102017
30
0
10
0.051811596988489833
20
-341.76259993860015
30
0
10
6.4857387016576187
20
-342.61826951066757
30
0
10
11.555519805356782
20
-344.31097317058715
30
0
10
14.728026196243531
20
-347.51435346931038
30
0
10
15.837162464778626
20
-352.50976246019201
30
0
10
15.34256894217107
20
-358.89511348791018
30
0
10
14.224317691799435
20
-365.65683698295237
30
0
10
13.581176132860602
20
-371.54341363034246
30
0
10
14.214095422588615
20
-374.92122881060453
30
0
10
15.700871898312412
20
-375.83986851059336
30
0
10
17.105505723312621
20
-375.61600675596799
30
0
10
18.003889616693375
20
-375.1982190438863
30
0
10
18.276057343227983
20
-375.04928145315495
30
0
0
LINE
5
145
100
AcDbEntity
8
0
100
AcDbLine
10
18.276057343227983
20
-375.04928145315495
30
0
11
18.276057343227947
21
-370.049281453155
31
0
0
LINE
5
146
100
AcDbEntity
8
0
100
AcDbLine
10
18.276057343227947
20
-370.049281453155
30
0
11
19.496057343227946
21
-370.049281453155
31
0
0
LINE
5
147
100
AcDbEntity
8
0
100
AcDbLine
10
19.496057343227946
20
-370.049281453155
30
0
11
19.496057343601105
21
-374.21282910859696
31
0
0
SPLINE
5
148
100
AcDbEntity
8
0
100
AcDbSpline
70
4
71
5
72
23
73
17
74
0
42
0.000000001
43
0.0000000001
44
0.0000000001
40
0.24792668071356308
40
0.24792668071356308
40
0.24792668071356308
40
0.24792668071356308
40
0.24792668071356308
40
0.24792668071356308
40
0.25000000000000006
40
0.26000000000000006
40
0.27000000000000007
40
0.28000000000000008
40
0.29000000000000009
40
0.3000000000000001
40
0.31000000000000011
40
0.32000000000000012
40
0.33000000000000013
40
0.34000000000000014
40
0.35000000000000014
40
0.35422990799807696
40
0.35422990799807696
40
0.35422990799807696
40
0.35422990799807696
40
0.35422990799807696
40
0.35422990799807696
41
1
41
1
41
1
41
1
41
1
41
1
41
1
41
1
41
1
41
1
41
1
41
1
41
1
41
1
41
1
41
1
41
1
10
19.496057343601112
20
-374.21282910859696
30
0
10
19.635222009222147
20
-374.09871284011587
30
0
10
20.447703333379401
20
-373.4018771099004
30
0
10
21.945057594955188
20
-371.78923067344192
30
0
10
23.98960092151929
20
-368.6360295592936
30
0
10
25.86178267182671
20
-363.37674828136824
30
0
10
26.380449740230233
20
-356.47330749514754
30
0
10
25.63447384260909
20
-349.89555642505854
30
0
10
24.550986473633039
20
-344.46477861075584
30
0
10
24.214013058894395
20
-340.68905090516517
30
0
10
25.515891144859957
20
-338.65184863260077
30
0
10
28.736385076102941
20
-337.80175669473977
30
0
10
32.953141469052206
20
-337.21360518313054
30
0
10
36.676014572676387
20
-336.31389664028239
30
0
10
39.309176280729986
20
-335.33232445474209
30
0
10
40.807661050761148
20
-334.64514089616358
30
0
10
41.247632408831834
20
-334.43151850072729
30
0
0
LINE
5
149
100
AcDbEntity
8
0
100
AcDbLine
10
41.247632408831834
20
-334.43151850072729
30
0
11
39.160088222319786
21
-329.88815418896888
31
0
0
LINE
5
150
100
AcDbEntity
8
0
100
AcDbLine
10
39.160088222319786
20
-329.88815418896888
30
0
11
40.268669114388835
21
-329.37879340746008
31
0
0
LINE
5
151
100
AcDbEntity
8
0
100
AcDbLine
10
40.268669114388835
20
-329.37879340746008
30
0
11
42.333997130400022
21
-333.87380617800557
31
0
0
SPLINE
5
152
100
AcDbEntity
8
0
100
AcDbSpline
70
4
71
5
72
64
73
58
74
0
42
0.000000001
43
0.0000000001
44
0.0000000001
40
0.35634805578662643
40
0.35634805578662643
40
0.35634805578662643
40
0.35634805578662643
40
0.35634805578662643
40
0.35634805578662643
40
0.36000000000000015
40
0.37000000000000016
40
0.38000000000000017
40
0.39000000000000018
40
0.40000000000000019
40
0.4100000000000002
40
0.42000000000000021
40
0.43000000000000022
40
0.44000000000000022
40
0.45000000000000023
40
0.46000000000000024
40
0.47000000000000025
40
0.48000000000000026
40
0.49000000000000027
40
0.50000000000000022
40
0.51000000000000023
40
0.52000000000000024
40
0.53000000000000025
40
0.54000000000000026
40
0.55000000000000027
40
0.56000000000000028
40
0.57000000000000028
40
0.58000000000000029
40
0.5900000000000003
40
0.60000000000000031
40
0.61000000000000032
40
0.62000000000000033
40
0.63000000000000034
40
0.64000000000000035
40
0.65000000000000036
40
0.66000000000000036
40
0.67000000000000037
40
0.68000000000000038
40
0.69000000000000039
40
0.7000000000000004
40
0.71000000000000041
40
0.72000000000000042
40
0.73000000000000043
40
0.74000000000000044
40
0.75000000000000044
40
0.76000000000000045
40
0.77000000000000046
40
0.78000000000000047
40
0.79000000000000048
40
0.80000000000000049
40
0.8100000000000005
40
0.82000000000000051
40
0.83000000000000052
40
0.84000000000000052
40
0.85000000000000053
40
0.86000000000000054
40
0.87000000000000055
40
0.87579353498589352
40
0.87579353498589352
40
0.87579353498589352
40
0.87579353498589352
40
0.87579353498589352
40
0.87579353498589352
41
1
41
1
41
1
41
1
41
1
41
1
41
1
41
1
41
1
41
1
41
1
41
1
41
1
41
1
41
1
41
1
41
1
41
1
41
1
41
1
41
1
41
1
41
1
41
1
41
1
41
1
41
1
41
1
41
1
41
1
41
1
41
1
41
1
41
1
41
1
41
1
41
1
41
1
41
1
41
1
41
1
41
1
41
1
41
1
41
1
41
1
41
1
41
1
41
1
41
1
41
1
41
1
41
1
41
1
41
1
41
1
41
1
41
1
10
42.333997130400022
20
-333.87380617800557
30
0
10
42.702825849832251
20
-333.6738453291548
30
0
10
44.061302347362457
20
-332.90250673966767
30
0
10
46.264581412827788
20
-331.42169686314929
30
0
10
48.858867584960578
20
-329.07371264077358
30
0
10
50.73867398671635
20
-326.18415330758933
30
0
10
50.2979275565189
20
-324.19323499660436
30
0
10
47.121821772432313
20
-324.16197399522213
30
0
10
41.569848400482002
20
-325.92853532273432
30
0
10
34.311645599294565
20
-328.8611885806738
30
0
10
26.18587494043566
20
-332.06318441675023
30
0
10
18.033191810951184
20
-334.64027326715751
30
0
10
10.55515346989543
20
-335.9133287196629
30
0
10
4.1248347620368246
20
-335.72483343877343
30
0
10
-1.2175864713337532
20
-334.39506505095829
30
0
10
-5.6405488916226254
20
-332.43915034392728
30
0
10
-9.4329691029352656
20
-330.34572870434135
30
0
10
-12.905251794658684
20
-328.34948476863497
30
0
10
-16.284758248604597
20
-326.15585577748402
30
0
10
-19.70056272364992
20
-323.13267981944102
30
0
10
-23.186761919749127
20
-318.61495634019479
30
0
10
-26.681806011651283
20
-312.14335836526305
30
0
10
-30.023272147361784
20
-303.79446681127797
30
0
10
-32.968103351943235
20
-294.22761094846032
30
0
10
-35.242264349460669
20
-284.43219901151559
30
0
10
-36.583088772541856
20
-275.55213429957109
30
0
10
-36.783365772708734
20
-268.68289114906077
30
0
10
-35.737577524646333
20
-264.67130494939931
30
0
10
-33.48054817827262
20
-263.93517992642097
30
0
10
-30.246933947490415
20
-266.21932876219103
30
0
10
-26.402229416774283
20
-270.74868724716873
30
0
10
-22.328192408823565
20
-276.5149187805502
30
0
10
-18.334095809331778
20
-282.49944542004408
30
0
10
-14.53239287126312
20
-287.9669647308458
30
0
10
-10.817313992114547
20
-292.57256439606721
30
0
10
-6.9846408464925291
20
-296.2150737050074
30
0
10
-2.8222642922536072
20
-298.94770366343255
30
0
10
1.7976482948237047
20
-300.87321776922943
30
0
10
6.8026020358346582
20
-302.02763666393548
30
0
10
11.901135716959587
20
-302.33293911754151
30
0
10
16.721969936800956
20
-301.66303501705193
30
0
10
20.91039440480618
20
-299.88364388359651
30
0
10
24.253127784415625
20
-296.90019568634744
30
0
10
26.757870509345473
20
-292.70906597802627
30
0
10
28.555108646990824
20
-287.46739036106089
30
0
10
29.819295760263813
20
-281.57555456263981
30
0
10
30.690223421921083
20
-275.72246549567291
30
0
10
31.175150931202712
20
-271.02776417999354
30
0
10
31.172883162095665
20
-268.68661775106182
30
0
10
30.53932741738717
20
-269.5014091320221
30
0
10
29.146977013876715
20
-273.3232256060636
30
0
10
26.910811902956535
20
-279.13448744670302
30
0
10
23.790153215069886
20
-285.5062257793403
30
0
10
20.133842532065103
20
-290.47522908210323
30
0
10
16.7648499755086
20
-292.99334770709288
30
0
10
14.111761528009074
20
-293.94601833951685
30
0
10
12.414296866378907
20
-294.19616213362997
30
0
10
11.782398285270395
20
-294.24297362928229
30
0
0
LINE
5
153
100
AcDbEntity
8
0
100
AcDbLine
10
11.782398285270395
20
-294.24297362928223
30
0
11
11.782398906831197
21
-299.26677032568585
31
0
0
LINE
5
154
100
AcDbEntity
8
0
100
AcDbLine
10
11.782398906831197
20
-299.26677032568585
30
0
11
10.562398906831181
21
-299.26677032568585
31
0
0
LINE
5
155
100
AcDbEntity
8
0
100
AcDbLine
10
10.562398906831181
20
-299.26677032568585
30
0
11
10.562398908652568
21
-294.26677032574764
31
0
0
SPLINE
5
156
100
AcDbEntity
8
0
100
AcDbSpline
70
4
71
5
72
24
73
18
74
0
42
0.000000001
43
0.0000000001
44
0.0000000001
40
0.87800659131466052
40
0.87800659131466052
40
0.87800659131466052
40
0.87800659131466052
40
0.87800659131466052
40
0.87800659131466052
40
0.88000000000000056
40
0.89000000000000057
40
0.90000000000000058
40
0.91000000000000059
40
0.9200000000000006
40
0.9300000000000006
40
0.94000000000000061
40
0.95000000000000062
40
0.96000000000000063
40
0.97000000000000064
40
0.98000000000000065
40
0.99000000000000066
40
1
40
1
40
1
40
1
40
1
40
1
41
1
41
1
41
1
41
1
41
1
41
1
41
1
41
1
41
1
41
1
41
1
41
1
41
1
41
1
41
1
41
1
41
1
41
1
10
10.562398908652568
20
-294.26677032574764
30
0
10
10.340315206143085
20
-294.25924041347014
30
0
10
8.9980740967211084
20
-294.1819428064739
30
0
10
6.4714259696385152
20
-293.68765549957419
30
0
10
2.6492811490783703
20
-292.04066052033102
30
0
10
-2.5441995663743859
20
-288.25383139982472
30
0
10
-8.7766284179773528
20
-281.8235990314746
30
0
10
-14.85838171066904
20
-274.03359003230219
30
0
10
-20.627581933908409
20
-265.35000192840988
30
0
10
-25.959512510757541
20
-256.1301160056417
30
0
10
-30.76066469794268
20
-246.6436720738956
30
0
10
-34.964703409121583
20
-237.08233628662282
30
0
10
-38.52764902828423
20
-227.57410462587728
30
0
10
-41.423413633141251
20
-218.19553911851503
30
0
10
-43.196041899401195
20
-210.82702783455434
30
0
10
-44.217704831634563
20
-205.38191346924665
30
0
10
-44.762031867896894
20
-201.78795206040664
30
0
10
-45
20
-200
30
0
0
LINE
5
157
100
AcDbEntity
8
0
100
AcDbLine
10
-45.000000000000007
20
-200
30
0
11
-45
21
-50.565208750751097
31
0
0
SPLINE
5
158
100
AcDbEntity
8
0
100
AcDbSpline
70
4
71
5
72
16
73
10
74
0
42
0.000000001
43
0.0000000001
44
0.0000000001
40
0
40
0
40
0
40
0
40
0
40
0
40
0.20000000000000001
40
0.40000000000000002
40
0.60000000000000009
40
0.80000000000000004
40
1
40
1
40
1
40
1
40
1
40
1
41
1
41
1
41
1
41
1
41
1
41
1
41
1
41
1
41
1
41
1
10
-45
20
-50.565208750751097
30
0
10
-45
20
-45.897912446567318
30
0
10
-44.474655714887128
20
-37.335193006323564
30
0
10
-42.112024210793678
20
-26.804650248765288
30
0
10
-36.24704970135727
20
-16.752702496770269
30
0
10
-25.903993877457992
20
-8.6129738350791243
30
0
10
-16.151450767876202
20
-4.2729182207170124
30
0
10
-8.2787458633694317
20
-1.8381669901377409
30
0
10
-2.7982664628618621
20
-0.55588430038376735
30
0
10
0
20
0
30
0
0
LINE
5
159
100
AcDbEntity
8
0
100
AcDbLine
10
9.2251152378853901e-16
20
-2.6116942402689941e-16
30
0
11
-80
21
0
31
0
0
LINE
5
160
100
AcDbEntity
8
0
100
AcDbLine
10
-80
20
0
30
0
11
-80
21
-125
31
0
0
LINE
5
161
100
AcDbEntity
8
0
100
AcDbLine
10
-80
20
-125
30
0
11
-81.219999999999999
21
-125
31
0
0
LINE
5
162
100
AcDbEntity
8
0
100
AcDbLine
10
-81.219999999999999
20
-125
30
0
11
-81.219999999999999
21
0
31
0
0
LINE
5
163
100
AcDbEntity
8
0
100
AcDbLine
10
-81.219999999999999
20
0
30
0
11
-150
21
0
31
0
0
SPLINE
5
164
100
AcDbEntity
8
0
100
AcDbSpline
70
4
71
5
72
16
73
10
74
0
42
0.000000001
43
0.0000000001
44
0.0000000001
40
-1
40
-1
40
-1
40
-1
40
-1
40
-1
40
-0.80000000000000004
40
-0.60000000000000009
40
-0.40000000000000002
40
-0.20000000000000001
40
-0.11159223197468585
40
-0.11159223197468585
40
-0.11159223197468585
40
-0.11159223197468585
40
-0.11159223197468585
40
-0.11159223197468585
41
1
41
1
41
1
41
1
41
1
41
1
41
1
41
1
41
1
41
1
10
-150
20
0
30
0
10
-146.0423604389282
20
-2.9293531599097618
30
0
10
-138.88779138784065
20
-8.5234188108807505
30
0
10
-130.43601504934944
20
-16.121309482831581
30
0
10
-123.09806879732248
20
-24.884258124403758
30
0
10
-118.82373855719254
20
-33.267701370991503
30
0
10
-117.09651038709072
20
-39.212498231870072
30
0
10
-116.45550464736968
20
-43.226868828805138
30
0
10
-116.26220817162925
20
-45.532943192475102
30
0
10
-116.22000000537994
20
-46.233911711406591
30
0
0
LINE
5
165
100
AcDbEntity
8
0
100
AcDbLine
10
-116.22000000537993
20
-46.233911711406577
30
0
11
-116.22
21
-199.76237776892083
31
0
0
ENDSEC
0
SECTION
2
OBJECTS
0
DICTIONARY
5
C
100
AcDbDictionary
3
ACAD_GROUP
350
D
3
ACAD_MLINESTYLE
350
17
0
DICTIONARY
5
D
100
AcDbDictionary
0
DICTIONARY
5
1A
330
C
100
AcDbDictionary
0
DICTIONARY
5
17
100
AcDbDictionary
0
ENDSEC
0
EOF
