0
SECTION
2
HEADER
9
$INSUNITS
70
4
9
$ACADVER
1
AC1014
9
$HANDSEED
5
FFFF
0
ENDSEC
0
SECTION
2
TABLES
0
TABLE
2
VPORT
5
8
100
AcDbSymbolTable
0
ENDTAB
0
TABLE
2
LTYPE
5
5
100
AcDbSymbolTable
0
LTYPE
5
14
100
AcDbSymbolTableRecord
100
AcDbLinetypeTableRecord
2
BYBLOCK
70
0
0
LTYPE
5
15
100
AcDbSymbolTableRecord
100
AcDbLinetypeTableRecord
2
BYLAYER
70
0
0
ENDTAB
0
TABLE
2
LAYER
5
2
100
AcDbSymbolTable
70
2
0
LAYER
5
50
100
AcDbSymbolTableRecord
100
AcDbLayerTableRecord
2
0
70
0
6
CONTINUOUS
0
ENDTAB
0
TABLE
2
STYLE
5
3
100
AcDbSymbolTable
70
1
0
STYLE
5
11
100
AcDbSymbolTableRecord
100
AcDbTextStyleTableRecord
2
STANDARD
70
0
0
ENDTAB
0
TABLE
2
VIEW
5
6
100
AcDbSymbolTable
70
0
0
ENDTAB
0
TABLE
2
UCS
5
7
100
AcDbSymbolTable
70
0
0
ENDTAB
0
TABLE
2
APPID
5
9
100
AcDbSymbolTable
70
2
0
APPID
5
12
100
AcDbSymbolTableRecord
100
AcDbRegAppTableRecord
2
ACAD
70
0
0
ENDTAB
0
TABLE
2
DIMSTYLE
5
A
100
AcDbSymbolTable
70
1
0
ENDTAB
0
TABLE
2
BLOCK_RECORD
5
1
100
AcDbSymbolTable
70
1
0
BLOCK_RECORD
5
1F
100
AcDbSymbolTableRecord
100
AcDbBlockTableRecord
2
*MODEL_SPACE
0
BLOCK_RECORD
5
1B
100
AcDbSymbolTableRecord
100
AcDbBlockTableRecord
2
*PAPER_SPACE
0
ENDTAB
0
ENDSEC
0
SECTION
2
BLOCKS
0
BLOCK
5
20
100
AcDbEntity
100
AcDbBlockBegin
2
*MODEL_SPACE
0
ENDBLK
5
21
100
AcDbEntity
100
AcDbBlockEnd
0
BLOCK
5
1C
100
AcDbEntity
100
AcDbBlockBegin
2
*PAPER_SPACE
0
ENDBLK
5
1D
100
AcDbEntity
100
AcDbBlockEnd
0
ENDSEC
0
SECTION
2
ENTITIES
0
LWPOLYLINE
5
100
100
AcDbEntity
8
0
100
AcDbPolyline
90
8
70
1
43
0.0
10
446.84475046118337
20
947.07206189544263
10
446.84475046118337
20
997.07206189544263
10
465.5143466234365
20
997.07206189544263
10
465.5143466234365
20
1047.0720618954426
10
396.84475046118337
20
1047.0720618954426
10
396.84475046118337
20
897.07206189544263
10
465.5143466234365
20
897.07206189544263
10
465.5143466234365
20
947.07206189544263
0
LINE
5
101
100
AcDbEntity
8
0
100
AcDbLine
10
496.84475046118337
20
947.07206189544263
30
0
11
496.84475046118337
21
997.07206189544263
31
0
0
LINE
5
102
100
AcDbEntity
8
0
100
AcDbLine
10
546.84475046118337
20
1047.0720618954426
30
0
11
546.84475046118337
21
897.07206189544263
31
0
0
LINE
5
103
100
AcDbEntity
8
0
100
AcDbLine
10
546.84475046118337
20
1047.0720618954426
30
0
11
496.84475046118337
21
1047.0720618954426
31
0
0
LINE
5
104
100
AcDbEntity
8
0
100
AcDbLine
10
496.84475046118337
20
47.072061895442658
30
0
11
546.84475046118337
21
47.072061895442658
31
0
0
LINE
5
105
100
AcDbEntity
8
0
100
AcDbLine
10
546.84475046118337
20
47.072061895442658
30
0
11
546.84475046118337
21
1047.0720618954426
31
0
0
LINE
5
106
100
AcDbEntity
8
0
100
AcDbLine
10
496.84475046118337
20
97.072061895442658
30
0
11
96.844750461183366
21
97.072061895442658
31
0
0
LINE
5
107
100
AcDbEntity
8
0
100
AcDbLine
10
46.844750461183366
20
97.072061895442658
30
0
11
46.844750461183366
21
47.072061895442658
31
0
0
LINE
5
108
100
AcDbEntity
8
0
100
AcDbLine
10
46.844750461183366
20
47.072061895442658
30
0
11
546.84475046118337
21
47.072061895442658
31
0
0
LINE
5
109
100
AcDbEntity
8
0
100
AcDbLine
10
546.84475046118337
20
47.072061895442658
30
0
11
546.84475046118337
21
97.072061895442658
31
0
0
LINE
5
110
100
AcDbEntity
8
0
100
AcDbLine
10
46.844750461183366
20
47.072061895442658
30
0
11
96.844750461183366
21
47.072061895442658
31
0
0
LINE
5
111
100
AcDbEntity
8
0
100
AcDbLine
10
46.844750461183366
20
97.072061895442658
30
0
11
46.844750461183366
21
47.072061895442658
31
0
0
LWPOLYLINE
5
112
100
AcDbEntity
8
0
100
AcDbPolyline
90
4
70
1
43
0.0
10
296.84475046118337
20
1047.0720618954426
10
346.84475046118337
20
1047.0720618954426
10
346.84475046118337
20
997.07206189544263
10
296.84475046118337
20
997.07206189544263
0
LINE
5
113
100
AcDbEntity
8
0
100
AcDbLine
10
96.844750461183366
20
47.072061895442658
30
0
11
46.844750461183366
21
47.072061895442658
31
0
0
LINE
5
114
100
AcDbEntity
8
0
100
AcDbLine
10
46.844750461183366
20
47.072061895442658
30
0
11
46.844750461183366
21
1047.0720618954426
31
0
0
LINE
5
115
100
AcDbEntity
8
0
100
AcDbLine
10
46.844750461183366
20
1047.0720618954426
30
0
11
96.844750461183366
21
1047.0720618954426
31
0
0
LINE
5
116
100
AcDbEntity
8
0
100
AcDbLine
10
96.844750461183366
20
1047.0720618954426
30
0
11
96.844750461183366
21
97.072061895442658
31
0
0
LINE
5
117
100
AcDbEntity
8
0
100
AcDbLine
10
146.84475046118337
20
1047.0720618954426
30
0
11
246.84475046118337
21
1047.0720618954426
31
0
0
LINE
5
118
100
AcDbEntity
8
0
100
AcDbLine
10
246.84475046118337
20
1047.0720618954426
30
0
11
246.84475046118337
21
997.07206189544263
31
0
0
LINE
5
119
100
AcDbEntity
8
0
100
AcDbLine
10
246.84475046118337
20
997.07206189544263
30
0
11
196.84475046118337
21
997.07206189544263
31
0
0
LINE
5
120
100
AcDbEntity
8
0
100
AcDbLine
10
146.84475046118337
20
997.07206189544263
30
0
11
146.84475046118337
21
1047.0720618954426
31
0
0
LINE
5
121
100
AcDbEntity
8
0
100
AcDbLine
10
146.84475046118337
20
1047.0720618954426
30
0
11
196.84475046118337
21
1047.0720618954426
31
0
0
LINE
5
122
100
AcDbEntity
8
0
100
AcDbLine
10
196.84475046118337
20
697.07206189544263
30
0
11
146.84475046118337
21
697.07206189544263
31
0
0
LINE
5
123
100
AcDbEntity
8
0
100
AcDbLine
10
146.84475046118337
20
697.07206189544263
30
0
11
246.84475046118337
21
697.07206189544263
31
0
0
LINE
5
124
100
AcDbEntity
8
0
100
AcDbLine
10
246.84475046118337
20
697.07206189544263
30
0
11
246.84475046118337
21
747.07206189544263
31
0
0
LINE
5
125
100
AcDbEntity
8
0
100
AcDbLine
10
246.84475046118337
20
747.07206189544263
30
0
11
196.84475046118337
21
747.07206189544263
31
0
0
LINE
5
126
100
AcDbEntity
8
0
100
AcDbLine
10
146.84475046118337
20
747.07206189544263
30
0
11
146.84475046118337
21
697.07206189544263
31
0
0
LWPOLYLINE
5
127
100
AcDbEntity
8
0
100
AcDbPolyline
90
4
70
1
43
0.0
10
196.84475046118337
20
897.07206189544263
10
146.84475046118337
20
897.07206189544263
10
146.84475046118337
20
847.07206189544263
10
196.84475046118337
20
847.07206189544263
0
LINE
5
128
100
AcDbEntity
8
0
100
AcDbLine
10
146.84475046118337
20
907.07206189544263
30
0
11
196.84475046118337
21
907.07206189544263
31
0
0
LINE
5
129
100
AcDbEntity
8
0
100
AcDbLine
10
196.84475046118337
20
907.07206189544263
30
0
11
196.84475046118337
21
997.07206189544263
31
0
0
LINE
5
130
100
AcDbEntity
8
0
100
AcDbLine
10
196.84475046118337
20
1047.0720618954426
30
0
11
146.84475046118337
21
1047.0720618954426
31
0
0
LINE
5
131
100
AcDbEntity
8
0
100
AcDbLine
10
146.84475046118337
20
1047.0720618954426
30
0
11
146.84475046118337
21
907.07206189544263
31
0
0
LINE
5
132
100
AcDbEntity
8
0
100
AcDbLine
10
146.84475046118337
20
837.07206189544263
30
0
11
196.84475046118337
21
837.07206189544263
31
0
0
LINE
5
133
100
AcDbEntity
8
0
100
AcDbLine
10
196.84475046118337
20
837.07206189544263
30
0
11
196.84475046118337
21
747.07206189544263
31
0
0
LINE
5
134
100
AcDbEntity
8
0
100
AcDbLine
10
196.84475046118337
20
697.07206189544263
30
0
11
146.84475046118337
21
697.07206189544263
31
0
0
LINE
5
135
100
AcDbEntity
8
0
100
AcDbLine
10
146.84475046118337
20
697.07206189544263
30
0
11
146.84475046118337
21
837.07206189544263
31
0
0
LINE
5
136
100
AcDbEntity
8
0
100
AcDbLine
10
446.84475046118337
20
847.07206189544263
30
0
11
396.84475046118337
21
847.07206189544263
31
0
0
LINE
5
137
100
AcDbEntity
8
0
100
AcDbLine
10
396.84475046118337
20
847.07206189544263
30
0
11
396.84475046118337
21
197.07206189544266
31
0
0
LINE
5
138
100
AcDbEntity
8
0
100
AcDbLine
10
396.84475046118337
20
147.07206189544266
30
0
11
446.84475046118337
21
147.07206189544266
31
0
0
LINE
5
139
100
AcDbEntity
8
0
100
AcDbLine
10
446.84475046118337
20
147.07206189544266
30
0
11
446.84475046118337
21
847.07206189544263
31
0
0
LINE
5
140
100
AcDbEntity
8
0
100
AcDbLine
10
146.84475046118337
20
197.07206189544266
30
0
11
146.84475046118337
21
147.07206189544266
31
0
0
LINE
5
141
100
AcDbEntity
8
0
100
AcDbLine
10
146.84475046118337
20
147.07206189544266
30
0
11
446.84475046118337
21
147.07206189544266
31
0
0
LINE
5
142
100
AcDbEntity
8
0
100
AcDbLine
10
446.84475046118337
20
147.07206189544266
30
0
11
446.84475046118337
21
197.07206189544266
31
0
0
LINE
5
143
100
AcDbEntity
8
0
100
AcDbLine
10
346.84475046118337
20
947.07206189544263
30
0
11
296.84475046118337
21
947.07206189544263
31
0
0
LINE
5
144
100
AcDbEntity
8
0
100
AcDbLine
10
296.84475046118337
20
947.07206189544263
30
0
11
296.84475046118337
21
197.07206189544266
31
0
0
LINE
5
145
100
AcDbEntity
8
0
100
AcDbLine
10
296.84475046118337
20
147.07206189544266
30
0
11
346.84475046118337
21
147.07206189544266
31
0
0
LINE
5
146
100
AcDbEntity
8
0
100
AcDbLine
10
346.84475046118337
20
197.07206189544266
30
0
11
346.84475046118337
21
947.07206189544263
31
0
0
LINE
5
147
100
AcDbEntity
8
0
100
AcDbLine
10
496.84475046118337
20
997.07206189544263
30
0
11
496.84475046118337
21
947.07206189544263
31
0
0
LINE
5
148
100
AcDbEntity
8
0
100
AcDbLine
10
496.84475046118337
20
897.07206189544263
30
0
11
496.84475046118337
21
97.072061895442658
31
0
0
LINE
5
149
100
AcDbEntity
8
0
100
AcDbLine
10
146.84475046118337
20
907.07206189544263
30
0
11
146.84475046118337
21
1047.0720618954426
31
0
0
LINE
5
150
100
AcDbEntity
8
0
100
AcDbLine
10
196.84475046118337
20
997.07206189544263
30
0
11
196.84475046118337
21
907.07206189544263
31
0
0
LINE
5
151
100
AcDbEntity
8
0
100
AcDbLine
10
196.84475046118337
20
897.07206189544263
30
0
11
196.84475046118337
21
847.07206189544263
31
0
0
LINE
5
152
100
AcDbEntity
8
0
100
AcDbLine
10
196.84475046118337
20
837.07206189544263
30
0
11
196.84475046118337
21
747.07206189544263
31
0
0
LINE
5
153
100
AcDbEntity
8
0
100
AcDbLine
10
146.84475046118337
20
697.07206189544263
30
0
11
146.84475046118337
21
837.07206189544263
31
0
0
LINE
5
154
100
AcDbEntity
8
0
100
AcDbLine
10
146.84475046118337
20
847.07206189544263
30
0
11
146.84475046118337
21
897.07206189544263
31
0
0
LINE
5
155
100
AcDbEntity
8
0
100
AcDbLine
10
396.84475046118337
20
197.07206189544266
30
0
11
346.84475046118337
21
197.07206189544266
31
0
0
LINE
5
156
100
AcDbEntity
8
0
100
AcDbLine
10
296.84475046118337
20
197.07206189544266
30
0
11
146.84475046118337
21
197.07206189544266
31
0
0
LINE
5
157
100
AcDbEntity
8
0
100
AcDbLine
10
146.33395534534515
20
300.13683259045888
30
0
11
196.33395534534515
21
300.13683259045888
31
0
0
LINE
5
158
100
AcDbEntity
8
0
100
AcDbLine
10
246.33395534534486
20
250.13683259045899
30
0
11
146.33395534534515
21
250.13683259045899
31
0
0
LWPOLYLINE
5
159
100
AcDbEntity
8
0
100
AcDbPolyline
90
4
70
1
43
0.0
10
246.33395534534515
20
400.13683259045888
10
246.33395534534515
20
450.13683259045888
10
196.33395534534515
20
450.13683259045888
10
196.33395534534515
20
400.13683259045888
0
LINE
5
160
100
AcDbEntity
8
0
100
AcDbLine
10
146.33395534534543
20
550.13683259045865
30
0
11
196.33395534534543
21
550.13683259045865
31
0
0
LINE
5
161
100
AcDbEntity
8
0
100
AcDbLine
10
246.33395534534515
20
390.13683259045888
30
0
11
196.33395534534515
21
390.13683259045888
31
0
0
LINE
5
162
100
AcDbEntity
8
0
100
AcDbLine
10
246.33395534534486
20
250.13683259045899
30
0
11
196.33395534534515
21
250.13683259045899
31
0
0
LINE
5
163
100
AcDbEntity
8
0
100
AcDbLine
10
196.33395534534515
20
390.13683259045888
30
0
11
196.33395534534515
21
300.13683259045888
31
0
0
LINE
5
164
100
AcDbEntity
8
0
100
AcDbLine
10
246.33395534534515
20
600.13683259045865
30
0
11
146.33395534534543
21
600.13683259045865
31
0
0
LINE
5
165
100
AcDbEntity
8
0
100
AcDbLine
10
196.33395534534515
20
300.13683259045888
30
0
11
196.33395534534515
21
390.13683259045888
31
0
0
LINE
5
166
100
AcDbEntity
8
0
100
AcDbLine
10
246.33395534534515
20
460.13683259045888
30
0
11
196.33395534534543
21
460.13683259045888
31
0
0
LINE
5
167
100
AcDbEntity
8
0
100
AcDbLine
10
146.33395534534515
20
250.13683259045899
30
0
11
146.33395534534515
21
300.13683259045888
31
0
0
LINE
5
168
100
AcDbEntity
8
0
100
AcDbLine
10
196.33395534534543
20
600.13683259045865
30
0
11
246.33395534534515
21
600.13683259045865
31
0
0
LINE
5
169
100
AcDbEntity
8
0
100
AcDbLine
10
196.33395534534543
20
600.13683259045865
30
0
11
246.33395534534515
21
600.13683259045865
31
0
0
LINE
5
170
100
AcDbEntity
8
0
100
AcDbLine
10
196.33395534534515
20
400.13683259045888
30
0
11
196.33395534534515
21
450.13683259045888
31
0
0
LINE
5
171
100
AcDbEntity
8
0
100
AcDbLine
10
246.33395534534515
20
550.13683259045865
30
0
11
246.33395534534515
21
600.13683259045865
31
0
0
LINE
5
172
100
AcDbEntity
8
0
100
AcDbLine
10
246.33395534534515
20
600.13683259045865
30
0
11
246.33395534534515
21
460.13683259045888
31
0
0
LINE
5
173
100
AcDbEntity
8
0
100
AcDbLine
10
246.33395534534515
20
600.13683259045865
30
0
11
246.33395534534515
21
460.13683259045888
31
0
0
LINE
5
174
100
AcDbEntity
8
0
100
AcDbLine
10
246.33395534534486
20
250.13683259045899
30
0
11
246.33395534534515
21
390.13683259045888
31
0
0
LINE
5
175
100
AcDbEntity
8
0
100
AcDbLine
10
196.33395534534543
20
460.13683259045888
30
0
11
196.33395534534543
21
550.13683259045865
31
0
0
LINE
5
176
100
AcDbEntity
8
0
100
AcDbLine
10
246.33395534534515
20
450.13683259045888
30
0
11
246.33395534534515
21
400.13683259045888
31
0
0
LINE
5
177
100
AcDbEntity
8
0
100
AcDbLine
10
246.33395534534515
20
390.13683259045888
30
0
11
246.33395534534486
21
250.13683259045899
31
0
0
LINE
5
178
100
AcDbEntity
8
0
100
AcDbLine
10
196.33395534534543
20
460.13683259045888
30
0
11
196.33395534534543
21
550.13683259045865
31
0
0
LINE
5
179
100
AcDbEntity
8
0
100
AcDbLine
10
196.33395534534515
20
250.13683259045899
30
0
11
246.33395534534486
21
250.13683259045899
31
0
0
LINE
5
180
100
AcDbEntity
8
0
100
AcDbLine
10
146.33395534534543
20
600.13683259045865
30
0
11
146.33395534534543
21
550.13683259045865
31
0
0
LINE
5
181
100
AcDbEntity
8
0
100
AcDbLine
10
246.33395534534486
20
300.13683259045888
30
0
11
246.33395534534486
21
250.13683259045899
31
0
0
LWPOLYLINE
5
182
100
AcDbEntity
8
0
100
AcDbPolyline
90
10
70
1
43
0.0
10
1150.67289745584
20
1049.9999999999998
10
1650.67289745584
20
1049.9999999999998
10
1650.67289745584
20
999.99999999999989
10
1200.67289745584
20
999.99999999999989
10
1200.67289745584
20
649.99999999999989
10
1600.67289745584
20
649.99999999999989
10
1600.67289745584
20
599.99999999999989
10
1200.67289745584
20
599.99999999999989
10
1200.67289745584
20
49.999999999999858
10
1150.67289745584
20
49.999999999999858
0
LINE
5
183
100
AcDbEntity
8
0
100
AcDbLine
10
1150.67289745584
20
1049.9999999999998
30
0
11
1150.67289745584
21
999.99999999999989
31
0
0
LINE
5
184
100
AcDbEntity
8
0
100
AcDbLine
10
1150.67289745584
20
1049.9999999999998
30
0
11
1200.67289745584
21
1049.9999999999998
31
0
0
LINE
5
185
100
AcDbEntity
8
0
100
AcDbLine
10
1150.67289745584
20
599.99999999999989
30
0
11
1150.67289745584
21
649.99999999999989
31
0
0
LINE
5
186
100
AcDbEntity
8
0
100
AcDbLine
10
1250.67289745584
20
949.99999999999989
30
0
11
1300.67289745584
21
949.99999999999989
31
0
0
LWPOLYLINE
5
187
100
AcDbEntity
8
0
100
AcDbPolyline
90
12
70
1
43
0.0
10
1250.67289745584
20
699.99999999999989
10
1300.67289745584
20
699.99999999999989
10
1300.67289745584
20
799.99999999999989
10
1350.67289745584
20
799.99999999999989
10
1350.67289745584
20
699.99999999999989
10
1400.67289745584
20
699.99999999999989
10
1400.67289745584
20
870.05930175593494
10
1350.67289745584
20
870.05930175593494
10
1350.67289745584
20
849.99999999999989
10
1300.67289745584
20
849.99999999999989
10
1300.67289745584
20
870.05930175593494
10
1250.67289745584
20
870.05930175593494
0
LWPOLYLINE
5
188
100
AcDbEntity
8
0
100
AcDbPolyline
90
8
70
1
43
0.0
10
1400.67289745584
20
949.99999999999989
10
1250.67289745584
20
949.99999999999989
10
1250.67289745584
20
880.05930175593494
10
1300.67289745584
20
880.05930175593494
10
1300.67289745584
20
899.99999999999989
10
1350.67289745584
20
899.99999999999989
10
1350.67289745584
20
880.05930175593494
10
1400.67289745584
20
880.05930175593494
0
LINE
5
189
100
AcDbEntity
8
0
100
AcDbLine
10
1400.67289745584
20
949.99999999999989
30
0
11
1400.67289745584
21
899.99999999999989
31
0
0
LINE
5
190
100
AcDbEntity
8
0
100
AcDbLine
10
1250.67289745584
20
899.99999999999989
30
0
11
1250.67289745584
21
949.99999999999989
31
0
0
LINE
5
191
100
AcDbEntity
8
0
100
AcDbLine
10
1400.67289745584
20
949.99999999999989
30
0
11
1350.67289745584
21
949.99999999999989
31
0
0
LWPOLYLINE
5
192
100
AcDbEntity
8
0
100
AcDbPolyline
90
9
70
1
43
0.0
10
1500.67289745584
20
949.99999999999989
10
1450.67289745584
20
949.99999999999989
10
1450.67289745584
20
880.25935864971302
10
1500.67289745584
20
880.25935864971302
10
1500.67289745584
20
899.99999999999989
10
1600.67289745584
20
899.99999999999989
10
1600.67289745584
20
880.25935864971302
10
1650.67289745584
20
880.25935864971302
10
1650.67289745584
20
949.99999999999989
0
LINE
5
193
100
AcDbEntity
8
0
100
AcDbLine
10
1500.67289745584
20
699.99999999999989
30
0
11
1450.67289745584
21
699.99999999999989
31
0
0
LINE
5
194
100
AcDbEntity
8
0
100
AcDbLine
10
1650.67289745584
20
699.99999999999989
30
0
11
1500.67289745584
21
699.99999999999989
31
0
0
LWPOLYLINE
5
195
100
AcDbEntity
8
0
100
AcDbPolyline
90
12
70
1
43
0.0
10
1600.67289745584
20
849.99999999999989
10
1500.67289745584
20
849.99999999999989
10
1500.67289745584
20
870.25935864971302
10
1450.67289745584
20
870.25935864971302
10
1450.67289745584
20
779.83435595280935
10
1500.67289745584
20
779.83435595280935
10
1500.67289745584
20
799.99999999999989
10
1600.67289745584
20
799.99999999999989
10
1600.67289745584
20
779.83435595280935
10
1650.67289745584
20
779.83435595280935
10
1650.67289745584
20
870.25935864971302
10
1600.67289745584
20
870.25935864971302
0
LINE
5
196
100
AcDbEntity
8
0
100
AcDbLine
10
1500.67289745584
20
749.99999999999989
30
0
11
1600.67289745584
21
749.99999999999989
31
0
0
LWPOLYLINE
5
197
100
AcDbEntity
8
0
100
AcDbPolyline
90
6
70
1
43
0.0
10
1650.67289745584
20
549.99999999999989
10
1250.67289745584
20
549.99999999999989
10
1250.67289745584
20
49.999999999999858
10
1300.67289745584
20
49.999999999999858
10
1300.67289745584
20
499.99999999999989
10
1650.67289745584
20
499.99999999999989
0
LINE
5
198
100
AcDbEntity
8
0
100
AcDbLine
10
1250.67289745584
20
499.99999999999989
30
0
11
1250.67289745584
21
549.99999999999989
31
0
0
LINE
5
199
100
AcDbEntity
8
0
100
AcDbLine
10
1250.67289745584
20
549.99999999999989
30
0
11
1300.67289745584
21
549.99999999999989
31
0
0
LINE
5
200
100
AcDbEntity
8
0
100
AcDbLine
10
1650.67289745584
20
449.99999999999989
30
0
11
1650.67289745584
21
399.99999999999989
31
0
0
LWPOLYLINE
5
201
100
AcDbEntity
8
0
100
AcDbPolyline
90
12
70
1
43
0.0
10
1350.67289745584
20
449.99999999999989
10
1350.67289745584
20
399.99999999999989
10
1500.67289745584
20
399.99999999999989
10
1500.67289745584
20
349.99999999999989
10
1350.67289745584
20
349.99999999999989
10
1350.67289745584
20
299.99999999999989
10
1570
20
300
10
1570
20
349.99999999999989
10
1550.67289745584
20
349.99999999999989
10
1550.67289745584
20
399.99999999999989
10
1570
20
399.99999999999989
10
1570
20
450
0
LINE
5
202
100
AcDbEntity
8
0
100
AcDbLine
10
1650.67289745584
20
449.99999999999989
30
0
11
1600.67289745584
21
449.99999999999989
31
0
0
LWPOLYLINE
5
203
100
AcDbEntity
8
0
100
AcDbPolyline
90
8
70
1
43
0.0
10
1600.67289745584
20
349.99999999999989
10
1600.67289745584
20
399.99999999999989
10
1580
20
399.99999999999989
10
1580
20
450
10
1650.67289745584
20
449.99999999999989
10
1650.67289745584
20
299.99999999999989
10
1580
20
300
10
1580
20
349.99999999999989
0
LINE
5
204
100
AcDbEntity
8
0
100
AcDbLine
10
1600.67289745584
20
299.99999999999989
30
0
11
1650.67289745584
21
299.99999999999989
31
0
0
LINE
5
205
100
AcDbEntity
8
0
100
AcDbLine
10
1650.67289745584
20
349.99999999999989
30
0
11
1650.67289745584
21
299.99999999999989
31
0
0
LINE
5
206
100
AcDbEntity
8
0
100
AcDbLine
10
1550.67289745584
20
449.99999999999989
30
0
11
1500.67289745584
21
449.99999999999989
31
0
0
LINE
5
207
100
AcDbEntity
8
0
100
AcDbLine
10
1500.67289745584
20
299.99999999999989
30
0
11
1550.67289745584
21
299.99999999999989
31
0
0
LWPOLYLINE
5
208
100
AcDbEntity
8
0
100
AcDbPolyline
90
8
70
1
43
0.0
10
1650.67289745584
20
49.999999999999858
10
1650.67289745584
20
249.99999999999986
10
1580
20
250
10
1580
20
199.99999999999986
10
1600.67289745584
20
199.99999999999986
10
1600.67289745584
20
99.999999999999858
10
1580
20
99.999999999999858
10
1580
20
50
0
LWPOLYLINE
5
209
100
AcDbEntity
8
0
100
AcDbPolyline
90
8
70
1
43
0.0
10
1350.67289745584
20
249.99999999999986
10
1350.67289745584
20
49.999999999999858
10
1420
20
50
10
1420
20
99.999999999999858
10
1400.67289745584
20
99.999999999999858
10
1400.67289745584
20
199.99999999999986
10
1420
20
199.99999999999986
10
1420
20
250
0
LWPOLYLINE
5
210
100
AcDbEntity
8
0
100
AcDbPolyline
90
12
70
1
43
0.0
10
1550.67289745584
20
199.99999999999986
10
1550.67289745584
20
99.999999999999858
10
1570
20
99.999999999999858
10
1570
20
50
10
1430
20
50
10
1430
20
99.999999999999858
10
1450.67289745584
20
99.999999999999858
10
1450.67289745584
20
199.99999999999986
10
1430
20
199.99999999999986
10
1430
20
250
10
1570
20
250
10
1570
20
199.99999999999986
0
LINE
5
211
100
AcDbEntity
8
0
100
AcDbLine
10
1500.67289745584
20
849.99999999999989
30
0
11
1500.67289745584
21
870.25935864971302
31
0
0
LINE
5
212
100
AcDbEntity
8
0
100
AcDbLine
10
1500.67289745584
20
880.25935864971302
30
0
11
1500.67289745584
21
899.99999999999989
31
0
0
LINE
5
213
100
AcDbEntity
8
0
100
AcDbLine
10
1450.67289745584
20
880.25935864971302
30
0
11
1450.67289745584
21
949.99999999999989
31
0
0
LINE
5
214
100
AcDbEntity
8
0
100
AcDbLine
10
1450.67289745584
20
699.99999999999989
30
0
11
1450.67289745584
21
769.83435595280935
31
0
0
LINE
5
215
100
AcDbEntity
8
0
100
AcDbLine
10
1450.67289745584
20
699.99999999999989
30
0
11
1450.67289745584
21
769.83435595280935
31
0
0
LINE
5
216
100
AcDbEntity
8
0
100
AcDbLine
10
1450.67289745584
20
779.83435595280935
30
0
11
1450.67289745584
21
870.25935864971302
31
0
0
LINE
5
217
100
AcDbEntity
8
0
100
AcDbLine
10
1500.67289745584
20
769.83435595280935
30
0
11
1500.67289745584
21
749.99999999999989
31
0
0
LINE
5
218
100
AcDbEntity
8
0
100
AcDbLine
10
1500.67289745584
20
799.99999999999989
30
0
11
1500.67289745584
21
779.83435595280935
31
0
0
LINE
5
219
100
AcDbEntity
8
0
100
AcDbLine
10
1500.67289745584
20
769.83435595280935
30
0
11
1500.67289745584
21
749.99999999999989
31
0
0
LINE
5
220
100
AcDbEntity
8
0
100
AcDbLine
10
1500.67289745584
20
749.99999999999989
30
0
11
1500.67289745584
21
769.83435595280935
31
0
0
LINE
5
221
100
AcDbEntity
8
0
100
AcDbLine
10
1500.67289745584
20
779.83435595280935
30
0
11
1500.67289745584
21
799.99999999999989
31
0
0
LINE
5
222
100
AcDbEntity
8
0
100
AcDbLine
10
1650.67289745584
20
769.83435595280935
30
0
11
1600.67289745584
21
769.83435595280935
31
0
0
LINE
5
223
100
AcDbEntity
8
0
100
AcDbLine
10
1500.67289745584
20
769.83435595280935
30
0
11
1450.67289745584
21
769.83435595280935
31
0
0
LINE
5
224
100
AcDbEntity
8
0
100
AcDbLine
10
1600.67289745584
20
749.99999999999989
30
0
11
1600.67289745584
21
769.83435595280935
31
0
0
LINE
5
225
100
AcDbEntity
8
0
100
AcDbLine
10
1650.67289745584
20
769.83435595280935
30
0
11
1650.67289745584
21
699.99999999999989
31
0
0
LINE
5
226
100
AcDbEntity
8
0
100
AcDbLine
10
475.5143466234365
20
1047.0720618954426
30
0
11
546.84475046118337
21
1047.0720618954426
31
0
0
LINE
5
227
100
AcDbEntity
8
0
100
AcDbLine
10
496.84475046118337
20
997.07206189544263
30
0
11
475.5143466234365
21
997.07206189544263
31
0
0
LINE
5
228
100
AcDbEntity
8
0
100
AcDbLine
10
475.5143466234365
20
947.07206189544263
30
0
11
496.84475046118337
21
947.07206189544263
31
0
0
LINE
5
229
100
AcDbEntity
8
0
100
AcDbLine
10
496.84475046118337
20
897.07206189544263
30
0
11
475.5143466234365
21
897.07206189544263
31
0
0
LINE
5
230
100
AcDbEntity
8
0
100
AcDbLine
10
475.5143466234365
20
897.07206189544263
30
0
11
475.5143466234365
21
947.07206189544263
31
0
0
LINE
5
231
100
AcDbEntity
8
0
100
AcDbLine
10
475.5143466234365
20
997.07206189544263
30
0
11
475.5143466234365
21
1047.0720618954426
31
0
0
LINE
5
232
100
AcDbEntity
8
0
100
AcDbLine
10
596.84475046118337
20
1097.0720618954426
30
0
11
608.0447504611833
21
1097.0720618954426
31
0
0
LINE
5
233
100
AcDbEntity
8
0
100
AcDbLine
10
608.0447504611833
20
1097.0720618954426
30
0
11
608.0447504611833
21
897.07206189544263
31
0
0
LINE
5
234
100
AcDbEntity
8
0
100
AcDbLine
10
608.0447504611833
20
897.07206189544263
30
0
11
596.84475046118337
21
897.07206189544263
31
0
0
LINE
5
235
100
AcDbEntity
8
0
100
AcDbLine
10
596.84475046118337
20
897.07206189544263
30
0
11
608.0447504611833
21
897.07206189544263
31
0
0
LINE
5
236
100
AcDbEntity
8
0
100
AcDbLine
10
608.0447504611833
20
697.07206189544263
30
0
11
596.84475046118337
21
697.07206189544263
31
0
0
LINE
5
237
100
AcDbEntity
8
0
100
AcDbLine
10
596.84475046118337
20
697.07206189544263
30
0
11
596.84475046118337
21
897.07206189544263
31
0
0
LINE
5
238
100
AcDbEntity
8
0
100
AcDbLine
10
596.84475046118337
20
697.07206189544263
30
0
11
608.0447504611833
21
697.07206189544263
31
0
0
LINE
5
239
100
AcDbEntity
8
0
100
AcDbLine
10
608.0447504611833
20
697.07206189544263
30
0
11
608.0447504611833
21
497.07206189544263
31
0
0
LINE
5
240
100
AcDbEntity
8
0
100
AcDbLine
10
608.0447504611833
20
497.07206189544263
30
0
11
596.84475046118337
21
497.07206189544263
31
0
0
LINE
5
241
100
AcDbEntity
8
0
100
AcDbLine
10
596.84475046118337
20
497.07206189544263
30
0
11
608.0447504611833
21
497.07206189544263
31
0
0
LINE
5
242
100
AcDbEntity
8
0
100
AcDbLine
10
608.0447504611833
20
297.07206189544263
30
0
11
596.84475046118337
21
297.07206189544263
31
0
0
LINE
5
243
100
AcDbEntity
8
0
100
AcDbLine
10
596.84475046118337
20
297.07206189544263
30
0
11
596.84475046118337
21
497.07206189544263
31
0
0
LINE
5
244
100
AcDbEntity
8
0
100
AcDbLine
10
596.84475046118337
20
297.07206189544263
30
0
11
608.0447504611833
21
297.07206189544263
31
0
0
LINE
5
245
100
AcDbEntity
8
0
100
AcDbLine
10
608.0447504611833
20
297.07206189544263
30
0
11
608.0447504611833
21
97.072061895442658
31
0
0
LINE
5
246
100
AcDbEntity
8
0
100
AcDbLine
10
608.0447504611833
20
97.072061895442658
30
0
11
596.84475046118337
21
97.072061895442658
31
0
0
LINE
5
247
100
AcDbEntity
8
0
100
AcDbLine
10
596.84475046118337
20
697.07206189544263
30
0
11
596.84475046118337
21
897.07206189544263
31
0
0
LINE
5
248
100
AcDbEntity
8
0
100
AcDbLine
10
596.84475046118337
20
897.07206189544263
30
0
11
596.84475046118337
21
697.07206189544263
31
0
0
LINE
5
249
100
AcDbEntity
8
0
100
AcDbLine
10
596.84475046118337
20
497.07206189544263
30
0
11
596.84475046118337
21
297.07206189544263
31
0
0
LINE
5
250
100
AcDbEntity
8
0
100
AcDbLine
10
596.84475046118337
20
97.072061895442658
30
0
11
596.84475046118337
21
-2.9279381045573416
31
0
0
LINE
5
251
100
AcDbEntity
8
0
100
AcDbLine
10
596.84475046118337
20
0
30
0
11
596.84475046118337
21
97.072061895442658
31
0
0
LINE
5
252
100
AcDbEntity
8
0
100
AcDbLine
10
596.84475046118337
20
297.07206189544263
30
0
11
596.84475046118337
21
497.07206189544263
31
0
0
LINE
5
253
100
AcDbEntity
8
0
100
AcDbLine
10
-3.1552495388166335
20
1097.0720618954426
30
0
11
-14.355249538816633
21
1097.0720618954426
31
0
0
LINE
5
254
100
AcDbEntity
8
0
100
AcDbLine
10
-14.355249538816633
20
1097.0720618954426
30
0
11
-14.355249538816633
21
897.07206189544263
31
0
0
LINE
5
255
100
AcDbEntity
8
0
100
AcDbLine
10
-14.355249538816633
20
897.07206189544263
30
0
11
-3.1552495388166335
21
897.07206189544263
31
0
0
LINE
5
256
100
AcDbEntity
8
0
100
AcDbLine
10
-14.355249538816633
20
897.07206189544263
30
0
11
-3.1552495388166335
21
897.07206189544263
31
0
0
LINE
5
257
100
AcDbEntity
8
0
100
AcDbLine
10
-3.1552495388166335
20
897.07206189544263
30
0
11
-3.1552495388166335
21
697.07206189544263
31
0
0
LINE
5
258
100
AcDbEntity
8
0
100
AcDbLine
10
-3.1552495388166335
20
697.07206189544263
30
0
11
-14.355249538816633
21
697.07206189544263
31
0
0
LINE
5
259
100
AcDbEntity
8
0
100
AcDbLine
10
-14.355249538816633
20
697.07206189544263
30
0
11
-3.1552495388166335
21
697.07206189544263
31
0
0
LINE
5
260
100
AcDbEntity
8
0
100
AcDbLine
10
-3.1552495388166335
20
497.07206189544263
30
0
11
-14.355249538816633
21
497.07206189544263
31
0
0
LINE
5
261
100
AcDbEntity
8
0
100
AcDbLine
10
-14.355249538816633
20
497.07206189544263
30
0
11
-14.355249538816633
21
697.07206189544263
31
0
0
LINE
5
262
100
AcDbEntity
8
0
100
AcDbLine
10
-14.355249538816633
20
497.07206189544263
30
0
11
-3.1552495388166335
21
497.07206189544263
31
0
0
LINE
5
263
100
AcDbEntity
8
0
100
AcDbLine
10
-3.1552495388166335
20
497.07206189544263
30
0
11
-3.1552495388166335
21
297.07206189544263
31
0
0
LINE
5
264
100
AcDbEntity
8
0
100
AcDbLine
10
-3.1552495388166335
20
297.07206189544263
30
0
11
-14.355249538816633
21
297.07206189544263
31
0
0
LINE
5
265
100
AcDbEntity
8
0
100
AcDbLine
10
-14.355249538816633
20
297.07206189544263
30
0
11
-3.1552495388166335
21
297.07206189544263
31
0
0
LINE
5
266
100
AcDbEntity
8
0
100
AcDbLine
10
-3.1552495388166335
20
97.072061895442658
30
0
11
-14.355249538816633
21
97.072061895442658
31
0
0
LINE
5
267
100
AcDbEntity
8
0
100
AcDbLine
10
-14.355249538816633
20
97.072061895442658
30
0
11
-14.355249538816633
21
297.07206189544263
31
0
0
LINE
5
268
100
AcDbEntity
8
0
100
AcDbLine
10
-3.1552495388166335
20
697.07206189544263
30
0
11
-3.1552495388166335
21
897.07206189544263
31
0
0
LINE
5
269
100
AcDbEntity
8
0
100
AcDbLine
10
-3.1552495388166335
20
697.07206189544263
30
0
11
-3.1552495388166335
21
897.07206189544263
31
0
0
LINE
5
270
100
AcDbEntity
8
0
100
AcDbLine
10
-3.1552495388166335
20
0
30
0
11
-3.1552495388166335
21
97.072061895442658
31
0
0
LINE
5
271
100
AcDbEntity
8
0
100
AcDbLine
10
-3.1552495388166335
20
297.07206189544263
30
0
11
-3.1552495388166335
21
497.07206189544263
31
0
0
LINE
5
272
100
AcDbEntity
8
0
100
AcDbLine
10
-3.1552495388166335
20
-2.9279381045573416
30
0
11
-3.1552495388166335
21
97.072061895442658
31
0
0
LINE
5
273
100
AcDbEntity
8
0
100
AcDbLine
10
-3.1552495388166335
20
297.07206189544263
30
0
11
-3.1552495388166335
21
497.07206189544263
31
0
0
LINE
5
274
100
AcDbEntity
8
0
100
AcDbLine
10
1100.67289745584
20
1099.9999999999998
30
0
11
1089.4728974558398
21
1099.9999999999998
31
0
0
LINE
5
275
100
AcDbEntity
8
0
100
AcDbLine
10
1089.4728974558398
20
1099.9999999999998
30
0
11
1089.4728974558398
21
899.99999999999989
31
0
0
LINE
5
276
100
AcDbEntity
8
0
100
AcDbLine
10
1089.4728974558398
20
899.99999999999989
30
0
11
1100.67289745584
21
899.99999999999989
31
0
0
LINE
5
277
100
AcDbEntity
8
0
100
AcDbLine
10
1089.4728974558398
20
899.99999999999989
30
0
11
1100.67289745584
21
899.99999999999989
31
0
0
LINE
5
278
100
AcDbEntity
8
0
100
AcDbLine
10
1100.67289745584
20
899.99999999999989
30
0
11
1100.67289745584
21
699.99999999999989
31
0
0
LINE
5
279
100
AcDbEntity
8
0
100
AcDbLine
10
1100.67289745584
20
699.99999999999989
30
0
11
1089.4728974558398
21
699.99999999999989
31
0
0
LINE
5
280
100
AcDbEntity
8
0
100
AcDbLine
10
1089.4728974558398
20
699.99999999999989
30
0
11
1100.67289745584
21
699.99999999999989
31
0
0
LINE
5
281
100
AcDbEntity
8
0
100
AcDbLine
10
1100.67289745584
20
499.99999999999989
30
0
11
1089.4728974558398
21
499.99999999999989
31
0
0
LINE
5
282
100
AcDbEntity
8
0
100
AcDbLine
10
1089.4728974558398
20
499.99999999999989
30
0
11
1089.4728974558398
21
699.99999999999989
31
0
0
LINE
5
283
100
AcDbEntity
8
0
100
AcDbLine
10
1089.4728974558398
20
499.99999999999989
30
0
11
1100.67289745584
21
499.99999999999989
31
0
0
LINE
5
284
100
AcDbEntity
8
0
100
AcDbLine
10
1100.67289745584
20
499.99999999999989
30
0
11
1100.67289745584
21
299.99999999999989
31
0
0
LINE
5
285
100
AcDbEntity
8
0
100
AcDbLine
10
1100.67289745584
20
299.99999999999989
30
0
11
1089.4728974558398
21
299.99999999999989
31
0
0
LINE
5
286
100
AcDbEntity
8
0
100
AcDbLine
10
1089.4728974558398
20
299.99999999999989
30
0
11
1100.67289745584
21
299.99999999999989
31
0
0
LINE
5
287
100
AcDbEntity
8
0
100
AcDbLine
10
1100.67289745584
20
99.999999999999886
30
0
11
1089.4728974558398
21
99.999999999999886
31
0
0
LINE
5
288
100
AcDbEntity
8
0
100
AcDbLine
10
1089.4728974558398
20
99.999999999999886
30
0
11
1089.4728974558398
21
299.99999999999989
31
0
0
LINE
5
289
100
AcDbEntity
8
0
100
AcDbLine
10
1700.67289745584
20
1099.9999999999998
30
0
11
1711.8728974558398
21
1099.9999999999998
31
0
0
LINE
5
290
100
AcDbEntity
8
0
100
AcDbLine
10
1711.8728974558398
20
1099.9999999999998
30
0
11
1711.8728974558398
21
899.99999999999989
31
0
0
LINE
5
291
100
AcDbEntity
8
0
100
AcDbLine
10
1711.8728974558398
20
899.99999999999989
30
0
11
1700.67289745584
21
899.99999999999989
31
0
0
LINE
5
292
100
AcDbEntity
8
0
100
AcDbLine
10
1700.67289745584
20
899.99999999999989
30
0
11
1711.8728974558398
21
899.99999999999989
31
0
0
LINE
5
293
100
AcDbEntity
8
0
100
AcDbLine
10
1711.8728974558398
20
699.99999999999989
30
0
11
1700.67289745584
21
699.99999999999989
31
0
0
LINE
5
294
100
AcDbEntity
8
0
100
AcDbLine
10
1700.67289745584
20
699.99999999999989
30
0
11
1711.8728974558398
21
699.99999999999989
31
0
0
LINE
5
295
100
AcDbEntity
8
0
100
AcDbLine
10
1711.8728974558398
20
699.99999999999989
30
0
11
1711.8728974558398
21
499.99999999999989
31
0
0
LINE
5
296
100
AcDbEntity
8
0
100
AcDbLine
10
1711.8728974558398
20
499.99999999999989
30
0
11
1700.67289745584
21
499.99999999999989
31
0
0
LINE
5
297
100
AcDbEntity
8
0
100
AcDbLine
10
1700.67289745584
20
499.99999999999989
30
0
11
1711.8728974558398
21
499.99999999999989
31
0
0
LINE
5
298
100
AcDbEntity
8
0
100
AcDbLine
10
1711.8728974558398
20
299.99999999999989
30
0
11
1700.67289745584
21
299.99999999999989
31
0
0
LINE
5
299
100
AcDbEntity
8
0
100
AcDbLine
10
1700.67289745584
20
299.99999999999989
30
0
11
1700.67289745584
21
499.99999999999989
31
0
0
LINE
5
300
100
AcDbEntity
8
0
100
AcDbLine
10
1700.67289745584
20
299.99999999999989
30
0
11
1711.8728974558398
21
299.99999999999989
31
0
0
LINE
5
301
100
AcDbEntity
8
0
100
AcDbLine
10
1711.8728974558398
20
299.99999999999989
30
0
11
1711.8728974558398
21
99.999999999999858
31
0
0
LINE
5
302
100
AcDbEntity
8
0
100
AcDbLine
10
1711.8728974558398
20
99.999999999999858
30
0
11
1700.67289745584
21
99.999999999999858
31
0
0
LINE
5
303
100
AcDbEntity
8
0
100
AcDbLine
10
1700.67289745584
20
899.99999999999989
30
0
11
1700.67289745584
21
699.99999999999989
31
0
0
LINE
5
304
100
AcDbEntity
8
0
100
AcDbLine
10
1700.67289745584
20
499.99999999999989
30
0
11
1700.67289745584
21
299.99999999999989
31
0
0
LINE
5
305
100
AcDbEntity
8
0
100
AcDbLine
10
1700.67289745584
20
99.999999999999858
30
0
11
1700.67289745584
21
-1.4210854715202004e-13
31
0
0
LINE
5
306
100
AcDbEntity
8
0
100
AcDbLine
10
1100.67289745584
20
-1.4210854715202004e-13
30
0
11
1100.67289745584
21
99.999999999999886
31
0
0
LINE
5
307
100
AcDbEntity
8
0
100
AcDbLine
10
1100.67289745584
20
299.99999999999989
30
0
11
1100.67289745584
21
499.99999999999989
31
0
0
LINE
5
308
100
AcDbEntity
8
0
100
AcDbLine
10
1100.67289745584
20
699.99999999999989
30
0
11
1100.67289745584
21
899.99999999999989
31
0
0
LINE
5
309
100
AcDbEntity
8
0
100
AcDbLine
10
-3.1552495388166335
20
-2.9279381045573416
30
0
11
66.844750461183366
21
-2.9279381045573416
31
0
0
LINE
5
310
100
AcDbEntity
8
0
100
AcDbLine
10
266.84475046118337
20
-2.9279381045573416
30
0
11
266.84475046118337
21
-14.127938104557341
31
0
0
LINE
5
311
100
AcDbEntity
8
0
100
AcDbLine
10
266.84475046118337
20
-14.127938104557341
30
0
11
66.844750461183366
21
-14.127938104557341
31
0
0
LINE
5
312
100
AcDbEntity
8
0
100
AcDbLine
10
66.844750461183366
20
-14.127938104557341
30
0
11
66.844750461183366
21
-2.9279381045573416
31
0
0
LINE
5
313
100
AcDbEntity
8
0
100
AcDbLine
10
266.84475046118337
20
-2.9279381045573416
30
0
11
326.84475046118337
21
-2.9279381045573416
31
0
0
LINE
5
314
100
AcDbEntity
8
0
100
AcDbLine
10
526.84475046118337
20
-2.9279381045573416
30
0
11
526.84475046118337
21
-14.127938104557341
31
0
0
LINE
5
315
100
AcDbEntity
8
0
100
AcDbLine
10
526.84475046118337
20
-14.127938104557341
30
0
11
326.84475046118337
21
-14.127938104557341
31
0
0
LINE
5
316
100
AcDbEntity
8
0
100
AcDbLine
10
326.84475046118337
20
-14.127938104557341
30
0
11
326.84475046118337
21
-2.9279381045573416
31
0
0
LINE
5
317
100
AcDbEntity
8
0
100
AcDbLine
10
596.84475046118337
20
-2.9279381045573416
30
0
11
526.84475046118337
21
-2.9279381045573416
31
0
0
LINE
5
318
100
AcDbEntity
8
0
100
AcDbLine
10
326.84475046118337
20
-2.9279381045573416
30
0
11
266.84475046118337
21
-2.9279381045573416
31
0
0
LINE
5
319
100
AcDbEntity
8
0
100
AcDbLine
10
66.844750461183366
20
-2.9279381045573416
30
0
11
-3.1552495388166335
21
-2.9279381045573416
31
0
0
LINE
5
320
100
AcDbEntity
8
0
100
AcDbLine
10
1100.67289745584
20
-1.4210854715202004e-13
30
0
11
1170.67289745584
21
-1.4210854715202004e-13
31
0
0
LINE
5
321
100
AcDbEntity
8
0
100
AcDbLine
10
1370.67289745584
20
-1.4210854715202004e-13
30
0
11
1370.67289745584
21
-11.200000000000141
31
0
0
LINE
5
322
100
AcDbEntity
8
0
100
AcDbLine
10
1370.67289745584
20
-11.200000000000141
30
0
11
1170.67289745584
21
-11.200000000000141
31
0
0
LINE
5
323
100
AcDbEntity
8
0
100
AcDbLine
10
1170.67289745584
20
-11.200000000000141
30
0
11
1170.67289745584
21
-1.4210854715202004e-13
31
0
0
LINE
5
324
100
AcDbEntity
8
0
100
AcDbLine
10
1370.67289745584
20
-1.4210854715202004e-13
30
0
11
1430.67289745584
21
-1.4210854715202004e-13
31
0
0
LINE
5
325
100
AcDbEntity
8
0
100
AcDbLine
10
1630.67289745584
20
-1.4210854715202004e-13
30
0
11
1630.67289745584
21
-11.200000000000141
31
0
0
LINE
5
326
100
AcDbEntity
8
0
100
AcDbLine
10
1630.67289745584
20
-11.200000000000141
30
0
11
1430.67289745584
21
-11.200000000000141
31
0
0
LINE
5
327
100
AcDbEntity
8
0
100
AcDbLine
10
1430.67289745584
20
-11.200000000000141
30
0
11
1430.67289745584
21
-1.4210854715202004e-13
31
0
0
LINE
5
328
100
AcDbEntity
8
0
100
AcDbLine
10
1700.67289745584
20
-1.4210854715202004e-13
30
0
11
1630.67289745584
21
-1.4210854715202004e-13
31
0
0
LINE
5
329
100
AcDbEntity
8
0
100
AcDbLine
10
1430.67289745584
20
-1.4210854715202004e-13
30
0
11
1370.67289745584
21
-1.4210854715202004e-13
31
0
0
LINE
5
330
100
AcDbEntity
8
0
100
AcDbLine
10
1170.67289745584
20
-1.4210854715202004e-13
30
0
11
1100.67289745584
21
-1.4210854715202004e-13
31
0
0
LINE
5
331
100
AcDbEntity
8
0
100
AcDbLine
10
-3.1552495388166335
20
1097.0720618954426
30
0
11
66.844750461183366
21
1097.0720618954426
31
0
0
LINE
5
332
100
AcDbEntity
8
0
100
AcDbLine
10
266.84475046118337
20
1097.0720618954426
30
0
11
266.84475046118337
21
1108.2720618954427
31
0
0
LINE
5
333
100
AcDbEntity
8
0
100
AcDbLine
10
266.84475046118337
20
1108.2720618954427
30
0
11
66.844750461183366
21
1108.2720618954427
31
0
0
LINE
5
334
100
AcDbEntity
8
0
100
AcDbLine
10
66.844750461183366
20
1108.2720618954427
30
0
11
66.844750461183366
21
1097.0720618954426
31
0
0
LINE
5
335
100
AcDbEntity
8
0
100
AcDbLine
10
266.84475046118337
20
1102.6720618954428
30
0
11
326.84475046118337
21
1102.6720618954428
31
0
0
LINE
5
336
100
AcDbEntity
8
0
100
AcDbLine
10
526.84475046118337
20
1097.0720618954426
30
0
11
526.84475046118337
21
1108.2720618954427
31
0
0
LINE
5
337
100
AcDbEntity
8
0
100
AcDbLine
10
526.84475046118337
20
1108.2720618954427
30
0
11
326.84475046118337
21
1108.2720618954427
31
0
0
LINE
5
338
100
AcDbEntity
8
0
100
AcDbLine
10
326.84475046118337
20
1108.2720618954427
30
0
11
326.84475046118337
21
1097.0720618954426
31
0
0
LINE
5
339
100
AcDbEntity
8
0
100
AcDbLine
10
526.84475046118337
20
1097.0720618954426
30
0
11
596.84475046118337
21
1097.0720618954426
31
0
0
LINE
5
340
100
AcDbEntity
8
0
100
AcDbLine
10
-3.1552495388166335
20
1097.0720618954426
30
0
11
66.844750461183366
21
1097.0720618954426
31
0
0
LINE
5
341
100
AcDbEntity
8
0
100
AcDbLine
10
266.84475046118337
20
1097.0720618954426
30
0
11
326.84475046118337
21
1097.0720618954426
31
0
0
LINE
5
342
100
AcDbEntity
8
0
100
AcDbLine
10
1100.67289745584
20
1099.9999999999998
30
0
11
1170.67289745584
21
1099.9999999999998
31
0
0
LINE
5
343
100
AcDbEntity
8
0
100
AcDbLine
10
1370.67289745584
20
1099.9999999999998
30
0
11
1370.67289745584
21
1111.1999999999998
31
0
0
LINE
5
344
100
AcDbEntity
8
0
100
AcDbLine
10
1370.67289745584
20
1111.1999999999998
30
0
11
1170.67289745584
21
1111.1999999999998
31
0
0
LINE
5
345
100
AcDbEntity
8
0
100
AcDbLine
10
1170.67289745584
20
1111.1999999999998
30
0
11
1170.67289745584
21
1099.9999999999998
31
0
0
LINE
5
346
100
AcDbEntity
8
0
100
AcDbLine
10
1370.67289745584
20
1099.9999999999998
30
0
11
1430.67289745584
21
1099.9999999999998
31
0
0
LINE
5
347
100
AcDbEntity
8
0
100
AcDbLine
10
1630.67289745584
20
1099.9999999999998
30
0
11
1630.67289745584
21
1111.1999999999998
31
0
0
LINE
5
348
100
AcDbEntity
8
0
100
AcDbLine
10
1630.67289745584
20
1111.1999999999998
30
0
11
1430.67289745584
21
1111.1999999999998
31
0
0
LINE
5
349
100
AcDbEntity
8
0
100
AcDbLine
10
1430.67289745584
20
1111.1999999999998
30
0
11
1430.67289745584
21
1099.9999999999998
31
0
0
LINE
5
350
100
AcDbEntity
8
0
100
AcDbLine
10
1630.67289745584
20
1099.9999999999998
30
0
11
1700.67289745584
21
1099.9999999999998
31
0
0
LINE
5
351
100
AcDbEntity
8
0
100
AcDbLine
10
1100.67289745584
20
1099.9999999999998
30
0
11
1170.67289745584
21
1099.9999999999998
31
0
0
LINE
5
352
100
AcDbEntity
8
0
100
AcDbLine
10
1370.67289745584
20
1099.9999999999998
30
0
11
1430.67289745584
21
1099.9999999999998
31
0
0
LINE
5
353
100
AcDbEntity
8
0
100
AcDbLine
10
2841.09375
20
-2.2884560116830936e-14
30
0
11
2841.09375
21
-11.200000000000024
31
0
0
LINE
5
354
100
AcDbEntity
8
0
100
AcDbLine
10
2841.09375
20
-11.200000000000024
30
0
11
2671.09375
21
-11.200000000000024
31
0
0
LINE
5
355
100
AcDbEntity
8
0
100
AcDbLine
10
2671.09375
20
-11.200000000000024
30
0
11
2671.09375
21
-2.2884560116830955e-14
31
0
0
LINE
5
356
100
AcDbEntity
8
0
100
AcDbLine
10
2606.09375
20
-4.8528404697509354e-15
30
0
11
2671.09375
21
-2.2884560116830955e-14
31
0
0
LINE
5
357
100
AcDbEntity
8
0
100
AcDbLine
10
2841.09375
20
-2.2884560116830936e-14
30
0
11
2906.09375
21
-4.8528404697509354e-15
31
0
0
LINE
5
358
100
AcDbEntity
8
0
100
AcDbLine
10
2841.09375
20
1100
30
0
11
2841.09375
21
1111.2
31
0
0
LINE
5
359
100
AcDbEntity
8
0
100
AcDbLine
10
2841.09375
20
1111.2
30
0
11
2671.09375
21
1111.2
31
0
0
LINE
5
360
100
AcDbEntity
8
0
100
AcDbLine
10
2671.09375
20
1111.2
30
0
11
2671.09375
21
1100
31
0
0
LINE
5
361
100
AcDbEntity
8
0
100
AcDbLine
10
2906.09375
20
1100
30
0
11
2841.09375
21
1100
31
0
0
LINE
5
362
100
AcDbEntity
8
0
100
AcDbLine
10
2671.09375
20
1100
30
0
11
2606.09375
21
1100
31
0
0
LINE
5
363
100
AcDbEntity
8
0
100
AcDbLine
10
2594.8937500000002
20
909.25
30
0
11
2606.09375
21
909.25
31
0
0
LINE
5
364
100
AcDbEntity
8
0
100
AcDbLine
10
2606.09375
20
909.25
30
0
11
2606.09375
21
1100
31
0
0
LINE
5
365
100
AcDbEntity
8
0
100
AcDbLine
10
2594.8937500000002
20
909.25
30
0
11
2606.09375
21
909.25
31
0
0
LINE
5
366
100
AcDbEntity
8
0
100
AcDbLine
10
2606.09375
20
708.99999999999989
30
0
11
2594.8937500000002
21
708.99999999999989
31
0
0
LINE
5
367
100
AcDbEntity
8
0
100
AcDbLine
10
2594.8937500000002
20
708.99999999999989
30
0
11
2594.8937500000002
21
909.25
31
0
0
LINE
5
368
100
AcDbEntity
8
0
100
AcDbLine
10
2594.8937500000002
20
708.99999999999989
30
0
11
2606.09375
21
708.99999999999989
31
0
0
LINE
5
369
100
AcDbEntity
8
0
100
AcDbLine
10
2606.09375
20
708.99999999999989
30
0
11
2606.09375
21
518.24999999999989
31
0
0
LINE
5
370
100
AcDbEntity
8
0
100
AcDbLine
10
2606.09375
20
518.24999999999989
30
0
11
2594.8937500000002
21
518.24999999999989
31
0
0
LINE
5
371
100
AcDbEntity
8
0
100
AcDbLine
10
2594.8937500000002
20
518.24999999999989
30
0
11
2606.09375
21
518.24999999999989
31
0
0
LINE
5
372
100
AcDbEntity
8
0
100
AcDbLine
10
2600
20
317.99999999999989
30
0
11
2594.8937500000002
21
317.99999999999989
31
0
0
LINE
5
373
100
AcDbEntity
8
0
100
AcDbLine
10
2594.8937500000002
20
317.99999999999989
30
0
11
2594.8937500000002
21
518.24999999999989
31
0
0
LINE
5
374
100
AcDbEntity
8
0
100
AcDbLine
10
2594.8937500000002
20
317.99999999999989
30
0
11
2606.09375
21
317.99999999999989
31
0
0
LINE
5
375
100
AcDbEntity
8
0
100
AcDbLine
10
2606.09375
20
317.99999999999989
30
0
11
2606.09375
21
127.24999999999987
31
0
0
LINE
5
376
100
AcDbEntity
8
0
100
AcDbLine
10
2606.09375
20
127.24999999999987
30
0
11
2594.8937500000002
21
127.24999999999987
31
0
0
LINE
5
377
100
AcDbEntity
8
0
100
AcDbLine
10
2594.8937500000002
20
127.24999999999987
30
0
11
2600
21
127.24999999999987
31
0
0
LINE
5
378
100
AcDbEntity
8
0
100
AcDbLine
10
2606.09375
20
-4.8528404697509472e-15
30
0
11
2594.8937500000002
21
-4.8528404697509512e-15
31
0
0
LINE
5
379
100
AcDbEntity
8
0
100
AcDbLine
10
2594.8937500000002
20
-4.8528404697509512e-15
30
0
11
2594.8937500000002
21
127.24999999999987
31
0
0
LINE
5
380
100
AcDbEntity
8
0
100
AcDbLine
10
2906.09375
20
1100
30
0
11
2917.2937499999998
21
1100
31
0
0
LINE
5
381
100
AcDbEntity
8
0
100
AcDbLine
10
2911.1999999999998
20
909.25
30
0
11
2906.09375
21
909.25
31
0
0
LINE
5
382
100
AcDbEntity
8
0
100
AcDbLine
10
2906.09375
20
909.25
30
0
11
2906.09375
21
1100
31
0
0
LINE
5
383
100
AcDbEntity
8
0
100
AcDbLine
10
2906.09375
20
909.25
30
0
11
2917.2937499999998
21
909.25
31
0
0
LINE
5
384
100
AcDbEntity
8
0
100
AcDbLine
10
2917.2937499999998
20
909.25
30
0
11
2917.2937499999998
21
708.99999999999989
31
0
0
LINE
5
385
100
AcDbEntity
8
0
100
AcDbLine
10
2917.2937499999998
20
708.99999999999989
30
0
11
2906.09375
21
708.99999999999989
31
0
0
LINE
5
386
100
AcDbEntity
8
0
100
AcDbLine
10
2906.09375
20
708.99999999999989
30
0
11
2917.2937499999998
21
708.99999999999989
31
0
0
LINE
5
387
100
AcDbEntity
8
0
100
AcDbLine
10
2911.1999999999998
20
518.24999999999989
30
0
11
2906.09375
21
518.25
31
0
0
LINE
5
388
100
AcDbEntity
8
0
100
AcDbLine
10
2906.09375
20
518.25
30
0
11
2906.09375
21
708.99999999999989
31
0
0
LINE
5
389
100
AcDbEntity
8
0
100
AcDbLine
10
2906.09375
20
518.25
30
0
11
2917.2937499999998
21
518.25
31
0
0
LINE
5
390
100
AcDbEntity
8
0
100
AcDbLine
10
2917.2937499999998
20
518.25
30
0
11
2917.2937499999998
21
318
31
0
0
LINE
5
391
100
AcDbEntity
8
0
100
AcDbLine
10
2917.2937499999998
20
318
30
0
11
2906.09375
21
318
31
0
0
LINE
5
392
100
AcDbEntity
8
0
100
AcDbLine
10
2917.2937499999998
20
318
30
0
11
2906.09375
21
318
31
0
0
LINE
5
393
100
AcDbEntity
8
0
100
AcDbLine
10
2906.09375
20
318
30
0
11
2906.09375
21
127.25000000000003
31
0
0
LINE
5
394
100
AcDbEntity
8
0
100
AcDbLine
10
2906.09375
20
127.25000000000003
30
0
11
2917.2937499999998
21
127.25000000000003
31
0
0
LINE
5
395
100
AcDbEntity
8
0
100
AcDbLine
10
2606.09375
20
1100
30
0
11
2606.09375
21
909.25
31
0
0
LINE
5
396
100
AcDbEntity
8
0
100
AcDbLine
10
2606.09375
20
708.99999999999989
30
0
11
2606.09375
21
518.24999999999989
31
0
0
LINE
5
397
100
AcDbEntity
8
0
100
AcDbLine
10
2906.09375
20
127.25000000000003
30
0
11
2917.2937499999998
21
127.25000000000003
31
0
0
LINE
5
398
100
AcDbEntity
8
0
100
AcDbLine
10
2917.2937499999998
20
127.25000000000003
30
0
11
2917.2937499999998
21
0
31
0
0
LINE
5
399
100
AcDbEntity
8
0
100
AcDbLine
10
2917.2937499999998
20
0
30
0
11
2900
21
0
31
0
0
LINE
5
400
100
AcDbEntity
8
0
100
AcDbLine
10
2906.09375
20
127.25000000000003
30
0
11
2906.09375
21
318
31
0
0
LINE
5
401
100
AcDbEntity
8
0
100
AcDbLine
10
2906.09375
20
518.25
30
0
11
2906.09375
21
708.99999999999989
31
0
0
LINE
5
402
100
AcDbEntity
8
0
100
AcDbLine
10
2906.09375
20
909.25
30
0
11
2906.09375
21
1100
31
0
0
LINE
5
403
100
AcDbEntity
8
0
100
AcDbLine
10
2800
20
1050
30
0
11
2825
21
1050
31
0
0
LINE
5
404
100
AcDbEntity
8
0
100
AcDbLine
10
2800
20
1050
30
0
11
2825
21
1050
31
0
0
LINE
5
405
100
AcDbEntity
8
0
100
AcDbLine
10
2825
20
775
30
0
11
2800
21
775
31
0
0
LINE
5
406
100
AcDbEntity
8
0
100
AcDbLine
10
2825
20
775
30
0
11
2650
21
775
31
0
0
LINE
5
407
100
AcDbEntity
8
0
100
AcDbLine
10
2650
20
775
30
0
11
2650
21
800
31
0
0
LINE
5
408
100
AcDbEntity
8
0
100
AcDbLine
10
2825
20
800
30
0
11
2825
21
775
31
0
0
LINE
5
409
100
AcDbEntity
8
0
100
AcDbLine
10
2650
20
775
30
0
11
2675
21
775
31
0
0
LINE
5
410
100
AcDbEntity
8
0
100
AcDbLine
10
2675
20
800
30
0
11
2675
21
850
31
0
0
LINE
5
411
100
AcDbEntity
8
0
100
AcDbLine
10
2675
20
875
30
0
11
2650
21
875
31
0
0
LINE
5
412
100
AcDbEntity
8
0
100
AcDbLine
10
2650
20
875
30
0
11
2650
21
775
31
0
0
LINE
5
413
100
AcDbEntity
8
0
100
AcDbLine
10
2875
20
875
30
0
11
2875
21
850
31
0
0
LINE
5
414
100
AcDbEntity
8
0
100
AcDbLine
10
2650
20
850
30
0
11
2650
21
875
31
0
0
LINE
5
415
100
AcDbEntity
8
0
100
AcDbLine
10
2850
20
875
30
0
11
2875
21
875
31
0
0
LINE
5
416
100
AcDbEntity
8
0
100
AcDbLine
10
2875
20
875
30
0
11
2875
21
125
31
0
0
LINE
5
417
100
AcDbEntity
8
0
100
AcDbLine
10
2850
20
125
30
0
11
2850
21
850
31
0
0
LWPOLYLINE
5
418
100
AcDbEntity
8
0
100
AcDbPolyline
90
6
70
1
43
0.0
10
2825
20
725
10
2650
20
725
10
2650
20
700
10
2800
20
700
10
2800
20
150
10
2825
20
150
0
LINE
5
419
100
AcDbEntity
8
0
100
AcDbLine
10
2825
20
725
30
0
11
2825
21
700
31
0
0
LINE
5
420
100
AcDbEntity
8
0
100
AcDbLine
10
2800
20
725
30
0
11
2825
21
725
31
0
0
LINE
5
421
100
AcDbEntity
8
0
100
AcDbLine
10
2825
20
125
30
0
11
2800
21
125
31
0
0
LWPOLYLINE
5
422
100
AcDbEntity
8
0
100
AcDbPolyline
90
4
70
1
43
0.0
10
2675
20
1050
10
2675
20
1025
10
2650
20
1025
10
2650
20
1050
0
LINE
5
423
100
AcDbEntity
8
0
100
AcDbLine
10
2800
20
1025
30
0
11
2825
21
1025
31
0
0
LINE
5
424
100
AcDbEntity
8
0
100
AcDbLine
10
2825
20
1025
30
0
11
2825
21
1050
31
0
0
LINE
5
425
100
AcDbEntity
8
0
100
AcDbLine
10
2800
20
1050
30
0
11
2700
21
1050
31
0
0
LINE
5
426
100
AcDbEntity
8
0
100
AcDbLine
10
2700
20
1050
30
0
11
2700
21
1025
31
0
0
LINE
5
427
100
AcDbEntity
8
0
100
AcDbLine
10
2800
20
1025
30
0
11
2700
21
1025
31
0
0
LINE
5
428
100
AcDbEntity
8
0
100
AcDbLine
10
2850
20
850
30
0
11
2825
21
850
31
0
0
LINE
5
429
100
AcDbEntity
8
0
100
AcDbLine
10
2800
20
800
30
0
11
2800
21
850
31
0
0
LINE
5
430
100
AcDbEntity
8
0
100
AcDbLine
10
2800
20
875
30
0
11
2800
21
1025
31
0
0
LINE
5
431
100
AcDbEntity
8
0
100
AcDbLine
10
2825
20
1050
30
0
11
2825
21
875
31
0
0
LINE
5
432
100
AcDbEntity
8
0
100
AcDbLine
10
2825
20
850
30
0
11
2825
21
775
31
0
0
LWPOLYLINE
5
433
100
AcDbEntity
8
0
100
AcDbPolyline
90
7
70
1
43
0.0
10
2850
20
75
10
2875
20
75
10
2875
20
25
10
2850
20
25
10
2800
20
25
10
2800
20
50
10
2850
20
50
0
LWPOLYLINE
5
434
100
AcDbEntity
8
0
100
AcDbPolyline
90
4
70
1
43
0.0
10
2725
20
50
10
2775
20
50
10
2775
20
25
10
2725
20
25
0
LWPOLYLINE
5
435
100
AcDbEntity
8
0
100
AcDbPolyline
90
7
70
1
43
0.0
10
2650
20
50
10
2700
20
50
10
2700
20
25
10
2650
20
25
10
2625
20
25
10
2625
20
75
10
2650
20
75
0
LINE
5
436
100
AcDbEntity
8
0
100
AcDbLine
10
2825
20
875
30
0
11
2875
21
875
31
0
0
LINE
5
437
100
AcDbEntity
8
0
100
AcDbLine
10
2675
20
800
30
0
11
2735
21
800
31
0
0
LINE
5
438
100
AcDbEntity
8
0
100
AcDbLine
10
2740
20
800
30
0
11
2800
21
800
31
0
0
LINE
5
439
100
AcDbEntity
8
0
100
AcDbLine
10
2735
20
775
30
0
11
2735
21
800
31
0
0
LINE
5
440
100
AcDbEntity
8
0
100
AcDbLine
10
2735
20
850
30
0
11
2735
21
875
31
0
0
LINE
5
441
100
AcDbEntity
8
0
100
AcDbLine
10
2740
20
875
30
0
11
2740
21
850
31
0
0
LINE
5
442
100
AcDbEntity
8
0
100
AcDbLine
10
2740
20
800
30
0
11
2740
21
775
31
0
0
LINE
5
443
100
AcDbEntity
8
0
100
AcDbLine
10
2800
20
850
30
0
11
2740
21
850
31
0
0
LINE
5
444
100
AcDbEntity
8
0
100
AcDbLine
10
2735
20
850
30
0
11
2675
21
850
31
0
0
LINE
5
445
100
AcDbEntity
8
0
100
AcDbLine
10
2650
20
875
30
0
11
2735
21
875
31
0
0
LINE
5
446
100
AcDbEntity
8
0
100
AcDbLine
10
2740
20
875
30
0
11
2800
21
875
31
0
0
LINE
5
447
100
AcDbEntity
8
0
100
AcDbLine
10
2660
20
210
30
0
11
2730
21
210
31
0
0
LINE
5
448
100
AcDbEntity
8
0
100
AcDbLine
10
2730
20
210
30
0
11
2730
21
230
31
0
0
LINE
5
449
100
AcDbEntity
8
0
100
AcDbLine
10
2730
20
230
30
0
11
2680
21
230
31
0
0
LINE
5
450
100
AcDbEntity
8
0
100
AcDbLine
10
2660
20
230
30
0
11
2660
21
210
31
0
0
LINE
5
451
100
AcDbEntity
8
0
100
AcDbLine
10
2660
20
210
30
0
11
2680
21
210
31
0
0
LINE
5
452
100
AcDbEntity
8
0
100
AcDbLine
10
2680
20
230
30
0
11
2680
21
280
31
0
0
LINE
5
453
100
AcDbEntity
8
0
100
AcDbLine
10
2680
20
300
30
0
11
2660
21
300
31
0
0
LINE
5
454
100
AcDbEntity
8
0
100
AcDbLine
10
2660
20
300
30
0
11
2660
21
210
31
0
0
LINE
5
455
100
AcDbEntity
8
0
100
AcDbLine
10
2660
20
300
30
0
11
2760
21
300
31
0
0
LINE
5
456
100
AcDbEntity
8
0
100
AcDbLine
10
2760
20
300
30
0
11
2760
21
280
31
0
0
LINE
5
457
100
AcDbEntity
8
0
100
AcDbLine
10
2740
20
280
30
0
11
2680
21
280
31
0
0
LINE
5
458
100
AcDbEntity
8
0
100
AcDbLine
10
2660
20
280
30
0
11
2660
21
300
31
0
0
LINE
5
459
100
AcDbEntity
8
0
100
AcDbLine
10
2740
20
300
30
0
11
2760
21
300
31
0
0
LINE
5
460
100
AcDbEntity
8
0
100
AcDbLine
10
2760
20
300
30
0
11
2760
21
230
31
0
0
LINE
5
461
100
AcDbEntity
8
0
100
AcDbLine
10
2760
20
210
30
0
11
2740
21
210
31
0
0
LINE
5
462
100
AcDbEntity
8
0
100
AcDbLine
10
2740
20
210
30
0
11
2740
21
280
31
0
0
LINE
5
463
100
AcDbEntity
8
0
100
AcDbLine
10
2740
20
210
30
0
11
2790
21
210
31
0
0
LINE
5
464
100
AcDbEntity
8
0
100
AcDbLine
10
2790
20
210
30
0
11
2790
21
230
31
0
0
LINE
5
465
100
AcDbEntity
8
0
100
AcDbLine
10
2770
20
230
30
0
11
2760
21
230
31
0
0
LINE
5
466
100
AcDbEntity
8
0
100
AcDbLine
10
2740
20
230
30
0
11
2740
21
210
31
0
0
LINE
5
467
100
AcDbEntity
8
0
100
AcDbLine
10
2790
20
210
30
0
11
2770
21
210
31
0
0
LINE
5
468
100
AcDbEntity
8
0
100
AcDbLine
10
2770
20
230
30
0
11
2770
21
300
31
0
0
LINE
5
469
100
AcDbEntity
8
0
100
AcDbLine
10
2770
20
300
30
0
11
2790
21
300
31
0
0
LINE
5
470
100
AcDbEntity
8
0
100
AcDbLine
10
2790
20
300
30
0
11
2790
21
210
31
0
0
LWPOLYLINE
5
471
100
AcDbEntity
8
0
100
AcDbPolyline
90
8
70
1
43
0.0
10
2660
20
420
10
2660
20
320
10
2720
20
320
10
2720
20
340
10
2680
20
340
10
2680
20
400
10
2720
20
400
10
2720
20
420
0
LWPOLYLINE
5
472
100
AcDbEntity
8
0
100
AcDbPolyline
90
8
70
1
43
0.0
10
2790
20
320
10
2790
20
420
10
2730
20
420
10
2730
20
400
10
2770
20
400
10
2770
20
340
10
2730
20
340
10
2730
20
320
0
LINE
5
473
100
AcDbEntity
8
0
100
AcDbLine
10
2770
20
530
30
0
11
2790
21
530
31
0
0
LINE
5
474
100
AcDbEntity
8
0
100
AcDbLine
10
2790
20
440
30
0
11
2770
21
440
31
0
0
LINE
5
475
100
AcDbEntity
8
0
100
AcDbLine
10
2760
20
530
30
0
11
2760
21
460
31
0
0
LINE
5
476
100
AcDbEntity
8
0
100
AcDbLine
10
2760
20
530
30
0
11
2760
21
510
31
0
0
LINE
5
477
100
AcDbEntity
8
0
100
AcDbLine
10
2740
20
440
30
0
11
2790
21
440
31
0
0
LINE
5
478
100
AcDbEntity
8
0
100
AcDbLine
10
2790
20
440
30
0
11
2790
21
460
31
0
0
LINE
5
479
100
AcDbEntity
8
0
100
AcDbLine
10
2770
20
460
30
0
11
2770
21
530
31
0
0
LINE
5
480
100
AcDbEntity
8
0
100
AcDbLine
10
2790
20
530
30
0
11
2790
21
440
31
0
0
LINE
5
481
100
AcDbEntity
8
0
100
AcDbLine
10
2770
20
460
30
0
11
2760
21
460
31
0
0
LINE
5
482
100
AcDbEntity
8
0
100
AcDbLine
10
2730
20
440
30
0
11
2730
21
460
31
0
0
LINE
5
483
100
AcDbEntity
8
0
100
AcDbLine
10
2740
20
530
30
0
11
2760
21
530
31
0
0
LINE
5
484
100
AcDbEntity
8
0
100
AcDbLine
10
2760
20
440
30
0
11
2740
21
440
31
0
0
LINE
5
485
100
AcDbEntity
8
0
100
AcDbLine
10
2660
20
530
30
0
11
2760
21
530
31
0
0
LINE
5
486
100
AcDbEntity
8
0
100
AcDbLine
10
2660
20
510
30
0
11
2660
21
530
31
0
0
LINE
5
487
100
AcDbEntity
8
0
100
AcDbLine
10
2660
20
460
30
0
11
2660
21
440
31
0
0
LINE
5
488
100
AcDbEntity
8
0
100
AcDbLine
10
2660
20
440
30
0
11
2680
21
440
31
0
0
LINE
5
489
100
AcDbEntity
8
0
100
AcDbLine
10
2680
20
460
30
0
11
2680
21
510
31
0
0
LINE
5
490
100
AcDbEntity
8
0
100
AcDbLine
10
2730
20
460
30
0
11
2680
21
460
31
0
0
LINE
5
491
100
AcDbEntity
8
0
100
AcDbLine
10
2680
20
530
30
0
11
2660
21
530
31
0
0
LINE
5
492
100
AcDbEntity
8
0
100
AcDbLine
10
2660
20
440
30
0
11
2730
21
440
31
0
0
LINE
5
493
100
AcDbEntity
8
0
100
AcDbLine
10
2740
20
440
30
0
11
2740
21
510
31
0
0
LINE
5
494
100
AcDbEntity
8
0
100
AcDbLine
10
2740
20
460
30
0
11
2740
21
440
31
0
0
LINE
5
495
100
AcDbEntity
8
0
100
AcDbLine
10
2740
20
510
30
0
11
2680
21
510
31
0
0
LINE
5
496
100
AcDbEntity
8
0
100
AcDbLine
10
2660
20
530
30
0
11
2660
21
440
31
0
0
LINE
5
497
100
AcDbEntity
8
0
100
AcDbLine
10
2730
20
550
30
0
11
2660
21
550
31
0
0
LINE
5
498
100
AcDbEntity
8
0
100
AcDbLine
10
2660
20
550
30
0
11
2660
21
570
31
0
0
LINE
5
499
100
AcDbEntity
8
0
100
AcDbLine
10
2680
20
570
30
0
11
2730
21
570
31
0
0
LINE
5
500
100
AcDbEntity
8
0
100
AcDbLine
10
2730
20
570
30
0
11
2730
21
550
31
0
0
LINE
5
501
100
AcDbEntity
8
0
100
AcDbLine
10
2660
20
550
30
0
11
2680
21
550
31
0
0
LINE
5
502
100
AcDbEntity
8
0
100
AcDbLine
10
2680
20
570
30
0
11
2680
21
590
31
0
0
LINE
5
503
100
AcDbEntity
8
0
100
AcDbLine
10
2660
20
600
30
0
11
2660
21
550
31
0
0
LINE
5
504
100
AcDbEntity
8
0
100
AcDbLine
10
2680
20
590
30
0
11
2770
21
590
31
0
0
LINE
5
505
100
AcDbEntity
8
0
100
AcDbLine
10
2770
20
610
30
0
11
2660
21
610
31
0
0
LINE
5
506
100
AcDbEntity
8
0
100
AcDbLine
10
2660
20
610
30
0
11
2660
21
590
31
0
0
LINE
5
507
100
AcDbEntity
8
0
100
AcDbLine
10
2770
20
540
30
0
11
2790
21
540
31
0
0
LINE
5
508
100
AcDbEntity
8
0
100
AcDbLine
10
2790
20
540
30
0
11
2790
21
620
31
0
0
LINE
5
509
100
AcDbEntity
8
0
100
AcDbLine
10
2790
20
620
30
0
11
2770
21
620
31
0
0
LINE
5
510
100
AcDbEntity
8
0
100
AcDbLine
10
2770
20
620
30
0
11
2770
21
610
31
0
0
LINE
5
511
100
AcDbEntity
8
0
100
AcDbLine
10
2770
20
590
30
0
11
2770
21
540
31
0
0
LINE
5
512
100
AcDbEntity
8
0
100
AcDbLine
10
2875
20
125
30
0
11
2875
21
100
31
0
0
LINE
5
513
100
AcDbEntity
8
0
100
AcDbLine
10
2875
20
100
30
0
11
2850
21
100
31
0
0
LINE
5
514
100
AcDbEntity
8
0
100
AcDbLine
10
2850
20
100
30
0
11
2625
21
100
31
0
0
LINE
5
515
100
AcDbEntity
8
0
100
AcDbLine
10
2625
20
100
30
0
11
2625
21
125
31
0
0
LINE
5
516
100
AcDbEntity
8
0
100
AcDbLine
10
2650
20
125
30
0
11
2850
21
125
31
0
0
LINE
5
517
100
AcDbEntity
8
0
100
AcDbLine
10
2650
20
125
30
0
11
2650
21
675
31
0
0
LINE
5
518
100
AcDbEntity
8
0
100
AcDbLine
10
2650
20
675
30
0
11
2625
21
675
31
0
0
LINE
5
519
100
AcDbEntity
8
0
100
AcDbLine
10
2625
20
675
30
0
11
2625
21
125
31
0
0
LINE
5
520
100
AcDbEntity
8
0
100
AcDbLine
10
4100.5
20
-2.8284815563191635e-14
30
0
11
4800.5
21
-2.8223583223234343e-14
31
0
0
LINE
5
521
100
AcDbEntity
8
0
100
AcDbLine
10
4800.5
20
-2.8223583223234343e-14
30
0
11
4800.5
21
400
31
0
0
LINE
5
522
100
AcDbEntity
8
0
100
AcDbLine
10
4800.5
20
400
30
0
11
4100.5
21
400
31
0
0
LINE
5
523
100
AcDbEntity
8
0
100
AcDbLine
10
4100.5
20
400
30
0
11
4100.5
21
-2.8284815563191635e-14
31
0
0
LINE
5
524
100
AcDbEntity
8
0
100
AcDbLine
10
4100.5
20
400
30
0
11
4100.5
21
300
31
0
0
LINE
5
525
100
AcDbEntity
8
0
100
AcDbLine
10
4100.5
20
-2.8284815563191635e-14
30
0
11
4100.5
21
99.999999999999986
31
0
0
LINE
5
526
100
AcDbEntity
8
0
100
AcDbLine
10
4100.5
20
400
30
0
11
4220.5
21
400
31
0
0
LINE
5
527
100
AcDbEntity
8
0
100
AcDbLine
10
4800.5
20
400
30
0
11
4680.5
21
400
31
0
0
LINE
5
528
100
AcDbEntity
8
0
100
AcDbLine
10
4220.5
20
285
30
0
11
4100.5
21
285
31
0
0
LINE
5
529
100
AcDbEntity
8
0
100
AcDbLine
10
4100.5
20
285
30
0
11
4100.5
21
99.999999999999986
31
0
0
LINE
5
530
100
AcDbEntity
8
0
100
AcDbLine
10
4100.5
20
99.999999999999986
30
0
11
4220.5
21
99.999999999999915
31
0
0
LINE
5
531
100
AcDbEntity
8
0
100
AcDbLine
10
4220.5
20
99.999999999999915
30
0
11
4220.5
21
285
31
0
0
LWPOLYLINE
5
532
100
AcDbEntity
8
0
100
AcDbPolyline
90
4
70
1
43
0.0
10
4226
20
285
10
4215
20
285
10
4215
20
115
10
4226
20
115
0
LINE
5
533
100
AcDbEntity
8
0
100
AcDbLine
10
4800.5
20
400
30
0
11
4800.5
21
300
31
0
0
LINE
5
534
100
AcDbEntity
8
0
100
AcDbLine
10
4800.5
20
400
30
0
11
4800.5
21
300
31
0
0
LINE
5
535
100
AcDbEntity
8
0
100
AcDbLine
10
4800.5
20
-2.8223583223234343e-14
30
0
11
4800.5
21
99.999999999999972
31
0
0
LINE
5
536
100
AcDbEntity
8
0
100
AcDbLine
10
4800.5
20
-2.8223583223234343e-14
30
0
11
4680.5
21
-2.8234080195798414e-14
31
0
0
LINE
5
537
100
AcDbEntity
8
0
100
AcDbLine
10
4680.5
20
114.99999999999997
30
0
11
4800.5
21
114.99999999999997
31
0
0
LINE
5
538
100
AcDbEntity
8
0
100
AcDbLine
10
4800.5
20
114.99999999999997
30
0
11
4800.5
21
300
31
0
0
LINE
5
539
100
AcDbEntity
8
0
100
AcDbLine
10
4800.5
20
300
30
0
11
4680.5
21
300
31
0
0
LINE
5
540
100
AcDbEntity
8
0
100
AcDbLine
10
4680.5
20
300
30
0
11
4680.5
21
114.99999999999997
31
0
0
LWPOLYLINE
5
541
100
AcDbEntity
8
0
100
AcDbPolyline
90
4
70
1
43
0.0
10
4685.9999999999991
20
285
10
4675
20
284.99999999999994
10
4675
20
115
10
4685.9999999999991
20
114.99999999999997
0
LINE
5
542
100
AcDbEntity
8
0
100
AcDbLine
10
4100.5
20
300
30
0
11
4800.5
21
300
31
0
0
LWPOLYLINE
5
543
100
AcDbEntity
8
0
100
AcDbPolyline
90
4
70
1
43
0.0
10
4420.5
20
305.5
10
4220.5
20
305.5
10
4220.5
20
294.5
10
4420.5
20
294.5
0
LWPOLYLINE
5
544
100
AcDbEntity
8
0
100
AcDbPolyline
90
4
70
1
43
0.0
10
4480.5
20
294.5
10
4680.5
20
294.5
10
4680.5
20
305.5
10
4480.5
20
305.5
0
LWPOLYLINE
5
545
100
AcDbEntity
8
0
100
AcDbPolyline
90
4
70
1
43
0.0
10
4680.5
20
94.5
10
4680.5
20
105.5
10
4480.5
20
105.5
10
4480.5
20
94.5
0
LWPOLYLINE
5
546
100
AcDbEntity
8
0
100
AcDbPolyline
90
4
70
1
43
0.0
10
4220.5
20
94.499999999999972
10
4420.5
20
94.499999999999972
10
4420.5
20
105.49999999999997
10
4220.5
20
105.49999999999997
0
LINE
5
547
100
AcDbEntity
8
0
100
AcDbLine
10
4675
20
100
30
0
11
4685.9999999999991
21
100
31
0
0
LINE
5
548
100
AcDbEntity
8
0
100
AcDbLine
10
4215
20
100
30
0
11
4226
21
100
31
0
0
LINE
5
549
100
AcDbEntity
8
0
100
AcDbLine
10
4100.5
20
99.999999999999986
30
0
11
4810.4170344876402
21
100.00000000000003
31
0
0
LINE
5
550
100
AcDbEntity
8
0
100
AcDbLine
10
3406.09375
20
708.99999999999989
30
0
11
3417.2937499999998
21
708.99999999999989
31
0
0
LINE
5
551
100
AcDbEntity
8
0
100
AcDbLine
10
3406.09375
20
909.25
30
0
11
3406.09375
21
1100
31
0
0
LINE
5
552
100
AcDbEntity
8
0
100
AcDbLine
10
3171.09375
20
1111.2
30
0
11
3171.09375
21
1100
31
0
0
LINE
5
553
100
AcDbEntity
8
0
100
AcDbLine
10
3106.09375
20
708.99999999999989
30
0
11
3106.09375
21
518.24999999999989
31
0
0
LINE
5
554
100
AcDbEntity
8
0
100
AcDbLine
10
3106.09375
20
708.99999999999989
30
0
11
3106.09375
21
518.24999999999989
31
0
0
LINE
5
555
100
AcDbEntity
8
0
100
AcDbLine
10
3094.8937500000002
20
708.99999999999989
30
0
11
3094.8937500000002
21
909.25
31
0
0
LINE
5
556
100
AcDbEntity
8
0
100
AcDbLine
10
3106.09375
20
708.99999999999989
30
0
11
3094.8937500000002
21
708.99999999999989
31
0
0
LINE
5
557
100
AcDbEntity
8
0
100
AcDbLine
10
3341.09375
20
1100
30
0
11
3341.09375
21
1111.2
31
0
0
LINE
5
558
100
AcDbEntity
8
0
100
AcDbLine
10
3094.8937500000002
20
909.25
30
0
11
3106.09375
21
909.25
31
0
0
LINE
5
559
100
AcDbEntity
8
0
100
AcDbLine
10
3406.09375
20
1100
30
0
11
3417.2937499999998
21
1100
31
0
0
LINE
5
560
100
AcDbEntity
8
0
100
AcDbLine
10
3094.8937500000002
20
909.25
30
0
11
3106.09375
21
909.25
31
0
0
LINE
5
561
100
AcDbEntity
8
0
100
AcDbLine
10
3406.09375
20
909.25
30
0
11
3406.09375
21
1100
31
0
0
LINE
5
562
100
AcDbEntity
8
0
100
AcDbLine
10
3406.09375
20
1100
30
0
11
3341.09375
21
1100
31
0
0
LINE
5
563
100
AcDbEntity
8
0
100
AcDbLine
10
3406.09375
20
518.25
30
0
11
3406.09375
21
708.99999999999989
31
0
0
LINE
5
564
100
AcDbEntity
8
0
100
AcDbLine
10
3106.09375
20
1100
30
0
11
3106.09375
21
909.25
31
0
0
LINE
5
565
100
AcDbEntity
8
0
100
AcDbLine
10
3341.09375
20
1111.2
30
0
11
3171.09375
21
1111.2
31
0
0
LINE
5
566
100
AcDbEntity
8
0
100
AcDbLine
10
3406.09375
20
518.25
30
0
11
3406.09375
21
708.99999999999989
31
0
0
LINE
5
567
100
AcDbEntity
8
0
100
AcDbLine
10
3411.1999999999998
20
909.25
30
0
11
3406.09375
21
909.25
31
0
0
LINE
5
568
100
AcDbEntity
8
0
100
AcDbLine
10
3106.09375
20
909.25
30
0
11
3106.09375
21
1100
31
0
0
LINE
5
569
100
AcDbEntity
8
0
100
AcDbLine
10
3406.09375
20
909.25
30
0
11
3417.2937499999998
21
909.25
31
0
0
LINE
5
570
100
AcDbEntity
8
0
100
AcDbLine
10
3171.09375
20
1100
30
0
11
3106.09375
21
1100
31
0
0
LINE
5
571
100
AcDbEntity
8
0
100
AcDbLine
10
3417.2937499999998
20
909.25
30
0
11
3417.2937499999998
21
708.99999999999989
31
0
0
LINE
5
572
100
AcDbEntity
8
0
100
AcDbLine
10
3094.8937500000002
20
708.99999999999989
30
0
11
3106.09375
21
708.99999999999989
31
0
0
LINE
5
573
100
AcDbEntity
8
0
100
AcDbLine
10
3417.2937499999998
20
708.99999999999989
30
0
11
3406.09375
21
708.99999999999989
31
0
0
LINE
5
574
100
AcDbEntity
8
0
100
AcDbLine
10
3406.09375
20
518.25
30
0
11
3417.2937499999998
21
518.25
31
0
0
LINE
5
575
100
AcDbEntity
8
0
100
AcDbLine
10
3417.2937499999998
20
318
30
0
11
3406.09375
21
318
31
0
0
LINE
5
576
100
AcDbEntity
8
0
100
AcDbLine
10
3411.1999999999998
20
518.24999999999989
30
0
11
3406.09375
21
518.25
31
0
0
LINE
5
577
100
AcDbEntity
8
0
100
AcDbLine
10
3417.2937499999998
20
518.25
30
0
11
3417.2937499999998
21
318
31
0
0
LINE
5
578
100
AcDbEntity
8
0
100
AcDbLine
10
3106.09375
20
317.99999999999989
30
0
11
3106.09375
21
127.24999999999987
31
0
0
LINE
5
579
100
AcDbEntity
8
0
100
AcDbLine
10
3406.09375
20
318
30
0
11
3406.09375
21
127.25000000000003
31
0
0
LINE
5
580
100
AcDbEntity
8
0
100
AcDbLine
10
3106.09375
20
127.24999999999987
30
0
11
3094.8937500000002
21
127.24999999999987
31
0
0
LINE
5
581
100
AcDbEntity
8
0
100
AcDbLine
10
3341.09375
20
-2.2884560116830936e-14
30
0
11
3406.09375
21
-4.8528404697509354e-15
31
0
0
LINE
5
582
100
AcDbEntity
8
0
100
AcDbLine
10
3106.09375
20
-4.8528404697509472e-15
30
0
11
3094.8937500000002
21
-4.8528404697509512e-15
31
0
0
LINE
5
583
100
AcDbEntity
8
0
100
AcDbLine
10
3094.8937500000002
20
127.24999999999987
30
0
11
3100
21
127.24999999999987
31
0
0
LINE
5
584
100
AcDbEntity
8
0
100
AcDbLine
10
3094.8937500000002
20
317.99999999999989
30
0
11
3094.8937500000002
21
518.24999999999989
31
0
0
LINE
5
585
100
AcDbEntity
8
0
100
AcDbLine
10
3094.8937500000002
20
-4.8528404697509512e-15
30
0
11
3094.8937500000002
21
127.24999999999987
31
0
0
LINE
5
586
100
AcDbEntity
8
0
100
AcDbLine
10
3106.09375
20
-4.8528404697509354e-15
30
0
11
3171.09375
21
-2.2884560116830955e-14
31
0
0
LINE
5
587
100
AcDbEntity
8
0
100
AcDbLine
10
3094.8937500000002
20
317.99999999999989
30
0
11
3106.09375
21
317.99999999999989
31
0
0
LINE
5
588
100
AcDbEntity
8
0
100
AcDbLine
10
3406.09375
20
127.25000000000003
30
0
11
3417.2937499999998
21
127.25000000000003
31
0
0
LINE
5
589
100
AcDbEntity
8
0
100
AcDbLine
10
3417.2937499999998
20
127.25000000000003
30
0
11
3417.2937499999998
21
0
31
0
0
LINE
5
590
100
AcDbEntity
8
0
100
AcDbLine
10
3106.09375
20
518.24999999999989
30
0
11
3094.8937500000002
21
518.24999999999989
31
0
0
LINE
5
591
100
AcDbEntity
8
0
100
AcDbLine
10
3171.09375
20
-11.200000000000024
30
0
11
3171.09375
21
-2.2884560116830955e-14
31
0
0
LINE
5
592
100
AcDbEntity
8
0
100
AcDbLine
10
3094.8937500000002
20
518.24999999999989
30
0
11
3106.09375
21
518.24999999999989
31
0
0
LINE
5
593
100
AcDbEntity
8
0
100
AcDbLine
10
3341.09375
20
-11.200000000000024
30
0
11
3171.09375
21
-11.200000000000024
31
0
0
LINE
5
594
100
AcDbEntity
8
0
100
AcDbLine
10
3406.09375
20
127.25000000000003
30
0
11
3417.2937499999998
21
127.25000000000003
31
0
0
LINE
5
595
100
AcDbEntity
8
0
100
AcDbLine
10
3417.2937499999998
20
318
30
0
11
3406.09375
21
318
31
0
0
LINE
5
596
100
AcDbEntity
8
0
100
AcDbLine
10
3406.09375
20
127.25000000000003
30
0
11
3406.09375
21
318
31
0
0
LINE
5
597
100
AcDbEntity
8
0
100
AcDbLine
10
3341.09375
20
-2.2884560116830936e-14
30
0
11
3341.09375
21
-11.200000000000024
31
0
0
LINE
5
598
100
AcDbEntity
8
0
100
AcDbLine
10
3417.2937499999998
20
0
30
0
11
3400
21
0
31
0
0
LINE
5
599
100
AcDbEntity
8
0
100
AcDbLine
10
3100
20
317.99999999999989
30
0
11
3094.8937500000002
21
317.99999999999989
31
0
0
LWPOLYLINE
5
600
100
AcDbEntity
8
0
100
AcDbPolyline
90
4
70
1
43
0.0
10
5220.5
20
105.50000000000003
10
5220.5
20
94.500000000000028
10
5420.5
20
94.500000000000028
10
5420.5
20
105.50000000000003
0
LWPOLYLINE
5
601
100
AcDbEntity
8
0
100
AcDbPolyline
90
4
70
1
43
0.0
10
5680.5
20
94.5
10
5680.5
20
105.5
10
5480.5
20
105.5
10
5480.5
20
94.5
0
LWPOLYLINE
5
602
100
AcDbEntity
8
0
100
AcDbPolyline
90
4
70
1
43
0.0
10
5215
20
285
10
5215
20
115
10
5226
20
115
10
5226
20
285
0
LWPOLYLINE
5
603
100
AcDbEntity
8
0
100
AcDbPolyline
90
4
70
1
43
0.0
10
5685.9999999999991
20
115.00000000000003
10
5685.9999999999991
20
285
10
5675
20
285
10
5675
20
115
0
LWPOLYLINE
5
604
100
AcDbEntity
8
0
100
AcDbPolyline
90
4
70
1
43
0.0
10
5480.5
20
294.5
10
5680.5
20
294.5
10
5680.5
20
305.5
10
5480.5
20
305.5
0
LINE
5
605
100
AcDbEntity
8
0
100
AcDbLine
10
5100.5
20
400
30
0
11
5100.5
21
300
31
0
0
LINE
5
606
100
AcDbEntity
8
0
100
AcDbLine
10
5800.5
20
300
30
0
11
5680.5
21
300
31
0
0
LINE
5
607
100
AcDbEntity
8
0
100
AcDbLine
10
5800.5
20
400
30
0
11
5100.5
21
400
31
0
0
LWPOLYLINE
5
608
100
AcDbEntity
8
0
100
AcDbPolyline
90
4
70
1
43
0.0
10
5220.5
20
294.5
10
5420.5
20
294.5
10
5420.5
20
305.5
10
5220.5
20
305.5
0
LINE
5
609
100
AcDbEntity
8
0
100
AcDbLine
10
5220.5
20
285
30
0
11
5100.5
21
285
31
0
0
LINE
5
610
100
AcDbEntity
8
0
100
AcDbLine
10
5800.5
20
400
30
0
11
5800.5
21
300
31
0
0
LINE
5
611
100
AcDbEntity
8
0
100
AcDbLine
10
5100.5
20
3.2947524394176003e-14
30
0
11
5100.5
21
100.00000000000003
31
0
0
LINE
5
612
100
AcDbEntity
8
0
100
AcDbLine
10
5220.5
20
99.999999999999972
30
0
11
5220.5
21
285
31
0
0
LINE
5
613
100
AcDbEntity
8
0
100
AcDbLine
10
5800.5
20
3.3008756734133339e-14
30
0
11
5800.5
21
400
31
0
0
LINE
5
614
100
AcDbEntity
8
0
100
AcDbLine
10
5100.5
20
100.00000000000003
30
0
11
5810.4170344876402
21
100.00000000000013
31
0
0
LINE
5
615
100
AcDbEntity
8
0
100
AcDbLine
10
5100.5
20
400
30
0
11
5100.5
21
3.2947524394176003e-14
31
0
0
LINE
5
616
100
AcDbEntity
8
0
100
AcDbLine
10
5800.5
20
400
30
0
11
5680.5
21
400
31
0
0
LINE
5
617
100
AcDbEntity
8
0
100
AcDbLine
10
5100.5
20
400
30
0
11
5220.5
21
400
31
0
0
LINE
5
618
100
AcDbEntity
8
0
100
AcDbLine
10
5800.5
20
3.3008756734133339e-14
30
0
11
5680.5
21
3.2998259761569223e-14
31
0
0
LINE
5
619
100
AcDbEntity
8
0
100
AcDbLine
10
5800.5
20
3.3008756734133339e-14
30
0
11
5800.5
21
100.00000000000001
31
0
0
LINE
5
620
100
AcDbEntity
8
0
100
AcDbLine
10
5100.5
20
300
30
0
11
5800.5
21
300
31
0
0
LINE
5
621
100
AcDbEntity
8
0
100
AcDbLine
10
5800.5
20
400
30
0
11
5800.5
21
300
31
0
0
LINE
5
622
100
AcDbEntity
8
0
100
AcDbLine
10
5680.5
20
300
30
0
11
5680.5
21
115.00000000000003
31
0
0
LINE
5
623
100
AcDbEntity
8
0
100
AcDbLine
10
5100.5
20
100.00000000000003
30
0
11
5220.5
21
99.999999999999972
31
0
0
LINE
5
624
100
AcDbEntity
8
0
100
AcDbLine
10
5675
20
100
30
0
11
5685.9999999999991
21
100
31
0
0
LINE
5
625
100
AcDbEntity
8
0
100
AcDbLine
10
5100.5
20
285
30
0
11
5100.5
21
100.00000000000003
31
0
0
LINE
5
626
100
AcDbEntity
8
0
100
AcDbLine
10
5215
20
100
30
0
11
5226
21
100
31
0
0
LINE
5
627
100
AcDbEntity
8
0
100
AcDbLine
10
5800.5
20
115.00000000000003
30
0
11
5800.5
21
300
31
0
0
LINE
5
628
100
AcDbEntity
8
0
100
AcDbLine
10
5680.5
20
115.00000000000003
30
0
11
5800.5
21
115.00000000000003
31
0
0
LINE
5
629
100
AcDbEntity
8
0
100
AcDbLine
10
5100.5
20
3.2947524394176003e-14
30
0
11
5800.5
21
3.3008756734133339e-14
31
0
0
CIRCLE
5
630
100
AcDbEntity
8
0
100
AcDbCircle
10
5450
20
200
30
0
40
67.5
210
0
220
0
230
1
0
ENDSEC
0
SECTION
2
OBJECTS
0
DICTIONARY
5
C
100
AcDbDictionary
3
ACAD_GROUP
350
D
3
ACAD_MLINESTYLE
350
17
0
DICTIONARY
5
D
100
AcDbDictionary
0
DICTIONARY
5
1A
330
C
100
AcDbDictionary
0
DICTIONARY
5
17
100
AcDbDictionary
0
ENDSEC
0
EOF
