0
SECTION
2
HEADER
9
$INSUNITS
70
4
9
$ACADVER
1
AC1014
9
$HANDSEED
5
FFFF
0
ENDSEC
0
SECTION
2
TABLES
0
TABLE
2
VPORT
5
8
100
AcDbSymbolTable
0
ENDTAB
0
TABLE
2
LTYPE
5
5
100
AcDbSymbolTable
0
LTYPE
5
14
100
AcDbSymbolTableRecord
100
AcDbLinetypeTableRecord
2
BYBLOCK
70
0
0
LTYPE
5
15
100
AcDbSymbolTableRecord
100
AcDbLinetypeTableRecord
2
BYLAYER
70
0
0
ENDTAB
0
TABLE
2
LAYER
5
2
100
AcDbSymbolTable
70
2
0
LAYER
5
50
100
AcDbSymbolTableRecord
100
AcDbLayerTableRecord
2
0
70
0
6
CONTINUOUS
0
ENDTAB
0
TABLE
2
STYLE
5
3
100
AcDbSymbolTable
70
1
0
STYLE
5
11
100
AcDbSymbolTableRecord
100
AcDbTextStyleTableRecord
2
STANDARD
70
0
0
ENDTAB
0
TABLE
2
VIEW
5
6
100
AcDbSymbolTable
70
0
0
ENDTAB
0
TABLE
2
UCS
5
7
100
AcDbSymbolTable
70
0
0
ENDTAB
0
TABLE
2
APPID
5
9
100
AcDbSymbolTable
70
2
0
APPID
5
12
100
AcDbSymbolTableRecord
100
AcDbRegAppTableRecord
2
ACAD
70
0
0
ENDTAB
0
TABLE
2
DIMSTYLE
5
A
100
AcDbSymbolTable
70
1
0
ENDTAB
0
TABLE
2
BLOCK_RECORD
5
1
100
AcDbSymbolTable
70
1
0
BLOCK_RECORD
5
1F
100
AcDbSymbolTableRecord
100
AcDbBlockTableRecord
2
*MODEL_SPACE
0
BLOCK_RECORD
5
1B
100
AcDbSymbolTableRecord
100
AcDbBlockTableRecord
2
*PAPER_SPACE
0
ENDTAB
0
ENDSEC
0
SECTION
2
BLOCKS
0
BLOCK
5
20
100
AcDbEntity
100
AcDbBlockBegin
2
*MODEL_SPACE
0
ENDBLK
5
21
100
AcDbEntity
100
AcDbBlockEnd
0
BLOCK
5
1C
100
AcDbEntity
100
AcDbBlockBegin
2
*PAPER_SPACE
0
ENDBLK
5
1D
100
AcDbEntity
100
AcDbBlockEnd
0
ENDSEC
0
SECTION
2
ENTITIES
0
LWPOLYLINE
5
100
100
AcDbEntity
8
0
100
AcDbPolyline
90
11
70
1
43
0.0
10
50
20
0
10
0
20
0
10
0
20
100
10
50
20
100
10
61.200000000000003
20
100
10
61.200000000000003
20
75
10
50
20
75
10
50
20
50
10
61.200000000000003
20
50
10
61.200000000000003
20
25
10
50
20
25
0
LINE
5
101
100
AcDbEntity
8
0
100
AcDbLine
10
100
20
0
30
0
11
150
21
0
31
0
0
LINE
5
102
100
AcDbEntity
8
0
100
AcDbLine
10
150
20
0
30
0
11
150
21
100
31
0
0
LINE
5
103
100
AcDbEntity
8
0
100
AcDbLine
10
150
20
100
30
0
11
100
21
100
31
0
0
LINE
5
104
100
AcDbEntity
8
0
100
AcDbLine
10
50
20
75
30
0
11
61.200000000000003
21
75
31
0
0
LINE
5
105
100
AcDbEntity
8
0
100
AcDbLine
10
61.200000000000003
20
50
30
0
11
50
21
50
31
0
0
LINE
5
106
100
AcDbEntity
8
0
100
AcDbLine
10
50
20
25
30
0
11
61.200000000000003
21
25
31
0
0
LINE
5
107
100
AcDbEntity
8
0
100
AcDbLine
10
50
20
0
30
0
11
50
21
25
31
0
0
LINE
5
108
100
AcDbEntity
8
0
100
AcDbLine
10
88.800000000000011
20
75
30
0
11
100
21
75
31
0
0
LINE
5
109
100
AcDbEntity
8
0
100
AcDbLine
10
100
20
75
30
0
11
100
21
100
31
0
0
LINE
5
110
100
AcDbEntity
8
0
100
AcDbLine
10
88.800000000000011
20
75
30
0
11
100
21
75
31
0
0
LINE
5
111
100
AcDbEntity
8
0
100
AcDbLine
10
100
20
50
30
0
11
88.800000000000011
21
50
31
0
0
LINE
5
112
100
AcDbEntity
8
0
100
AcDbLine
10
88.800000000000011
20
50
30
0
11
88.800000000000011
21
75
31
0
0
LINE
5
113
100
AcDbEntity
8
0
100
AcDbLine
10
88.800000000000011
20
50
30
0
11
100
21
50
31
0
0
LINE
5
114
100
AcDbEntity
8
0
100
AcDbLine
10
100
20
50
30
0
11
100
21
25
31
0
0
LINE
5
115
100
AcDbEntity
8
0
100
AcDbLine
10
100
20
25
30
0
11
88.800000000000011
21
25
31
0
0
LINE
5
116
100
AcDbEntity
8
0
100
AcDbLine
10
88.800000000000011
20
25
30
0
11
100
21
25
31
0
0
LINE
5
117
100
AcDbEntity
8
0
100
AcDbLine
10
100
20
0
30
0
11
88.800000000000011
21
0
31
0
0
LINE
5
118
100
AcDbEntity
8
0
100
AcDbLine
10
88.800000000000011
20
0
30
0
11
88.800000000000011
21
25
31
0
0
LINE
5
119
100
AcDbEntity
8
0
100
AcDbLine
10
100
20
100
30
0
11
100
21
75
31
0
0
LINE
5
120
100
AcDbEntity
8
0
100
AcDbLine
10
100
20
50
30
0
11
100
21
25
31
0
0
LINE
5
121
100
AcDbEntity
8
0
100
AcDbLine
10
50
20
50
30
0
11
50
21
75
31
0
0
LINE
5
122
100
AcDbEntity
8
0
100
AcDbLine
10
280
20
75
30
0
11
280
21
100
31
0
0
LINE
5
123
100
AcDbEntity
8
0
100
AcDbLine
10
230
20
0
30
0
11
230
21
25
31
0
0
LINE
5
124
100
AcDbEntity
8
0
100
AcDbLine
10
268.80000000000001
20
75
30
0
11
280
21
75
31
0
0
LINE
5
125
100
AcDbEntity
8
0
100
AcDbLine
10
330
20
100
30
0
11
280
21
100
31
0
0
LINE
5
126
100
AcDbEntity
8
0
100
AcDbLine
10
241.20000000000002
20
49.75
30
0
11
230
21
49.75
31
0
0
LINE
5
127
100
AcDbEntity
8
0
100
AcDbLine
10
230
20
25
30
0
11
241.20000000000002
21
25
31
0
0
LINE
5
128
100
AcDbEntity
8
0
100
AcDbLine
10
280
20
0.50000000000000266
30
0
11
268.80000000000001
21
0.50000000000000266
31
0
0
LWPOLYLINE
5
129
100
AcDbEntity
8
0
100
AcDbPolyline
90
11
70
1
43
0.0
10
230
20
25
10
241.20000000000002
20
25
10
241.20000000000002
20
49.75
10
230
20
49.75
10
230
20
74.75
10
241.20000000000002
20
74.75
10
241.20000000000002
20
99.5
10
230
20
99.5
10
180
20
99.5
10
180
20
0
10
230
20
0
0
LINE
5
130
100
AcDbEntity
8
0
100
AcDbLine
10
268.80000000000001
20
75
30
0
11
280
21
75
31
0
0
LINE
5
131
100
AcDbEntity
8
0
100
AcDbLine
10
280
20
50.25
30
0
11
268.80000000000001
21
50.25
31
0
0
LINE
5
132
100
AcDbEntity
8
0
100
AcDbLine
10
280
20
100
30
0
11
280
21
75
31
0
0
LINE
5
133
100
AcDbEntity
8
0
100
AcDbLine
10
230
20
74.75
30
0
11
241.20000000000002
21
74.75
31
0
0
LINE
5
134
100
AcDbEntity
8
0
100
AcDbLine
10
280
20
50.25
30
0
11
280
21
25.250000000000004
31
0
0
LINE
5
135
100
AcDbEntity
8
0
100
AcDbLine
10
268.80000000000001
20
25.250000000000004
30
0
11
280
21
25.250000000000004
31
0
0
LINE
5
136
100
AcDbEntity
8
0
100
AcDbLine
10
280
20
50.25
30
0
11
280
21
25.250000000000004
31
0
0
LINE
5
137
100
AcDbEntity
8
0
100
AcDbLine
10
230
20
49.75
30
0
11
230
21
74.75
31
0
0
LINE
5
138
100
AcDbEntity
8
0
100
AcDbLine
10
280
20
0.50000000000000266
30
0
11
330
21
0.50000000000000266
31
0
0
LINE
5
139
100
AcDbEntity
8
0
100
AcDbLine
10
280
20
25.250000000000004
30
0
11
268.80000000000001
21
25.250000000000004
31
0
0
LINE
5
140
100
AcDbEntity
8
0
100
AcDbLine
10
268.80000000000001
20
0.50000000000000266
30
0
11
268.80000000000001
21
25.250000000000004
31
0
0
LINE
5
141
100
AcDbEntity
8
0
100
AcDbLine
10
268.80000000000001
20
50.25
30
0
11
280
21
50.25
31
0
0
LINE
5
142
100
AcDbEntity
8
0
100
AcDbLine
10
268.80000000000001
20
50.25
30
0
11
268.80000000000001
21
75
31
0
0
LINE
5
143
100
AcDbEntity
8
0
100
AcDbLine
10
330
20
0.50000000000000266
30
0
11
330
21
100
31
0
0
LINE
5
144
100
AcDbEntity
8
0
100
AcDbLine
10
350
20
100
30
0
11
400
21
100
31
0
0
LINE
5
145
100
AcDbEntity
8
0
100
AcDbLine
10
400
20
-0.50000000000000711
30
0
11
350
21
-0.50000000000000711
31
0
0
LINE
5
146
100
AcDbEntity
8
0
100
AcDbLine
10
350
20
-0.50000000000000711
30
0
11
350
21
100
31
0
0
LINE
5
147
100
AcDbEntity
8
0
100
AcDbLine
10
400
20
100
30
0
11
411.19999999999999
21
100
31
0
0
LINE
5
148
100
AcDbEntity
8
0
100
AcDbLine
10
411.19999999999999
20
100
30
0
11
411.19999999999999
21
74.75
31
0
0
LINE
5
149
100
AcDbEntity
8
0
100
AcDbLine
10
411.19999999999999
20
74.75
30
0
11
400
21
74.75
31
0
0
LINE
5
150
100
AcDbEntity
8
0
100
AcDbLine
10
400
20
74.75
30
0
11
411.19999999999999
21
74.75
31
0
0
LINE
5
151
100
AcDbEntity
8
0
100
AcDbLine
10
411.19999999999999
20
49.75
30
0
11
400
21
49.75
31
0
0
LINE
5
152
100
AcDbEntity
8
0
100
AcDbLine
10
400
20
49.75
30
0
11
400
21
74.75
31
0
0
LINE
5
153
100
AcDbEntity
8
0
100
AcDbLine
10
400
20
49.75
30
0
11
411.19999999999999
21
49.75
31
0
0
LINE
5
154
100
AcDbEntity
8
0
100
AcDbLine
10
411.19999999999999
20
49.75
30
0
11
411.19999999999999
21
24.499999999999993
31
0
0
LINE
5
155
100
AcDbEntity
8
0
100
AcDbLine
10
411.19999999999999
20
24.499999999999993
30
0
11
400
21
24.499999999999993
31
0
0
LINE
5
156
100
AcDbEntity
8
0
100
AcDbLine
10
400
20
24.499999999999993
30
0
11
411.19999999999999
21
24.499999999999993
31
0
0
LINE
5
157
100
AcDbEntity
8
0
100
AcDbLine
10
400
20
-0.50000000000000711
30
0
11
400
21
24.499999999999993
31
0
0
LINE
5
158
100
AcDbEntity
8
0
100
AcDbLine
10
400
20
74.75
30
0
11
400
21
49.75
31
0
0
LINE
5
159
100
AcDbEntity
8
0
100
AcDbLine
10
490
20
100
30
0
11
490
21
-0.50000000000001599
31
0
0
LINE
5
160
100
AcDbEntity
8
0
100
AcDbLine
10
440
20
75
30
0
11
428.80000000000001
21
75
31
0
0
LINE
5
161
100
AcDbEntity
8
0
100
AcDbLine
10
440
20
24.749999999999996
30
0
11
428.80000000000001
21
24.749999999999996
31
0
0
LINE
5
162
100
AcDbEntity
8
0
100
AcDbLine
10
428.80000000000001
20
75
30
0
11
440
21
75
31
0
0
LINE
5
163
100
AcDbEntity
8
0
100
AcDbLine
10
428.80000000000001
20
-0.49999999999999822
30
0
11
428.80000000000001
21
24.749999999999996
31
0
0
LINE
5
164
100
AcDbEntity
8
0
100
AcDbLine
10
440
20
-0.50000000000001599
30
0
11
428.80000000000001
21
-0.49999999999999822
31
0
0
LINE
5
165
100
AcDbEntity
8
0
100
AcDbLine
10
440
20
100
30
0
11
440
21
75
31
0
0
LINE
5
166
100
AcDbEntity
8
0
100
AcDbLine
10
490
20
-0.50000000000001599
30
0
11
440
21
-0.50000000000001599
31
0
0
LINE
5
167
100
AcDbEntity
8
0
100
AcDbLine
10
428.80000000000001
20
49.75
30
0
11
440
21
49.75
31
0
0
LINE
5
168
100
AcDbEntity
8
0
100
AcDbLine
10
428.80000000000001
20
49.75
30
0
11
428.80000000000001
21
75
31
0
0
LINE
5
169
100
AcDbEntity
8
0
100
AcDbLine
10
440
20
49.75
30
0
11
440
21
24.749999999999996
31
0
0
LINE
5
170
100
AcDbEntity
8
0
100
AcDbLine
10
440
20
24.749999999999996
30
0
11
440
21
49.75
31
0
0
LINE
5
171
100
AcDbEntity
8
0
100
AcDbLine
10
428.80000000000001
20
24.749999999999996
30
0
11
440
21
24.749999999999996
31
0
0
LINE
5
172
100
AcDbEntity
8
0
100
AcDbLine
10
440
20
49.75
30
0
11
428.80000000000001
21
49.75
31
0
0
LINE
5
173
100
AcDbEntity
8
0
100
AcDbLine
10
440
20
100
30
0
11
490
21
100
31
0
0
CIRCLE
5
174
100
AcDbEntity
8
0
100
AcDbCircle
10
10
20
90
30
0
40
2.7500235400867683
210
0
220
0
230
1
0
CIRCLE
5
175
100
AcDbEntity
8
0
100
AcDbCircle
10
145
20
95
30
0
40
2.8374571766910348
210
0
220
0
230
1
0
CIRCLE
5
176
100
AcDbEntity
8
0
100
AcDbCircle
10
190
20
95
30
0
40
2.727665798234693
210
0
220
0
230
1
0
CIRCLE
5
177
100
AcDbEntity
8
0
100
AcDbCircle
10
190
20
85
30
0
40
5
210
0
220
0
230
1
0
CIRCLE
5
178
100
AcDbEntity
8
0
100
AcDbCircle
10
320
20
95
30
0
40
3.636144296808697
210
0
220
0
230
1
0
CIRCLE
5
179
100
AcDbEntity
8
0
100
AcDbCircle
10
320
20
82.316537761254196
30
0
40
4.8258159827045102
210
0
220
0
230
1
0
CIRCLE
5
180
100
AcDbEntity
8
0
100
AcDbCircle
10
355
20
95
30
0
40
2.2528305505600739
210
0
220
0
230
1
0
CIRCLE
5
181
100
AcDbEntity
8
0
100
AcDbCircle
10
359.1877038259417
20
87.554200409603482
30
0
40
2.6802546160408736
210
0
220
0
230
1
0
CIRCLE
5
182
100
AcDbEntity
8
0
100
AcDbCircle
10
359.1877038259417
20
76.580050098776354
30
0
40
2.7435375777067783
210
0
220
0
230
1
0
CIRCLE
5
183
100
AcDbEntity
8
0
100
AcDbCircle
10
485
20
90
30
0
40
2.7988611369437177
210
0
220
0
230
1
0
CIRCLE
5
184
100
AcDbEntity
8
0
100
AcDbCircle
10
482.39748231568274
20
79.074175169418893
30
0
40
3.4917750988995344
210
0
220
0
230
1
0
CIRCLE
5
185
100
AcDbEntity
8
0
100
AcDbCircle
10
482.39748231568274
20
68.848262379784515
30
0
40
3.2423625918352883
210
0
220
0
230
1
0
ENDSEC
0
SECTION
2
OBJECTS
0
DICTIONARY
5
C
100
AcDbDictionary
3
ACAD_GROUP
350
D
3
ACAD_MLINESTYLE
350
17
0
DICTIONARY
5
D
100
AcDbDictionary
0
DICTIONARY
5
1A
330
C
100
AcDbDictionary
0
DICTIONARY
5
17
100
AcDbDictionary
0
ENDSEC
0
EOF
