0
SECTION
2
HEADER
9
$INSUNITS
70
4
0
ENDSEC
0
SECTION
2
TABLES
0
TABLE
2
LTYPE
0
LTYPE
72
65
70
64
2
CONTINUOUS
3
______
73
0
40
0
0
ENDTAB
0
TABLE
2
LAYER
0
ENDTAB
0
ENDSEC
0
SECTION
2
ENTITIES
0
LINE
8
front_outsideCutPath
10
7.925
20
3.087868
11
7.925
21
6
0
LINE
8
front_outsideCutPath
10
7.925
20
6
11
17.375
21
6
0
LINE
8
front_outsideCutPath
10
17.375
20
6
11
17.375
21
3.087868
0
LINE
8
front_outsideCutPath
10
17.375
20
3.087868
11
17.462868
21
3
0
LINE
8
front_outsideCutPath
10
17.462868
20
3
11
25.212132
21
3
0
LINE
8
front_outsideCutPath
10
25.212132
20
3
11
25.3
21
3.087868
0
LINE
8
front_outsideCutPath
10
25.3
20
3.087868
11
25.3
21
10.837132
0
LINE
8
front_outsideCutPath
10
25.3
20
10.837132
11
25.212132
21
10.925
0
LINE
8
front_outsideCutPath
10
25.212132
20
10.925
11
22.3
21
10.925
0
LINE
8
front_outsideCutPath
10
22.3
20
10.925
11
22.3
21
20.375
0
LINE
8
front_outsideCutPath
10
22.3
20
20.375
11
25.212132
21
20.375
0
LINE
8
front_outsideCutPath
10
25.212132
20
20.375
11
25.3
21
20.462868
0
LINE
8
front_outsideCutPath
10
25.3
20
20.462868
11
25.3
21
28.212132
0
LINE
8
front_outsideCutPath
10
25.3
20
28.212132
11
25.212132
21
28.3
0
LINE
8
front_outsideCutPath
10
25.212132
20
28.3
11
17.462868
21
28.3
0
LINE
8
front_outsideCutPath
10
17.462868
20
28.3
11
17.375
21
28.212132
0
LINE
8
front_outsideCutPath
10
17.375
20
28.212132
11
17.375
21
25.3
0
LINE
8
front_outsideCutPath
10
17.375
20
25.3
11
7.925
21
25.3
0
LINE
8
front_outsideCutPath
10
7.925
20
25.3
11
7.925
21
28.212132
0
LINE
8
front_outsideCutPath
10
7.925
20
28.212132
11
7.837132
21
28.3
0
LINE
8
front_outsideCutPath
10
7.837132
20
28.3
11
0.087868
21
28.3
0
LINE
8
front_outsideCutPath
10
0.087868
20
28.3
11
0
21
28.212132
0
LINE
8
front_outsideCutPath
10
0
20
28.212132
11
0
21
20.462868
0
LINE
8
front_outsideCutPath
10
0
20
20.462868
11
0.087868
21
20.375
0
LINE
8
front_outsideCutPath
10
0.087868
20
20.375
11
3
21
20.375
0
LINE
8
front_outsideCutPath
10
3
20
20.375
11
3
21
10.925
0
LINE
8
front_outsideCutPath
10
3
20
10.925
11
0.087868
21
10.925
0
LINE
8
front_outsideCutPath
10
0.087868
20
10.925
11
0
21
10.837132
0
LINE
8
front_outsideCutPath
10
0
20
10.837132
11
0
21
3.087868
0
LINE
8
front_outsideCutPath
10
0
20
3.087868
11
0.087868
21
3
0
LINE
8
front_outsideCutPath
10
0.087868
20
3
11
7.837132
21
3
0
LINE
8
front_outsideCutPath
10
7.837132
20
3
11
7.925
21
3.087868
0
LINE
8
front_labelLayer
10
8.4584521
20
16.4468553
11
8.4584521
21
16.1281346
0
LINE
8
front_labelLayer
10
8.4584521
20
16.1281346
11
7.769126
21
16.1281346
0
LINE
8
front_labelLayer
10
7.769126
20
16.1281346
11
7.769126
21
13.7389647
0
LINE
8
front_labelLayer
10
7.769126
20
13.7389647
11
7.3589892
21
13.7389647
0
LINE
8
front_labelLayer
10
7.3589892
20
13.7389647
11
7.3589892
21
16.1281346
0
LINE
8
front_labelLayer
10
7.3589892
20
16.1281346
11
6.8747314
21
16.1281346
0
LINE
8
front_labelLayer
10
6.8747314
20
16.1281346
11
6.8747314
21
16.3134373
0
LINE
8
front_labelLayer
10
6.8747314
20
16.3134373
11
7.3589892
21
16.4616795
0
LINE
8
front_labelLayer
10
7.3589892
20
16.4616795
11
7.3589892
21
16.6123924
0
LINE
8
front_labelLayer
10
8.7351709
20
17.5240819
11
8.6289307
21
17.1954784
0
LINE
8
front_labelLayer
10
7.769126
20
16.6222752
11
7.769126
21
16.4468553
0
LINE
8
front_labelLayer
10
7.769126
20
16.4468553
11
8.4584521
21
16.4468553
0
ARC
8
front_labelLayer
10
9.0211298
20
16.6315012
40
1.6622504
50
167.5775939
51
180.6586715
0
ARC
8
front_labelLayer
10
8.2394848
20
16.813736
40
0.8597594
50
141.7433907
51
168.2322314
0
ARC
8
front_labelLayer
10
8.1122176
20
16.8801597
40
0.7191885
50
98.2551465
51
139.6203294
0
ARC
8
front_labelLayer
10
8.2239595
20
16.3639653
40
1.246612
50
89.6696331
51
99.9315045
0
ARC
8
front_labelLayer
10
8.2242709
20
16.28983
40
1.3207444
50
81.5640877
51
89.7016835
0
ARC
8
front_labelLayer
10
8.1314189
20
15.6420503
40
1.9751398
50
75.9740031
51
81.6564477
0
ARC
8
front_labelLayer
10
7.9721276
20
14.9813294
40
2.654774
50
73.2962595
51
76.0946815
0
ARC
8
front_labelLayer
10
8.0122065
20
15.301742
40
1.991629
50
71.9613688
51
76.5918235
0
ARC
8
front_labelLayer
10
8.1667249
20
15.9572313
40
1.3181769
50
76.5182561
51
83.0216959
0
ARC
8
front_labelLayer
10
8.2205422
20
16.3900292
40
0.8820469
50
83.0760286
51
89.7925781
0
ARC
8
front_labelLayer
10
8.2187726
20
16.7189804
40
0.553112
50
89.4859084
51
103.4197825
0
ARC
8
front_labelLayer
10
8.1689059
20
16.9105625
40
0.3552107
50
102.7677849
51
144.3380101
0
ARC
8
front_labelLayer
10
8.2693677
20
16.845925
40
0.4745555
50
145.0689006
51
162.180197
0
ARC
8
front_labelLayer
10
8.6138357
20
16.7300307
40
0.8379782
50
161.8438931
51
171.7845896
0
ARC
8
front_labelLayer
10
9.1755795
20
16.645658
40
1.4060175
50
171.6527049
51
178.4384645
0
ARC
8
front_labelLayer
10
9.7058948
20
16.6230522
40
1.936769
50
178.1974789
51
180.0229843
0
LINE
8
front_labelLayer
10
10.5116064
20
16.4666209
11
10.4547803
21
16.0861327
0
LINE
8
front_labelLayer
10
9.3627295
20
15.1917381
11
9.3627295
21
13.7389647
0
LINE
8
front_labelLayer
10
9.3627295
20
13.7389647
11
8.9525928
21
13.7389647
0
LINE
8
front_labelLayer
10
8.9525928
20
13.7389647
11
8.9525928
21
16.4468553
0
LINE
8
front_labelLayer
10
8.9525928
20
16.4468553
11
9.2910791
21
16.4468553
0
LINE
8
front_labelLayer
10
9.2910791
20
16.4468553
11
9.3380225
21
15.9453026
0
LINE
8
front_labelLayer
10
9.3380225
20
15.9453026
11
9.3577881
21
15.9453026
0
ARC
8
front_labelLayer
10
10.1921541
20
14.6134296
40
1.8828445
50
84.9922158
51
90.1281054
0
ARC
8
front_labelLayer
10
10.2373735
20
15.1200179
40
1.374243
50
78.4892364
51
85.0266601
0
ARC
8
front_labelLayer
10
10.0618577
20
14.3217374
40
1.8076169
50
77.4453645
51
81.635939
0
ARC
8
front_labelLayer
10
10.1406126
20
14.8645426
40
1.2591295
50
81.5885899
51
87.1914968
0
ARC
8
front_labelLayer
10
10.1577247
20
15.1613309
40
0.9618626
50
87.3433668
51
89.9659778
0
ARC
8
front_labelLayer
10
10.1537504
20
15.4125628
40
0.7106449
50
89.6335162
51
137.0881025
0
ARC
8
front_labelLayer
10
10.3280235
20
15.2165608
40
0.9720541
50
135.6205953
51
138.838009
0
ARC
8
front_labelLayer
10
10.3025988
20
15.2413843
40
0.9365766
50
138.9575518
51
174.5422609
0
ARC
8
front_labelLayer
10
10.6075822
20
15.1936579
40
1.2448543
50
173.6906289
51
180.0883593
0
ARC
8
front_labelLayer
10
10.5644945
20
15.2654509
40
1.3850411
50
139.413941
51
150.6033313
0
ARC
8
front_labelLayer
10
10.3161583
20
15.4782477
40
1.0580037
50
124.2321197
51
139.4160663
0
ARC
8
front_labelLayer
10
10.1833732
20
15.678687
40
0.8175952
50
89.6796618
51
124.4405638
0
ARC
8
front_labelLayer
10
11.2369138
20
15.0810978
40
2.1185201
50
349.1761929
51
0.3862867
0
ARC
8
front_labelLayer
10
11.9501719
20
14.9389076
40
1.3912611
50
330.2506684
51
349.4116845
0
ARC
8
front_labelLayer
10
12.1696753
20
14.8248169
40
1.1441173
50
318.143946
51
329.7566435
0
ARC
8
front_labelLayer
10
12.2092888
20
14.7930702
40
1.0934325
50
278.8959095
51
317.99791
0
ARC
8
front_labelLayer
10
12.1072096
20
15.2821437
40
1.5926082
50
269.750287
51
279.803301
0
ARC
8
front_labelLayer
10
12.0906537
20
15.0065771
40
1.3170616
50
253.5436898
51
270.4182744
0
ARC
8
front_labelLayer
10
12.0468127
20
14.836987
40
1.1420147
50
238.8115436
51
253.2428095
0
ARC
8
front_labelLayer
10
12.0326628
20
14.8085317
40
1.1103477
50
207.7947043
51
238.6757886
0
ARC
8
front_labelLayer
10
12.2355991
20
14.9328285
40
1.3479175
50
205.655829
51
208.4461683
0
ARC
8
front_labelLayer
10
12.3920894
20
14.9980434
40
1.5172419
50
188.9102768
51
205.3171162
0
ARC
8
front_labelLayer
10
12.9191051
20
15.0873034
40
2.0517333
50
179.7744376
51
189.0933212
0
ARC
8
front_labelLayer
10
12.9968784
20
15.1098034
40
2.1295396
50
169.2443373
51
180.3880491
0
ARC
8
front_labelLayer
10
12.2736915
20
15.2527503
40
1.3923915
50
150.7111311
51
169.4695731
0
ARC
8
front_labelLayer
10
12.0428282
20
15.3713087
40
1.1330804
50
138.1758758
51
150.228777
0
ARC
8
front_labelLayer
10
12.0044349
20
15.4007718
40
1.0848289
50
99.175943
51
137.9832741
0
ARC
8
front_labelLayer
10
12.1101313
20
14.9033422
40
1.5929445
50
89.7326765
51
100.0759258
0
ARC
8
front_labelLayer
10
12.1312556
20
15.1181763
40
1.3781611
50
73.5222675
51
90.569248
0
ARC
8
front_labelLayer
10
12.2120762
20
15.4118181
40
1.0736705
50
41.1445833
51
73.2133907
0
ARC
8
front_labelLayer
10
12.0577965
20
15.2792165
40
1.2770988
50
13.5014325
51
41.070367
0
ARC
8
front_labelLayer
10
11.4617366
20
15.1232356
40
1.893144
50
1.1276868
51
13.8799982
0
ARC
8
front_labelLayer
10
10.9482387
20
15.0957137
40
2.4071472
50
359.9920739
51
1.5421048
0
ARC
8
front_labelLayer
10
13.369243
20
15.0847222
40
2.0769218
50
179.7059637
51
187.9160891
0
ARC
8
front_labelLayer
10
12.607499
20
14.975298
40
1.3073709
50
187.7639283
51
200.0976464
0
ARC
8
front_labelLayer
10
12.1878522
20
14.8215407
40
0.8604428
50
200.0846393
51
216.913132
0
ARC
8
front_labelLayer
10
12.0346089
20
14.712118
40
0.6722134
50
217.3009441
51
261.7099092
0
ARC
8
front_labelLayer
10
12.105748
20
15.0515919
40
1.018623
50
260.5033672
51
270.2476821
0
ARC
8
front_labelLayer
10
12.1193271
20
14.9855742
40
0.9526401
50
269.4481214
51
284.725564
0
ARC
8
front_labelLayer
10
12.1947414
20
14.7058867
40
0.662972
50
284.5662295
51
322.6333601
0
ARC
8
front_labelLayer
10
12.0184196
20
14.8332716
40
0.8804374
50
323.0088943
51
342.6390753
0
ARC
8
front_labelLayer
10
11.514098
20
14.9980996
40
1.4109837
50
342.3615426
51
353.7537807
0
ARC
8
front_labelLayer
10
10.7700708
20
15.0877844
40
2.1603673
50
353.5362713
51
0.2014641
0
ARC
8
front_labelLayer
10
10.884015
20
15.1058241
40
2.0464364
50
359.7076058
51
7.8972004
0
ARC
8
front_labelLayer
10
11.6334869
20
15.2132641
40
1.2893151
50
7.7440401
51
20.068989
0
ARC
8
front_labelLayer
10
12.0511247
20
15.3665219
40
0.8444459
50
20.0256339
51
37.4351148
0
ARC
8
front_labelLayer
10
12.1896837
20
15.4648426
40
0.6746868
50
37.9577324
51
80.4006349
0
ARC
8
front_labelLayer
10
12.1109426
20
15.1135044
40
1.0344116
50
79.3453941
51
90.317532
0
ARC
8
front_labelLayer
10
12.0963617
20
15.1718636
40
0.9760767
50
89.4805974
51
103.8805212
0
ARC
8
front_labelLayer
10
12.0143459
20
15.4841786
40
0.6532235
50
103.4685274
51
142.311909
0
ARC
8
front_labelLayer
10
12.1737934
20
15.3720437
40
0.8480026
50
142.9025962
51
162.3749208
0
ARC
8
front_labelLayer
10
12.6762069
20
15.2046159
40
1.377547
50
162.0652982
51
173.1674352
0
ARC
8
front_labelLayer
10
13.4595902
20
15.1047019
40
2.1672615
50
173.0086374
51
180.2464241
0
LINE
8
front_labelLayer
10
16.3375244
20
13.7389647
11
15.9273877
21
13.7389647
0
LINE
8
front_labelLayer
10
15.9273877
20
13.7389647
11
15.9273877
21
15.4906932
0
LINE
8
front_labelLayer
10
14.4844971
20
15.159619
11
14.4844971
21
13.7389647
0
LINE
8
front_labelLayer
10
14.4844971
20
13.7389647
11
14.0743603
21
13.7389647
0
LINE
8
front_labelLayer
10
14.0743603
20
13.7389647
11
14.0743603
21
16.4468553
0
LINE
8
front_labelLayer
10
14.0743603
20
16.4468553
11
14.4079053
21
16.4468553
0
LINE
8
front_labelLayer
10
14.4079053
20
16.4468553
11
14.4746142
21
16.0762498
0
LINE
8
front_labelLayer
10
14.4746142
20
16.0762498
11
14.4943799
21
16.0762498
0
LINE
8
front_labelLayer
10
16.3375244
20
15.5055174
11
16.3375244
21
13.7389647
0
ARC
8
front_labelLayer
10
14.7680333
20
15.4973408
40
1.1593735
50
359.6714769
51
8.6876327
0
ARC
8
front_labelLayer
10
15.1977335
20
15.5654852
40
0.7243145
50
8.4932365
51
22.6578993
0
ARC
8
front_labelLayer
10
15.4160496
20
15.6562086
40
0.4878987
50
22.7025307
51
42.3418268
0
ARC
8
front_labelLayer
10
15.4405943
20
15.6672505
40
0.4623951
50
43.379096
51
71.5386552
0
ARC
8
front_labelLayer
10
15.3488302
20
15.4108372
40
0.7346946
50
71.0828494
51
84.3691828
0
ARC
8
front_labelLayer
10
15.3076354
20
15.0605806
40
1.0873234
50
84.0198435
51
90.1509638
0
ARC
8
front_labelLayer
10
15.2959597
20
14.9066365
40
1.241295
50
89.5933076
51
100.3717884
0
ARC
8
front_labelLayer
10
15.2082388
20
15.3668795
40
0.772787
50
100.1176458
51
118.1602169
0
ARC
8
front_labelLayer
10
15.1198379
20
15.5402272
40
0.5782514
50
118.5439207
51
139.1926166
0
ARC
8
front_labelLayer
10
15.1969189
20
15.4885061
40
0.6704893
50
140.1519278
51
160.3146336
0
ARC
8
front_labelLayer
10
15.6623729
20
15.3141657
40
1.1674912
50
159.9533873
51
171.3801607
0
ARC
8
front_labelLayer
10
16.4227367
20
15.1919392
40
1.9375975
50
171.1765867
51
178.3217343
0
ARC
8
front_labelLayer
10
17.1120486
20
15.160698
40
2.6275519
50
178.0809998
51
180.0235279
0
ARC
8
front_labelLayer
10
15.1959818
20
15.6319019
40
0.830476
50
116.9443108
51
147.6525564
0
ARC
8
front_labelLayer
10
15.2827028
20
15.4867696
40
0.9992159
50
115.8078085
51
117.6062792
0
ARC
8
front_labelLayer
10
15.3266154
20
15.3842817
40
1.1106107
50
94.3226937
51
115.5454352
0
ARC
8
front_labelLayer
10
15.353195
20
15.1533423
40
1.3429273
50
89.9577801
51
94.7108277
0
ARC
8
front_labelLayer
10
15.3641833
20
14.8770059
40
1.6192944
50
80.5585275
51
90.3537897
0
ARC
8
front_labelLayer
10
15.4653784
20
15.4631678
40
1.0244794
50
65.1094843
51
80.7637951
0
ARC
8
front_labelLayer
10
15.5836711
20
15.7251865
40
0.7370169
50
46.5584818
51
64.8782053
0
ARC
8
front_labelLayer
10
15.5931386
20
15.7524812
40
0.7107884
50
19.3849066
51
45.5996727
0
ARC
8
front_labelLayer
10
15.1819326
20
15.5981897
40
1.1499302
50
6.9633045
51
19.8363392
0
ARC
8
front_labelLayer
10
14.547734
20
15.5129176
40
1.7898057
50
359.7631013
51
7.2116225
0
LINE
8
front_labelLayer
10
18.4252685
20
14.077451
11
18.4252685
21
13.7636717
0
LINE
8
front_labelLayer
10
17.2096826
20
14.5172362
11
17.2096826
21
16.1281346
0
LINE
8
front_labelLayer
10
17.2096826
20
16.1281346
11
16.8217822
21
16.1281346
0
LINE
8
front_labelLayer
10
16.8217822
20
16.1281346
11
16.8217822
21
16.3257909
0
LINE
8
front_labelLayer
10
16.8217822
20
16.3257909
11
17.2096826
21
16.4962694
0
LINE
8
front_labelLayer
10
17.2096826
20
16.4962694
11
17.3826318
21
17.0744139
0
LINE
8
front_labelLayer
10
17.3826318
20
17.0744139
11
17.6198193
21
17.0744139
0
LINE
8
front_labelLayer
10
17.6198193
20
17.0744139
11
17.6198193
21
16.4468553
0
LINE
8
front_labelLayer
10
17.6198193
20
16.4468553
11
18.4055029
21
16.4468553
0
LINE
8
front_labelLayer
10
18.4055029
20
16.4468553
11
18.4055029
21
16.1281346
0
LINE
8
front_labelLayer
10
18.4055029
20
16.1281346
11
17.6198193
21
16.1281346
0
LINE
8
front_labelLayer
10
17.6198193
20
16.1281346
11
17.6198193
21
14.5345311
0
ARC
8
front_labelLayer
10
18.0574744
20
15.3749856
40
1.3469516
50
269.8804149
51
278.3028514
0
ARC
8
front_labelLayer
10
18.0704258
20
15.2694402
40
1.2406447
50
278.4148728
51
279.0078298
0
ARC
8
front_labelLayer
10
17.919045
20
16.2364144
40
2.2193955
50
278.9591716
51
280.5101121
0
ARC
8
front_labelLayer
10
18.0631047
20
15.4633299
40
1.4330035
50
280.4851164
51
282.6264829
0
ARC
8
front_labelLayer
10
18.1895503
20
14.9015456
40
0.8571654
50
282.5873988
51
285.5797118
0
ARC
8
front_labelLayer
10
18.2543266
20
14.6635925
40
0.6105596
50
285.7216828
51
286.2587671
0
ARC
8
front_labelLayer
10
18.2528252
20
14.1284024
40
0.4034417
50
287.9891493
51
295.3046215
0
ARC
8
front_labelLayer
10
18.1555502
20
14.4226996
40
0.7133961
50
283.3068291
51
288.1200462
0
ARC
8
front_labelLayer
10
18.052786
20
14.8513312
40
1.154173
50
280.0067409
51
283.3737887
0
ARC
8
front_labelLayer
10
17.9840462
20
15.2242571
40
1.533373
50
279.1865245
51
280.1148401
0
ARC
8
front_labelLayer
10
17.9417532
20
15.4648979
40
1.7776822
50
275.5261145
51
279.2939326
0
ARC
8
front_labelLayer
10
17.9893269
20
14.9680543
40
1.2785664
50
270.8933983
51
275.5482114
0
ARC
8
front_labelLayer
10
17.9952931
20
14.743266
40
1.0537154
50
270.0039737
51
270.7596069
0
ARC
8
front_labelLayer
10
17.9788159
20
14.7606387
40
1.0712159
50
253.7847785
51
270.8852551
0
ARC
8
front_labelLayer
10
17.8519054
20
14.3278263
40
0.6201826
50
190.3817883
51
253.8772261
0
ARC
8
front_labelLayer
10
18.4987623
20
14.502726
40
1.2891615
50
179.3550945
51
192.8478103
0
ARC
8
front_labelLayer
10
18.4456982
20
14.5293669
40
0.8258951
50
179.6417338
51
189.7504748
0
ARC
8
front_labelLayer
10
18.1541299
20
14.4773631
40
0.5297346
50
189.5478713
51
205.7873261
0
ARC
8
front_labelLayer
10
18.0343207
20
14.4221162
40
0.3978293
50
206.1294802
51
221.4082255
0
ARC
8
front_labelLayer
10
18.0208813
20
14.4119199
40
0.3810074
50
221.5949404
51
262.3505237
0
ARC
8
front_labelLayer
10
18.0528339
20
14.5762273
40
0.5481936
50
261.3265255
51
270.1911834
0
LINE
8
left_outsideCutPath
10
41.475
20
3.087868
11
41.475
21
6
0
LINE
8
left_outsideCutPath
10
41.475
20
6
11
50.925
21
6
0
LINE
8
left_outsideCutPath
10
50.925
20
6
11
50.925
21
3.087868
0
LINE
8
left_outsideCutPath
10
50.925
20
3.087868
11
51.012868
21
3
0
LINE
8
left_outsideCutPath
10
51.012868
20
3
11
60.887132
21
3
0
LINE
8
left_outsideCutPath
10
60.887132
20
3
11
60.975
21
3.087868
0
LINE
8
left_outsideCutPath
10
60.975
20
3.087868
11
60.975
21
6
0
LINE
8
left_outsideCutPath
10
60.975
20
6
11
70.425
21
6
0
LINE
8
left_outsideCutPath
10
70.425
20
6
11
70.425
21
3.087868
0
LINE
8
left_outsideCutPath
10
70.425
20
3.087868
11
70.512868
21
3
0
LINE
8
left_outsideCutPath
10
70.512868
20
3
11
80.512132
21
3
0
LINE
8
left_outsideCutPath
10
80.512132
20
3
11
80.6
21
3.087868
0
LINE
8
left_outsideCutPath
10
80.6
20
3.087868
11
80.6
21
10.625
0
LINE
8
left_outsideCutPath
10
80.6
20
10.625
11
83.512132
21
10.625
0
LINE
8
left_outsideCutPath
10
83.512132
20
10.625
11
83.6
21
10.712868
0
LINE
8
left_outsideCutPath
10
83.6
20
10.712868
11
83.6
21
20.587132
0
LINE
8
left_outsideCutPath
10
83.6
20
20.587132
11
83.512132
21
20.675
0
LINE
8
left_outsideCutPath
10
83.512132
20
20.675
11
80.6
21
20.675
0
LINE
8
left_outsideCutPath
10
80.6
20
20.675
11
80.6
21
28.212132
0
LINE
8
left_outsideCutPath
10
80.6
20
28.212132
11
80.512132
21
28.3
0
LINE
8
left_outsideCutPath
10
80.512132
20
28.3
11
70.512868
21
28.3
0
LINE
8
left_outsideCutPath
10
70.512868
20
28.3
11
70.425
21
28.212132
0
LINE
8
left_outsideCutPath
10
70.425
20
28.212132
11
70.425
21
25.3
0
LINE
8
left_outsideCutPath
10
70.425
20
25.3
11
60.975
21
25.3
0
LINE
8
left_outsideCutPath
10
60.975
20
25.3
11
60.975
21
28.212132
0
LINE
8
left_outsideCutPath
10
60.975
20
28.212132
11
60.887132
21
28.3
0
LINE
8
left_outsideCutPath
10
60.887132
20
28.3
11
51.012868
21
28.3
0
LINE
8
left_outsideCutPath
10
51.012868
20
28.3
11
50.925
21
28.212132
0
LINE
8
left_outsideCutPath
10
50.925
20
28.212132
11
50.925
21
25.3
0
LINE
8
left_outsideCutPath
10
50.925
20
25.3
11
41.475
21
25.3
0
LINE
8
left_outsideCutPath
10
41.475
20
25.3
11
41.475
21
28.212132
0
LINE
8
left_outsideCutPath
10
41.475
20
28.212132
11
41.387132
21
28.3
0
LINE
8
left_outsideCutPath
10
41.387132
20
28.3
11
31.387868
21
28.3
0
LINE
8
left_outsideCutPath
10
31.387868
20
28.3
11
31.3
21
28.212132
0
LINE
8
left_outsideCutPath
10
31.3
20
28.212132
11
31.3
21
20.675
0
LINE
8
left_outsideCutPath
10
31.3
20
20.675
11
28.387868
21
20.675
0
LINE
8
left_outsideCutPath
10
28.387868
20
20.675
11
28.3
21
20.587132
0
LINE
8
left_outsideCutPath
10
28.3
20
20.587132
11
28.3
21
10.712868
0
LINE
8
left_outsideCutPath
10
28.3
20
10.712868
11
28.387868
21
10.625
0
LINE
8
left_outsideCutPath
10
28.387868
20
10.625
11
31.3
21
10.625
0
LINE
8
left_outsideCutPath
10
31.3
20
10.625
11
31.3
21
3.087868
0
LINE
8
left_outsideCutPath
10
31.3
20
3.087868
11
31.387868
21
3
0
LINE
8
left_outsideCutPath
10
31.387868
20
3
11
41.387132
21
3
0
LINE
8
left_outsideCutPath
10
41.387132
20
3
11
41.475
21
3.087868
0
LINE
8
left_labelLayer
10
52.8208545
20
17.5833787
11
52.8208545
21
13.7389647
0
LINE
8
left_labelLayer
10
52.8208545
20
13.7389647
11
52.4107178
21
13.7389647
0
LINE
8
left_labelLayer
10
52.4107178
20
13.7389647
11
52.4107178
21
17.5833787
0
LINE
8
left_labelLayer
10
52.4107178
20
17.5833787
11
52.8208545
21
17.5833787
0
LINE
8
left_labelLayer
10
55.8301709
20
15.2782127
11
55.8301709
21
15.0187889
0
LINE
8
left_labelLayer
10
55.8301709
20
15.0187889
11
53.96479
21
15.0187889
0
LINE
8
left_labelLayer
10
55.7140478
20
14.2306346
11
55.7140478
21
13.8649705
0
LINE
8
left_labelLayer
10
53.9746728
20
15.3523338
11
55.3903857
21
15.3523338
0
ARC
8
left_labelLayer
10
54.8209917
20
15.2832661
40
1.5937725
50
256.0087984
51
270.4848177
0
ARC
8
left_labelLayer
10
54.7049334
20
14.8327043
40
1.1285239
50
223.5465735
51
256.1957157
0
ARC
8
left_labelLayer
10
54.7689577
20
14.8792386
40
1.2070337
50
194.0877413
51
223.0538241
0
ARC
8
left_labelLayer
10
55.3555952
20
15.0396613
40
1.8151207
50
181.3574723
51
194.4919743
0
ARC
8
left_labelLayer
10
55.8826067
20
15.0702183
40
2.3427779
50
179.9888636
51
181.7992415
0
ARC
8
left_labelLayer
10
55.6933956
20
15.0851211
40
2.153615
50
168.9539316
51
180.3843698
0
ARC
8
left_labelLayer
10
54.9900368
20
15.2283372
40
1.4358586
50
149.4071
51
169.1853912
0
ARC
8
left_labelLayer
10
54.794085
20
15.3318667
40
1.2145388
50
140.1056882
51
148.9066671
0
ARC
8
left_labelLayer
10
54.6736728
20
15.4428776
40
1.0509856
50
92.476269
51
140.5386352
0
ARC
8
left_labelLayer
10
54.7273188
20
15.0464228
40
1.4498467
50
89.9637019
51
93.9175372
0
ARC
8
left_labelLayer
10
54.7401229
20
15.2467944
40
1.2495315
50
74.2126151
51
90.5450073
0
ARC
8
left_labelLayer
10
54.8183835
20
15.5351452
40
0.9507708
50
41.2065035
51
74.0232288
0
ARC
8
left_labelLayer
10
54.670172
20
15.4068798
40
1.1467748
50
11.5994223
51
41.1496067
0
ARC
8
left_labelLayer
10
54.1609197
20
15.2894367
40
1.6692888
50
359.6147521
51
12.0336268
0
ARC
8
left_labelLayer
10
55.6105965
20
15.0516738
40
1.646135
50
181.1446765
51
190.8006931
0
ARC
8
left_labelLayer
10
55.0298632
20
14.9371376
40
1.0542324
50
190.600596
51
206.0274949
0
ARC
8
left_labelLayer
10
54.7729164
20
14.8156639
40
0.7700497
50
206.294956
51
222.5558397
0
ARC
8
left_labelLayer
10
54.7501547
20
14.8037488
40
0.745254
50
223.0645673
51
258.1400932
0
ARC
8
left_labelLayer
10
54.8407884
20
15.176943
40
1.1291724
50
257.5311703
51
270.4319827
0
ARC
8
left_labelLayer
10
54.8418014
20
16.2139457
40
2.1661562
50
270.1983872
51
292.2090485
0
ARC
8
left_labelLayer
10
54.7374056
20
16.513593
40
2.4830886
50
291.8257348
51
293.1610834
0
ARC
8
left_labelLayer
10
54.7328103
20
16.123147
40
2.4621511
50
287.9022675
51
293.4862242
0
ARC
8
left_labelLayer
10
54.9113882
20
15.5721769
40
1.8829639
50
281.9936949
51
287.8850281
0
ARC
8
left_labelLayer
10
54.9546897
20
15.4165539
40
1.721769
50
275.9054947
51
281.6603503
0
ARC
8
left_labelLayer
10
54.8680409
20
16.2253698
40
2.5352092
50
271.9119063
51
275.9726518
0
ARC
8
left_labelLayer
10
54.8364122
20
17.0307765
40
3.3412264
50
269.966824
51
271.9931959
0
ARC
8
left_labelLayer
10
54.7154249
20
15.3444117
40
0.8084682
50
89.4421787
51
106.209047
0
ARC
8
left_labelLayer
10
54.6667868
20
15.5217499
40
0.6246086
50
106.4657037
51
137.9176921
0
ARC
8
left_labelLayer
10
54.8062314
20
15.3992922
40
0.8101772
50
138.0994
51
160.5866929
0
ARC
8
left_labelLayer
10
55.1646922
20
15.2674201
40
1.1921009
50
160.3353588
51
172.5314977
0
ARC
8
left_labelLayer
10
55.517586
20
15.2108764
40
1.5493841
50
172.1545046
51
174.7616497
0
ARC
8
left_labelLayer
10
53.9928083
20
15.3602731
40
1.3976
50
359.6745195
51
8.9224557
0
ARC
8
left_labelLayer
10
54.4922058
20
15.4416431
40
0.8916302
50
8.7341781
51
23.2772013
0
ARC
8
left_labelLayer
10
54.72929
20
15.5411663
40
0.6345181
50
23.4820458
51
39.7072662
0
ARC
8
left_labelLayer
10
54.7875206
20
15.5847422
40
0.5618931
50
40.0822852
51
80.6243242
0
ARC
8
left_labelLayer
10
54.7275759
20
15.3099592
40
0.8428935
50
79.646808
51
90.2909348
0
LINE
8
left_labelLayer
10
57.7499072
20
16.4468553
11
57.7499072
21
16.1281346
0
LINE
8
left_labelLayer
10
57.7499072
20
16.1281346
11
57.060581
21
16.1281346
0
LINE
8
left_labelLayer
10
57.060581
20
16.1281346
11
57.060581
21
13.7389647
0
LINE
8
left_labelLayer
10
57.060581
20
13.7389647
11
56.6504443
21
13.7389647
0
LINE
8
left_labelLayer
10
56.6504443
20
13.7389647
11
56.6504443
21
16.1281346
0
LINE
8
left_labelLayer
10
56.6504443
20
16.1281346
11
56.1661865
21
16.1281346
0
LINE
8
left_labelLayer
10
56.1661865
20
16.1281346
11
56.1661865
21
16.3134373
0
LINE
8
left_labelLayer
10
56.1661865
20
16.3134373
11
56.6504443
21
16.4616795
0
LINE
8
left_labelLayer
10
56.6504443
20
16.4616795
11
56.6504443
21
16.6123924
0
LINE
8
left_labelLayer
10
58.026626
20
17.5240819
11
57.9203857
21
17.1954784
0
LINE
8
left_labelLayer
10
57.060581
20
16.6222752
11
57.060581
21
16.4468553
0
LINE
8
left_labelLayer
10
57.060581
20
16.4468553
11
57.7499072
21
16.4468553
0
ARC
8
left_labelLayer
10
58.3125849
20
16.6315012
40
1.6622504
50
167.5775939
51
180.6586715
0
ARC
8
left_labelLayer
10
57.5309399
20
16.813736
40
0.8597594
50
141.7433907
51
168.2322314
0
ARC
8
left_labelLayer
10
57.4036727
20
16.8801597
40
0.7191885
50
98.2551465
51
139.6203294
0
ARC
8
left_labelLayer
10
57.5154146
20
16.3639653
40
1.246612
50
89.6696331
51
99.9315045
0
ARC
8
left_labelLayer
10
57.515726
20
16.28983
40
1.3207444
50
81.5640877
51
89.7016835
0
ARC
8
left_labelLayer
10
57.422874
20
15.6420503
40
1.9751398
50
75.9740031
51
81.6564477
0
ARC
8
left_labelLayer
10
57.2635827
20
14.9813294
40
2.654774
50
73.2962595
51
76.0946815
0
ARC
8
left_labelLayer
10
57.3036615
20
15.301742
40
1.991629
50
71.9613688
51
76.5918235
0
ARC
8
left_labelLayer
10
57.45818
20
15.9572313
40
1.3181769
50
76.5182561
51
83.0216959
0
ARC
8
left_labelLayer
10
57.5119972
20
16.3900292
40
0.8820469
50
83.0760286
51
89.7925781
0
ARC
8
left_labelLayer
10
57.5102276
20
16.7189804
40
0.553112
50
89.4859084
51
103.4197825
0
ARC
8
left_labelLayer
10
57.4603609
20
16.9105625
40
0.3552107
50
102.7677849
51
144.3380101
0
ARC
8
left_labelLayer
10
57.5608228
20
16.845925
40
0.4745555
50
145.0689006
51
162.180197
0
ARC
8
left_labelLayer
10
57.9052908
20
16.7300307
40
0.8379782
50
161.8438931
51
171.7845896
0
ARC
8
left_labelLayer
10
58.4670346
20
16.645658
40
1.4060175
50
171.6527049
51
178.4384645
0
ARC
8
left_labelLayer
10
58.9973499
20
16.6230522
40
1.936769
50
178.1974789
51
180.0229843
0
LINE
8
left_labelLayer
10
59.4892822
20
14.077451
11
59.4892822
21
13.7636717
0
LINE
8
left_labelLayer
10
58.2736963
20
14.5172362
11
58.2736963
21
16.1281346
0
LINE
8
left_labelLayer
10
58.2736963
20
16.1281346
11
57.8857959
21
16.1281346
0
LINE
8
left_labelLayer
10
57.8857959
20
16.1281346
11
57.8857959
21
16.3257909
0
LINE
8
left_labelLayer
10
57.8857959
20
16.3257909
11
58.2736963
21
16.4962694
0
LINE
8
left_labelLayer
10
58.2736963
20
16.4962694
11
58.4466455
21
17.0744139
0
LINE
8
left_labelLayer
10
58.4466455
20
17.0744139
11
58.683833
21
17.0744139
0
LINE
8
left_labelLayer
10
58.683833
20
17.0744139
11
58.683833
21
16.4468553
0
LINE
8
left_labelLayer
10
58.683833
20
16.4468553
11
59.4695166
21
16.4468553
0
LINE
8
left_labelLayer
10
59.4695166
20
16.4468553
11
59.4695166
21
16.1281346
0
LINE
8
left_labelLayer
10
59.4695166
20
16.1281346
11
58.683833
21
16.1281346
0
LINE
8
left_labelLayer
10
58.683833
20
16.1281346
11
58.683833
21
14.5345311
0
ARC
8
left_labelLayer
10
59.121488
20
15.3749856
40
1.3469516
50
269.8804149
51
278.3028514
0
ARC
8
left_labelLayer
10
59.1344395
20
15.2694402
40
1.2406447
50
278.4148728
51
279.0078298
0
ARC
8
left_labelLayer
10
58.9830587
20
16.2364144
40
2.2193955
50
278.9591716
51
280.5101121
0
ARC
8
left_labelLayer
10
59.1271184
20
15.4633299
40
1.4330035
50
280.4851164
51
282.6264829
0
ARC
8
left_labelLayer
10
59.2535639
20
14.9015456
40
0.8571654
50
282.5873988
51
285.5797118
0
ARC
8
left_labelLayer
10
59.3183402
20
14.6635925
40
0.6105596
50
285.7216828
51
286.2587671
0
ARC
8
left_labelLayer
10
59.3168388
20
14.1284024
40
0.4034417
50
287.9891493
51
295.3046215
0
ARC
8
left_labelLayer
10
59.2195639
20
14.4226996
40
0.7133961
50
283.3068291
51
288.1200462
0
ARC
8
left_labelLayer
10
59.1167997
20
14.8513312
40
1.154173
50
280.0067409
51
283.3737887
0
ARC
8
left_labelLayer
10
59.0480599
20
15.2242571
40
1.533373
50
279.1865245
51
280.1148401
0
ARC
8
left_labelLayer
10
59.0057669
20
15.4648979
40
1.7776822
50
275.5261145
51
279.2939326
0
ARC
8
left_labelLayer
10
59.0533406
20
14.9680543
40
1.2785664
50
270.8933983
51
275.5482114
0
ARC
8
left_labelLayer
10
59.0593068
20
14.743266
40
1.0537154
50
270.0039737
51
270.7596069
0
ARC
8
left_labelLayer
10
59.0428296
20
14.7606387
40
1.0712159
50
253.7847785
51
270.8852551
0
ARC
8
left_labelLayer
10
58.9159191
20
14.3278263
40
0.6201826
50
190.3817883
51
253.8772261
0
ARC
8
left_labelLayer
10
59.562776
20
14.502726
40
1.2891615
50
179.3550945
51
192.8478103
0
ARC
8
left_labelLayer
10
59.5097119
20
14.5293669
40
0.8258951
50
179.6417338
51
189.7504748
0
ARC
8
left_labelLayer
10
59.2181436
20
14.4773631
40
0.5297346
50
189.5478713
51
205.7873261
0
ARC
8
left_labelLayer
10
59.0983344
20
14.4221162
40
0.3978293
50
206.1294802
51
221.4082255
0
ARC
8
left_labelLayer
10
59.084895
20
14.4119199
40
0.3810074
50
221.5949404
51
262.3505237
0
ARC
8
left_labelLayer
10
59.1168476
20
14.5762273
40
0.5481936
50
261.3265255
51
270.1911834
0
LINE
8
top_outsideCutPath
10
104.275
20
3.087868
11
104.275
21
6
0
LINE
8
top_outsideCutPath
10
104.275
20
6
11
108.812132
21
6
0
LINE
8
top_outsideCutPath
10
108.812132
20
6
11
108.9
21
6.087868
0
LINE
8
top_outsideCutPath
10
108.9
20
6.087868
11
108.9
21
15.875
0
LINE
8
top_outsideCutPath
10
108.9
20
15.875
11
111.812132
21
15.875
0
LINE
8
top_outsideCutPath
10
111.812132
20
15.875
11
111.9
21
15.962868
0
LINE
8
top_outsideCutPath
10
111.9
20
15.962868
11
111.9
21
25.837132
0
LINE
8
top_outsideCutPath
10
111.9
20
25.837132
11
111.812132
21
25.925
0
LINE
8
top_outsideCutPath
10
111.812132
20
25.925
11
108.9
21
25.925
0
LINE
8
top_outsideCutPath
10
108.9
20
25.925
11
108.9
21
35.375
0
LINE
8
top_outsideCutPath
10
108.9
20
35.375
11
111.812132
21
35.375
0
LINE
8
top_outsideCutPath
10
111.812132
20
35.375
11
111.9
21
35.462868
0
LINE
8
top_outsideCutPath
10
111.9
20
35.462868
11
111.9
21
45.337132
0
LINE
8
top_outsideCutPath
10
111.9
20
45.337132
11
111.812132
21
45.425
0
LINE
8
top_outsideCutPath
10
111.812132
20
45.425
11
108.9
21
45.425
0
LINE
8
top_outsideCutPath
10
108.9
20
45.425
11
108.9
21
55.212132
0
LINE
8
top_outsideCutPath
10
108.9
20
55.212132
11
108.812132
21
55.3
0
LINE
8
top_outsideCutPath
10
108.812132
20
55.3
11
104.275
21
55.3
0
LINE
8
top_outsideCutPath
10
104.275
20
55.3
11
104.275
21
58.212132
0
LINE
8
top_outsideCutPath
10
104.275
20
58.212132
11
104.187132
21
58.3
0
LINE
8
top_outsideCutPath
10
104.187132
20
58.3
11
94.312868
21
58.3
0
LINE
8
top_outsideCutPath
10
94.312868
20
58.3
11
94.225
21
58.212132
0
LINE
8
top_outsideCutPath
10
94.225
20
58.212132
11
94.225
21
55.3
0
LINE
8
top_outsideCutPath
10
94.225
20
55.3
11
89.687868
21
55.3
0
LINE
8
top_outsideCutPath
10
89.687868
20
55.3
11
89.6
21
55.212132
0
LINE
8
top_outsideCutPath
10
89.6
20
55.212132
11
89.6
21
45.425
0
LINE
8
top_outsideCutPath
10
89.6
20
45.425
11
86.687868
21
45.425
0
LINE
8
top_outsideCutPath
10
86.687868
20
45.425
11
86.6
21
45.337132
0
LINE
8
top_outsideCutPath
10
86.6
20
45.337132
11
86.6
21
35.462868
0
LINE
8
top_outsideCutPath
10
86.6
20
35.462868
11
86.687868
21
35.375
0
LINE
8
top_outsideCutPath
10
86.687868
20
35.375
11
89.6
21
35.375
0
LINE
8
top_outsideCutPath
10
89.6
20
35.375
11
89.6
21
25.925
0
LINE
8
top_outsideCutPath
10
89.6
20
25.925
11
86.687868
21
25.925
0
LINE
8
top_outsideCutPath
10
86.687868
20
25.925
11
86.6
21
25.837132
0
LINE
8
top_outsideCutPath
10
86.6
20
25.837132
11
86.6
21
15.962868
0
LINE
8
top_outsideCutPath
10
86.6
20
15.962868
11
86.687868
21
15.875
0
LINE
8
top_outsideCutPath
10
86.687868
20
15.875
11
89.6
21
15.875
0
LINE
8
top_outsideCutPath
10
89.6
20
15.875
11
89.6
21
6.087868
0
LINE
8
top_outsideCutPath
10
89.6
20
6.087868
11
89.687868
21
6
0
LINE
8
top_outsideCutPath
10
89.687868
20
6
11
94.225
21
6
0
LINE
8
top_outsideCutPath
10
94.225
20
6
11
94.225
21
3.087868
0
LINE
8
top_outsideCutPath
10
94.225
20
3.087868
11
94.312868
21
3
0
LINE
8
top_outsideCutPath
10
94.312868
20
3
11
104.187132
21
3
0
LINE
8
top_outsideCutPath
10
104.187132
20
3
11
104.275
21
3.087868
0
LINE
8
top_labelLayer
10
97.0609361
20
29.9285547
11
97.0609361
21
29.6147754
0
LINE
8
top_labelLayer
10
95.8453502
20
30.3683398
11
95.8453502
21
31.9792383
0
LINE
8
top_labelLayer
10
95.8453502
20
31.9792383
11
95.4574498
21
31.9792383
0
LINE
8
top_labelLayer
10
95.4574498
20
31.9792383
11
95.4574498
21
32.1768945
0
LINE
8
top_labelLayer
10
95.4574498
20
32.1768945
11
95.8453502
21
32.347373
0
LINE
8
top_labelLayer
10
95.8453502
20
32.347373
11
96.0182994
21
32.9255176
0
LINE
8
top_labelLayer
10
96.0182994
20
32.9255176
11
96.2554869
21
32.9255176
0
LINE
8
top_labelLayer
10
96.2554869
20
32.9255176
11
96.2554869
21
32.297959
0
LINE
8
top_labelLayer
10
96.2554869
20
32.297959
11
97.0411705
21
32.297959
0
LINE
8
top_labelLayer
10
97.0411705
20
32.297959
11
97.0411705
21
31.9792383
0
LINE
8
top_labelLayer
10
97.0411705
20
31.9792383
11
96.2554869
21
31.9792383
0
LINE
8
top_labelLayer
10
96.2554869
20
31.9792383
11
96.2554869
21
30.3856348
0
ARC
8
top_labelLayer
10
96.6931419
20
31.2260893
40
1.3469516
50
269.8804149
51
278.3028514
0
ARC
8
top_labelLayer
10
96.7060934
20
31.1205439
40
1.2406447
50
278.4148728
51
279.0078298
0
ARC
8
top_labelLayer
10
96.5547126
20
32.0875181
40
2.2193955
50
278.9591716
51
280.5101121
0
ARC
8
top_labelLayer
10
96.6987723
20
31.3144336
40
1.4330035
50
280.4851164
51
282.6264829
0
ARC
8
top_labelLayer
10
96.8252178
20
30.7526493
40
0.8571654
50
282.5873988
51
285.5797118
0
ARC
8
top_labelLayer
10
96.8899941
20
30.5146962
40
0.6105596
50
285.7216828
51
286.2587671
0
ARC
8
top_labelLayer
10
96.8884927
20
29.9795061
40
0.4034417
50
287.9891493
51
295.3046215
0
ARC
8
top_labelLayer
10
96.7912178
20
30.2738033
40
0.7133961
50
283.3068291
51
288.1200462
0
ARC
8
top_labelLayer
10
96.6884536
20
30.7024349
40
1.154173
50
280.0067409
51
283.3737887
0
ARC
8
top_labelLayer
10
96.6197137
20
31.0753608
40
1.533373
50
279.1865245
51
280.1148401
0
ARC
8
top_labelLayer
10
96.5774207
20
31.3160015
40
1.7776822
50
275.5261145
51
279.2939326
0
ARC
8
top_labelLayer
10
96.6249945
20
30.8191579
40
1.2785664
50
270.8933983
51
275.5482114
0
ARC
8
top_labelLayer
10
96.6309607
20
30.5943697
40
1.0537154
50
270.0039737
51
270.7596069
0
ARC
8
top_labelLayer
10
96.6144835
20
30.6117424
40
1.0712159
50
253.7847785
51
270.8852551
0
ARC
8
top_labelLayer
10
96.487573
20
30.1789299
40
0.6201826
50
190.3817883
51
253.8772261
0
ARC
8
top_labelLayer
10
97.1344299
20
30.3538297
40
1.2891615
50
179.3550945
51
192.8478103
0
ARC
8
top_labelLayer
10
97.0813658
20
30.3804705
40
0.8258951
50
179.6417338
51
189.7504748
0
ARC
8
top_labelLayer
10
96.7897975
20
30.3284668
40
0.5297346
50
189.5478713
51
205.7873261
0
ARC
8
top_labelLayer
10
96.6699883
20
30.2732199
40
0.3978293
50
206.1294802
51
221.4082255
0
ARC
8
top_labelLayer
10
96.6565489
20
30.2630235
40
0.3810074
50
221.5949404
51
262.3505237
0
ARC
8
top_labelLayer
10
96.6885014
20
30.427331
40
0.5481936
50
261.3265255
51
270.1911834
0
ARC
8
top_labelLayer
10
97.8208333
20
30.9322015
40
2.1185201
50
349.1761929
51
0.3862867
0
ARC
8
top_labelLayer
10
98.5340915
20
30.7900112
40
1.3912611
50
330.2506684
51
349.4116845
0
ARC
8
top_labelLayer
10
98.7535948
20
30.6759205
40
1.1441173
50
318.143946
51
329.7566435
0
ARC
8
top_labelLayer
10
98.7932083
20
30.6441739
40
1.0934325
50
278.8959095
51
317.99791
0
ARC
8
top_labelLayer
10
98.6911291
20
31.1332474
40
1.5926082
50
269.750287
51
279.803301
0
ARC
8
top_labelLayer
10
98.6745732
20
30.8576808
40
1.3170616
50
253.5436898
51
270.4182744
0
ARC
8
top_labelLayer
10
98.6307322
20
30.6880906
40
1.1420147
50
238.8115436
51
253.2428095
0
ARC
8
top_labelLayer
10
98.6165823
20
30.6596354
40
1.1103477
50
207.7947043
51
238.6757886
0
ARC
8
top_labelLayer
10
98.8195186
20
30.7839322
40
1.3479175
50
205.655829
51
208.4461683
0
ARC
8
top_labelLayer
10
98.9760089
20
30.849147
40
1.5172419
50
188.9102768
51
205.3171162
0
ARC
8
top_labelLayer
10
99.5030246
20
30.9384071
40
2.0517333
50
179.7744376
51
189.0933212
0
ARC
8
top_labelLayer
10
99.5807979
20
30.9609071
40
2.1295396
50
169.2443373
51
180.3880491
0
ARC
8
top_labelLayer
10
98.857611
20
31.103854
40
1.3923915
50
150.7111311
51
169.4695731
0
ARC
8
top_labelLayer
10
98.6267477
20
31.2224124
40
1.1330804
50
138.1758758
51
150.228777
0
ARC
8
top_labelLayer
10
98.5883544
20
31.2518754
40
1.0848289
50
99.175943
51
137.9832741
0
ARC
8
top_labelLayer
10
98.6940509
20
30.7544459
40
1.5929445
50
89.7326765
51
100.0759258
0
ARC
8
top_labelLayer
10
98.7151751
20
30.96928
40
1.3781611
50
73.5222675
51
90.569248
0
ARC
8
top_labelLayer
10
98.7959957
20
31.2629218
40
1.0736705
50
41.1445833
51
73.2133907
0
ARC
8
top_labelLayer
10
98.641716
20
31.1303202
40
1.2770988
50
13.5014325
51
41.070367
0
ARC
8
top_labelLayer
10
98.0456561
20
30.9743393
40
1.893144
50
1.1276868
51
13.8799982
0
ARC
8
top_labelLayer
10
97.5321582
20
30.9468174
40
2.4071472
50
359.9920739
51
1.5421048
0
ARC
8
top_labelLayer
10
99.9531626
20
30.9358259
40
2.0769218
50
179.7059637
51
187.9160891
0
ARC
8
top_labelLayer
10
99.1914185
20
30.8264017
40
1.3073709
50
187.7639283
51
200.0976464
0
ARC
8
top_labelLayer
10
98.7717717
20
30.6726443
40
0.8604428
50
200.0846393
51
216.913132
0
ARC
8
top_labelLayer
10
98.6185284
20
30.5632217
40
0.6722134
50
217.3009441
51
261.7099092
0
ARC
8
top_labelLayer
10
98.6896675
20
30.9026956
40
1.018623
50
260.5033672
51
270.2476821
0
ARC
8
top_labelLayer
10
98.7032467
20
30.8366779
40
0.9526401
50
269.4481214
51
284.725564
0
ARC
8
top_labelLayer
10
98.778661
20
30.5569904
40
0.662972
50
284.5662295
51
322.6333601
0
ARC
8
top_labelLayer
10
98.6023391
20
30.6843753
40
0.8804374
50
323.0088943
51
342.6390753
0
ARC
8
top_labelLayer
10
98.0980175
20
30.8492033
40
1.4109837
50
342.3615426
51
353.7537807
0
ARC
8
top_labelLayer
10
97.3539903
20
30.9388881
40
2.1603673
50
353.5362713
51
0.2014641
0
ARC
8
top_labelLayer
10
97.4679346
20
30.9569278
40
2.0464364
50
359.7076058
51
7.8972004
0
ARC
8
top_labelLayer
10
98.2174064
20
31.0643678
40
1.2893151
50
7.7440401
51
20.068989
0
ARC
8
top_labelLayer
10
98.6350442
20
31.2176256
40
0.8444459
50
20.0256339
51
37.4351148
0
ARC
8
top_labelLayer
10
98.7736032
20
31.3159463
40
0.6746868
50
37.9577324
51
80.4006349
0
ARC
8
top_labelLayer
10
98.6948621
20
30.964608
40
1.0344116
50
79.3453941
51
90.317532
0
ARC
8
top_labelLayer
10
98.6802812
20
31.0229673
40
0.9760767
50
89.4805974
51
103.8805212
0
ARC
8
top_labelLayer
10
98.5982654
20
31.3352822
40
0.6532235
50
103.4685274
51
142.311909
0
ARC
8
top_labelLayer
10
98.7577129
20
31.2231474
40
0.8480026
50
142.9025962
51
162.3749208
0
ARC
8
top_labelLayer
10
99.2601264
20
31.0557196
40
1.377547
50
162.0652982
51
173.1674352
0
ARC
8
top_labelLayer
10
100.0435097
20
30.9558055
40
2.1672615
50
173.0086374
51
180.2464241
0
LINE
8
top_labelLayer
10
101.0684166
20
29.9384375
11
101.0387681
21
29.9384375
0
LINE
8
top_labelLayer
10
101.0684166
20
29.4887695
11
101.0684166
21
28.3744824
0
LINE
8
top_labelLayer
10
101.0684166
20
28.3744824
11
100.6582799
21
28.3744824
0
LINE
8
top_labelLayer
10
100.6582799
20
28.3744824
11
100.6582799
21
32.297959
0
LINE
8
top_labelLayer
10
100.6582799
20
32.297959
11
100.9918248
21
32.297959
0
LINE
8
top_labelLayer
10
100.9918248
20
32.297959
11
101.048651
21
31.9273535
0
LINE
8
top_labelLayer
10
101.048651
20
31.9273535
11
101.0684166
21
31.9273535
0
LINE
8
top_labelLayer
10
101.0684166
20
31.0379004
11
101.0684166
21
30.9464844
0
ARC
8
top_labelLayer
10
101.9114228
20
30.7846733
40
1.2440383
50
255.775561
51
270.3185121
0
ARC
8
top_labelLayer
10
101.8759301
20
30.6269666
40
1.0824542
50
245.9802828
51
255.5454521
0
ARC
8
top_labelLayer
10
101.8071592
20
30.4670337
40
0.9083802
50
215.5850462
51
245.8361454
0
ARC
8
top_labelLayer
10
97.1880516
20
29.4518327
40
3.8813402
50
2.950303
51
7.2021407
0
ARC
8
top_labelLayer
10
97.8158854
20
29.4869589
40
3.2525317
50
0.031895
51
2.9015915
0
ARC
8
top_labelLayer
10
101.9718667
20
31.2928595
40
1.1039949
50
132.3565154
51
144.9195874
0
ARC
8
top_labelLayer
10
101.8027409
20
31.4773717
40
0.8536997
50
115.4005807
51
132.3118995
0
ARC
8
top_labelLayer
10
101.8687116
20
31.3167764
40
1.0271101
50
97.7065989
51
114.8821732
0
ARC
8
top_labelLayer
10
101.9147861
20
31.017968
40
1.3294099
50
89.8468986
51
97.9474381
0
ARC
8
top_labelLayer
10
101.9310326
20
31.0902675
40
1.2571696
50
74.1923214
51
90.5785495
0
ARC
8
top_labelLayer
10
102.0180217
20
31.4064878
40
0.9292149
50
38.0523438
51
74.0417467
0
ARC
8
top_labelLayer
10
101.7780881
20
31.2225895
40
1.2315054
50
16.3356004
51
37.9090361
0
ARC
8
top_labelLayer
10
101.1477787
20
31.0284503
40
1.8909954
50
4.5766725
51
16.6088768
0
ARC
8
top_labelLayer
10
100.371831
20
30.9511299
40
2.6706816
50
359.9003377
51
4.9018821
0
ARC
8
top_labelLayer
10
100.63781
20
30.9322982
40
2.4047402
50
350.6563054
51
0.3380033
0
ARC
8
top_labelLayer
10
101.4761479
20
30.789708
40
1.5543816
50
335.8305939
51
350.8254574
0
ARC
8
top_labelLayer
10
101.8449184
20
30.6305405
40
1.1527836
50
321.3161342
51
335.5436515
0
ARC
8
top_labelLayer
10
101.985897
20
30.5156639
40
0.9709355
50
274.0639872
51
321.4081073
0
ARC
8
top_labelLayer
10
101.9202203
20
30.9316468
40
1.3909938
50
269.9224858
51
275.5482731
0
ARC
8
top_labelLayer
10
101.850593
20
30.8172833
40
1.1817508
50
89.5903796
51
100.3502418
0
ARC
8
top_labelLayer
10
101.7663266
20
31.2599659
40
0.7311396
50
100.0868767
51
118.1918156
0
ARC
8
top_labelLayer
10
101.6799973
20
31.4283343
40
0.5419717
50
118.5568868
51
141.0244339
0
ARC
8
top_labelLayer
10
101.8115409
20
31.3355437
40
0.7026799
50
141.8890056
51
160.5973521
0
ARC
8
top_labelLayer
10
102.273849
20
31.1659096
40
1.1951028
50
160.2895989
51
171.2452558
0
ARC
8
top_labelLayer
10
103.0339246
20
31.0433609
40
1.9649826
50
171.0868266
51
178.3248076
0
ARC
8
top_labelLayer
10
103.6786707
20
31.0127168
40
2.6103757
50
178.0661815
51
179.4472298
0
ARC
8
top_labelLayer
10
103.7802215
20
30.9358971
40
2.7118256
50
179.7763106
51
185.7074916
0
ARC
8
top_labelLayer
10
102.711036
20
30.8257365
40
1.6369883
50
185.5925427
51
194.2050636
0
ARC
8
top_labelLayer
10
102.0261258
20
30.6479785
40
0.9294095
50
193.9430239
51
208.0218813
0
ARC
8
top_labelLayer
10
101.7490094
20
30.5069998
40
0.6185736
50
208.5535801
51
217.5606279
0
ARC
8
top_labelLayer
10
101.726442
20
30.4976154
40
0.594997
50
218.1690396
51
253.8047229
0
ARC
8
top_labelLayer
10
101.8368037
20
30.837875
40
0.9525996
50
253.138298
51
266.8482669
0
ARC
8
top_labelLayer
10
101.8677525
20
31.2029464
40
1.3188649
50
266.3777615
51
270.0509122
0
ARC
8
top_labelLayer
10
101.8782637
20
30.5750817
40
0.6910628
50
269.2256552
51
292.0430659
0
ARC
8
top_labelLayer
10
101.8875877
20
30.5195155
40
0.6361762
50
293.1429587
51
324.1353936
0
ARC
8
top_labelLayer
10
101.7488778
20
30.636934
40
0.8174974
50
323.1618302
51
325.0150729
0
ARC
8
top_labelLayer
10
101.600707
20
30.7287906
40
0.9916086
50
325.5753808
51
344.1504699
0
ARC
8
top_labelLayer
10
101.0875613
20
30.880481
40
1.5266851
50
343.933649
51
355.113689
0
ARC
8
top_labelLayer
10
100.4325321
20
30.9469462
40
2.1850199
50
354.8402201
51
0.1174652
0
ARC
8
top_labelLayer
10
100.5478781
20
30.9618697
40
2.0696956
50
359.7108791
51
7.8609967
0
ARC
8
top_labelLayer
10
101.300421
20
31.0691398
40
1.3095574
50
7.7150112
51
19.8858956
0
ARC
8
top_labelLayer
10
101.714312
20
31.2186378
40
0.8694946
50
19.8991103
51
35.8980904
0
ARC
8
top_labelLayer
10
101.8989134
20
31.3584422
40
0.6380022
50
35.4481633
51
85.2266806
0
ARC
8
top_labelLayer
10
101.8603496
20
31.1166449
40
0.88236
50
84.0376977
51
90.0849374
0
LINE
8
back_outsideCutPath
10
7.925
20
31.387868
11
7.925
21
34.3
0
LINE
8
back_outsideCutPath
10
7.925
20
34.3
11
17.375
21
34.3
0
LINE
8
back_outsideCutPath
10
17.375
20
34.3
11
17.375
21
31.387868
0
LINE
8
back_outsideCutPath
10
17.375
20
31.387868
11
17.462868
21
31.3
0
LINE
8
back_outsideCutPath
10
17.462868
20
31.3
11
25.212132
21
31.3
0
LINE
8
back_outsideCutPath
10
25.212132
20
31.3
11
25.3
21
31.387868
0
LINE
8
back_outsideCutPath
10
25.3
20
31.387868
11
25.3
21
39.137132
0
LINE
8
back_outsideCutPath
10
25.3
20
39.137132
11
25.212132
21
39.225
0
LINE
8
back_outsideCutPath
10
25.212132
20
39.225
11
22.3
21
39.225
0
LINE
8
back_outsideCutPath
10
22.3
20
39.225
11
22.3
21
48.675
0
LINE
8
back_outsideCutPath
10
22.3
20
48.675
11
25.212132
21
48.675
0
LINE
8
back_outsideCutPath
10
25.212132
20
48.675
11
25.3
21
48.762868
0
LINE
8
back_outsideCutPath
10
25.3
20
48.762868
11
25.3
21
56.512132
0
LINE
8
back_outsideCutPath
10
25.3
20
56.512132
11
25.212132
21
56.6
0
LINE
8
back_outsideCutPath
10
25.212132
20
56.6
11
17.462868
21
56.6
0
LINE
8
back_outsideCutPath
10
17.462868
20
56.6
11
17.375
21
56.512132
0
LINE
8
back_outsideCutPath
10
17.375
20
56.512132
11
17.375
21
53.6
0
LINE
8
back_outsideCutPath
10
17.375
20
53.6
11
7.925
21
53.6
0
LINE
8
back_outsideCutPath
10
7.925
20
53.6
11
7.925
21
56.512132
0
LINE
8
back_outsideCutPath
10
7.925
20
56.512132
11
7.837132
21
56.6
0
LINE
8
back_outsideCutPath
10
7.837132
20
56.6
11
0.087868
21
56.6
0
LINE
8
back_outsideCutPath
10
0.087868
20
56.6
11
0
21
56.512132
0
LINE
8
back_outsideCutPath
10
0
20
56.512132
11
0
21
48.762868
0
LINE
8
back_outsideCutPath
10
0
20
48.762868
11
0.087868
21
48.675
0
LINE
8
back_outsideCutPath
10
0.087868
20
48.675
11
3
21
48.675
0
LINE
8
back_outsideCutPath
10
3
20
48.675
11
3
21
39.225
0
LINE
8
back_outsideCutPath
10
3
20
39.225
11
0.087868
21
39.225
0
LINE
8
back_outsideCutPath
10
0.087868
20
39.225
11
0
21
39.137132
0
LINE
8
back_outsideCutPath
10
0
20
39.137132
11
0
21
31.387868
0
LINE
8
back_outsideCutPath
10
0
20
31.387868
11
0.087868
21
31.3
0
LINE
8
back_outsideCutPath
10
0.087868
20
31.3
11
7.837132
21
31.3
0
LINE
8
back_outsideCutPath
10
7.837132
20
31.3
11
7.925
21
31.387868
0
LINE
8
back_labelLayer
10
7.814834
20
42.4008971
11
7.7851855
21
42.4008971
0
LINE
8
back_labelLayer
10
7.7851855
20
42.4008971
11
7.6987109
21
42.0525279
0
LINE
8
back_labelLayer
10
7.6987109
20
42.0525279
11
7.4046973
21
42.0525279
0
LINE
8
back_labelLayer
10
7.4046973
20
42.0525279
11
7.4046973
21
45.896942
0
LINE
8
back_labelLayer
10
7.4046973
20
45.896942
11
7.814834
21
45.896942
0
LINE
8
back_labelLayer
10
7.814834
20
45.896942
11
7.814834
21
44.9630162
0
LINE
8
back_labelLayer
10
7.7950684
20
44.3996959
11
7.814834
21
44.3996959
0
ARC
8
back_labelLayer
10
8.6770588
20
43.551429
40
1.2535225
50
74.2393323
51
90.5623474
0
ARC
8
back_labelLayer
10
8.7599472
20
43.8555067
40
0.938367
50
38.5631188
51
74.0670676
0
ARC
8
back_labelLayer
10
8.5466409
20
43.6896487
40
1.2085521
50
16.4709167
51
38.4075181
0
ARC
8
back_labelLayer
10
7.9321378
20
43.4969585
40
1.8525017
50
5.1338516
51
16.7973335
0
ARC
8
back_labelLayer
10
7.1564085
20
43.4145546
40
2.6325232
50
359.8778856
51
5.4093689
0
ARC
8
back_labelLayer
10
7.3842274
20
43.3947578
40
2.4047402
50
350.6563054
51
0.3380033
0
ARC
8
back_labelLayer
10
8.2225653
20
43.2521675
40
1.5543816
50
335.8305939
51
350.8254574
0
ARC
8
back_labelLayer
10
8.5913358
20
43.093
40
1.1527836
50
321.3161342
51
335.5436515
0
ARC
8
back_labelLayer
10
8.7323144
20
42.9781234
40
0.9709355
50
274.0639872
51
321.4081073
0
ARC
8
back_labelLayer
10
8.6666377
20
43.3941064
40
1.3909938
50
269.9224858
51
275.5482731
0
ARC
8
back_labelLayer
10
8.6578402
20
43.2471329
40
1.2440383
50
255.775561
51
270.3185121
0
ARC
8
back_labelLayer
10
8.6223475
20
43.0894262
40
1.0824542
50
245.9802828
51
255.5454521
0
ARC
8
back_labelLayer
10
8.5535766
20
42.9294932
40
0.9083802
50
215.5850462
51
245.8361454
0
ARC
8
back_labelLayer
10
-0.736537
20
44.9557928
40
8.551374
50
358.112359
51
0.0483981
0
ARC
8
back_labelLayer
10
1.6433213
20
44.8759076
40
6.170176
50
355.7239375
51
358.1258261
0
ARC
8
back_labelLayer
10
2.6611957
20
44.8062492
40
5.149945
50
355.4721746
51
355.6523966
0
ARC
8
back_labelLayer
10
8.5797213
20
43.8663192
40
0.932493
50
95.1835246
51
145.1108914
0
ARC
8
back_labelLayer
10
8.6616853
20
43.404116
40
1.4007787
50
89.8744057
51
96.8145603
0
ARC
8
back_labelLayer
10
8.5968716
20
43.308979
40
1.1525164
50
89.5730837
51
100.7323969
0
ARC
8
back_labelLayer
10
8.5115535
20
43.7400373
40
0.7131189
50
100.4469304
51
119.6701118
0
ARC
8
back_labelLayer
10
8.4324367
20
43.8879536
40
0.5454511
50
120.1402421
51
142.4249264
0
ARC
8
back_labelLayer
10
8.56333
20
43.8013631
40
0.7020834
50
143.3382483
51
161.2559747
0
ARC
8
back_labelLayer
10
9.1106922
20
43.6070307
40
1.2828882
50
160.8926058
51
171.2333796
0
ARC
8
back_labelLayer
10
10.0244471
20
43.4596208
40
2.2084439
50
171.0667601
51
177.8456639
0
ARC
8
back_labelLayer
10
10.9750247
20
43.4112851
40
3.1601915
50
177.6178
51
180.0424467
0
ARC
8
back_labelLayer
10
10.5266389
20
43.3983567
40
2.7118256
50
179.7763106
51
185.7074916
0
ARC
8
back_labelLayer
10
9.4574534
20
43.288196
40
1.6369883
50
185.5925427
51
194.2050636
0
ARC
8
back_labelLayer
10
8.7725432
20
43.110438
40
0.9294095
50
193.9430239
51
208.0218813
0
ARC
8
back_labelLayer
10
8.4954268
20
42.9694594
40
0.6185736
50
208.5535801
51
217.5606279
0
ARC
8
back_labelLayer
10
8.4728594
20
42.960075
40
0.594997
50
218.1690396
51
253.8047229
0
ARC
8
back_labelLayer
10
8.5832211
20
43.3003345
40
0.9525996
50
253.138298
51
266.8482669
0
ARC
8
back_labelLayer
10
8.6141699
20
43.665406
40
1.3188649
50
266.3777615
51
270.0509122
0
ARC
8
back_labelLayer
10
8.62409
20
43.1641029
40
0.8176081
50
269.3869349
51
285.8630174
0
ARC
8
back_labelLayer
10
8.6848334
20
42.9445656
40
0.5898299
50
286.0162902
51
326.8497339
0
ARC
8
back_labelLayer
10
8.3916634
20
43.1387813
40
0.9414903
50
326.7104377
51
343.6662359
0
ARC
8
back_labelLayer
10
7.8428482
20
43.3064814
40
1.5153322
50
343.4171723
51
353.6369482
0
ARC
8
back_labelLayer
10
7.0139632
20
43.4048378
40
2.3500191
50
353.4934212
51
0.2205878
0
ARC
8
back_labelLayer
10
6.940901
20
43.4236951
40
2.4230837
50
359.7680395
51
6.3095901
0
ARC
8
back_labelLayer
10
7.8536069
20
43.5284379
40
1.5044
50
6.1648137
51
16.0396217
0
ARC
8
back_labelLayer
10
8.4415708
20
43.7017097
40
0.8914588
50
15.7779769
51
32.0150642
0
ARC
8
back_labelLayer
10
8.6249039
20
43.8066945
40
0.6804013
50
32.7034971
51
35.5242137
0
ARC
8
back_labelLayer
10
8.6919853
20
43.8543726
40
0.5981025
50
35.5408534
51
79.8011073
0
ARC
8
back_labelLayer
10
8.6116655
20
43.5129145
40
0.9485693
50
78.678148
51
90.3748923
0
LINE
8
back_labelLayer
10
12.4745801
20
42.0525279
11
12.1706836
21
42.0525279
0
LINE
8
back_labelLayer
10
12.1706836
20
42.0525279
11
12.0891504
21
42.4379576
0
LINE
8
back_labelLayer
10
12.0891504
20
42.4379576
11
12.0693848
21
42.4379576
0
LINE
8
back_labelLayer
10
11.6147754
20
43.6609556
11
12.0743262
21
43.6757799
0
LINE
8
back_labelLayer
10
12.0743262
20
43.6757799
11
12.0743262
21
43.8437877
0
LINE
8
back_labelLayer
10
10.7327344
20
44.2588658
11
10.6067285
21
44.5726451
0
LINE
8
back_labelLayer
10
12.4745801
20
43.9006138
11
12.4745801
21
42.0525279
0
LINE
8
back_labelLayer
10
12.0644434
20
43.1396373
11
12.0644434
21
43.3842369
0
LINE
8
back_labelLayer
10
12.0644434
20
43.3842369
11
11.6543066
21
43.366942
0
ARC
8
back_labelLayer
10
10.7349913
20
43.4915223
40
1.7001777
50
314.7444437
51
321.7072925
0
ARC
8
back_labelLayer
10
11.1526744
20
43.0671215
40
1.1047212
50
304.8485904
51
314.8530593
0
ARC
8
back_labelLayer
10
11.3533387
20
42.7814983
40
0.7556601
50
294.3933022
51
304.7371124
0
ARC
8
back_labelLayer
10
11.2847866
20
42.9591228
40
0.9458034
50
281.2979525
51
293.7314025
0
ARC
8
back_labelLayer
10
11.194158
20
43.3983643
40
1.3942911
50
272.9335593
51
281.4138418
0
ARC
8
back_labelLayer
10
11.1641213
20
43.848907
40
1.8457937
50
269.9539182
51
273.1489712
0
ARC
8
back_labelLayer
10
11.1537455
20
43.2617381
40
1.2586557
50
258.6719852
51
270.404744
0
ARC
8
back_labelLayer
10
11.0663181
20
42.8435176
40
0.8314173
50
238.3272985
51
258.9183492
0
ARC
8
back_labelLayer
10
11.0060718
20
42.7336047
40
0.7062709
50
227.7689906
51
237.8049946
0
ARC
8
back_labelLayer
10
10.9872249
20
42.707294
40
0.6741322
50
192.0827925
51
227.4520556
0
ARC
8
back_labelLayer
10
11.3347681
20
42.7929681
40
1.0319686
50
179.5456781
51
192.6950136
0
ARC
8
back_labelLayer
10
11.0119034
20
42.8303343
40
0.7096716
50
115.4904601
51
182.356796
0
ARC
8
back_labelLayer
10
11.3673125
20
42.1784418
40
1.4516197
50
101.3567759
51
117.0798776
0
ARC
8
back_labelLayer
10
11.6527445
20
40.8445908
40
2.8156131
50
92.4696504
51
101.7064665
0
ARC
8
back_labelLayer
10
11.7347857
20
39.6563819
40
4.0063716
50
91.7165439
51
92.9096276
0
ARC
8
back_labelLayer
10
10.8963221
20
43.8500927
40
1.1780209
50
359.6933368
51
8.0035116
0
ARC
8
back_labelLayer
10
11.3419529
20
43.9150113
40
0.7276953
50
7.8271962
51
20.6041492
0
ARC
8
back_labelLayer
10
11.5941144
20
44.0114747
40
0.4577197
50
20.4094983
51
41.4478342
0
ARC
8
back_labelLayer
10
11.6313768
20
44.0319569
40
0.4163355
50
42.7295572
51
71.038076
0
ARC
8
back_labelLayer
10
11.5436579
20
43.7934493
40
0.6704261
50
70.5715996
51
83.9928068
0
ARC
8
back_labelLayer
10
11.5017529
20
43.4530688
40
1.0133409
50
83.6505619
51
90.1753092
0
ARC
8
back_labelLayer
10
11.509105
20
43.1311209
40
1.3353249
50
90.4485026
51
103.7664997
0
ARC
8
back_labelLayer
10
11.6661232
20
42.4689662
40
2.0158295
50
103.6226132
51
112.4320622
0
ARC
8
back_labelLayer
10
11.9352959
20
41.7893182
40
2.7467836
50
112.2122016
51
115.9640546
0
ARC
8
back_labelLayer
10
11.504253
20
42.9081968
40
1.8910151
50
106.3568916
51
118.3349869
0
ARC
8
back_labelLayer
10
11.5848523
20
42.6592084
40
2.1526364
50
104.5164104
51
106.5489848
0
ARC
8
back_labelLayer
10
11.5257269
20
42.9055041
40
1.8993884
50
90.0714175
51
104.6520933
0
ARC
8
back_labelLayer
10
11.5331832
20
43.0727423
40
1.7321768
50
81.5679433
51
90.3249485
0
ARC
8
back_labelLayer
10
11.633336
20
43.7252001
40
1.072091
50
68.2272932
51
81.7494387
0
ARC
8
back_labelLayer
10
11.7728326
20
44.0722761
40
0.6980323
50
47.8682814
51
68.2934434
0
ARC
8
back_labelLayer
10
11.7954727
20
44.1174807
40
0.6494616
50
19.2330799
51
46.6741389
0
ARC
8
back_labelLayer
10
11.418317
20
43.9771771
40
1.0518167
50
6.3379465
51
19.6815724
0
ARC
8
back_labelLayer
10
10.8607908
20
43.9061716
40
1.6137989
50
359.8026779
51
6.6583585
0
ARC
8
back_labelLayer
10
11.2524624
20
43.4707936
40
1.1292239
50
269.5792413
51
282.0414147
0
ARC
8
back_labelLayer
10
11.3348321
20
43.1054415
40
0.7547394
50
281.7120926
51
306.4593658
0
ARC
8
back_labelLayer
10
11.3713401
20
43.0453956
40
0.6847799
50
306.9881604
51
313.8557202
0
ARC
8
back_labelLayer
10
11.3670116
20
43.0441307
40
0.6868783
50
314.1891787
51
347.4270028
0
ARC
8
back_labelLayer
10
11.0229473
20
43.1303534
40
1.0415021
50
346.9176897
51
0.2825414
0
ARC
8
back_labelLayer
10
10.800731
20
43.139574
40
1.2637124
50
359.8148039
51
0.0028694
0
ARC
8
back_labelLayer
10
11.751865
20
40.357045
40
3.0114776
50
91.8564511
51
96.4477965
0
ARC
8
back_labelLayer
10
11.6160574
20
41.5322413
40
1.8284663
50
96.3545272
51
102.9953038
0
ARC
8
back_labelLayer
10
11.4317103
20
42.3154816
40
1.0238375
50
102.7995728
51
113.2432347
0
ARC
8
back_labelLayer
10
11.2797455
20
42.6789324
40
0.6299259
50
113.5888295
51
121.6803699
0
ARC
8
back_labelLayer
10
11.1741468
20
42.8397597
40
0.4376384
50
120.9733555
51
172.4180396
0
ARC
8
back_labelLayer
10
11.3805167
20
42.7985378
40
0.6477864
50
171.2122115
51
180.205935
0
ARC
8
back_labelLayer
10
11.3188475
20
42.7913667
40
0.5861331
50
179.5265947
51
192.7787163
0
ARC
8
back_labelLayer
10
11.1205707
20
42.7433042
40
0.3821484
50
192.3265284
51
222.057892
0
ARC
8
back_labelLayer
10
11.1058098
20
42.734473
40
0.3652883
50
222.5803809
51
229.254834
0
ARC
8
back_labelLayer
10
11.1556589
20
42.7986504
40
0.4464657
50
229.7837868
51
254.2723641
0
ARC
8
back_labelLayer
10
11.2220363
20
43.0198522
40
0.67739
50
253.9397592
51
266.4532872
0
ARC
8
back_labelLayer
10
11.2432169
20
43.2639723
40
0.9223726
50
266.0782022
51
270.0591985
0
LINE
8
back_labelLayer
10
15.1256445
20
44.6690025
11
14.9996387
21
44.3206334
0
LINE
8
back_labelLayer
10
15.0861133
20
42.5071373
11
15.0861133
21
42.1439439
0
ARC
8
back_labelLayer
10
14.3886468
20
43.535904
40
1.532846
50
256.424379
51
270.4889818
0
ARC
8
back_labelLayer
10
14.2661581
20
43.0578404
40
1.03941
50
221.7976376
51
256.8020487
0
ARC
8
back_labelLayer
10
14.3847745
20
43.1454811
40
1.1863309
50
196.0166562
51
221.1349151
0
ARC
8
back_labelLayer
10
14.9809301
20
43.3276977
40
1.8096527
50
183.5913961
51
196.3539744
0
ARC
8
back_labelLayer
10
15.6488572
20
43.3865344
40
2.480011
50
179.9389178
51
183.9814195
0
ARC
8
back_labelLayer
10
15.4317599
20
43.403749
40
2.2629591
50
169.8978013
51
180.368918
0
ARC
8
back_labelLayer
10
14.6439782
20
43.5494791
40
1.4618387
50
153.0874908
51
170.105152
0
ARC
8
back_labelLayer
10
14.345071
20
43.6923069
40
1.1306834
50
138.6549754
51
152.685403
0
ARC
8
back_labelLayer
10
14.2892889
20
43.732957
40
1.061971
50
101.49131
51
138.3133811
0
ARC
8
back_labelLayer
10
14.4173629
20
43.1999282
40
1.6099459
50
89.5891849
51
102.1787967
0
ARC
8
back_labelLayer
10
14.4272125
20
42.9590051
40
1.8508283
50
77.7702593
51
89.9475669
0
ARC
8
back_labelLayer
10
14.3921733
20
42.7657199
40
2.0471603
50
74.6796566
51
77.9577777
0
ARC
8
back_labelLayer
10
14.5814182
20
43.4513093
40
1.3359337
50
70.0945483
51
74.7386909
0
ARC
8
back_labelLayer
10
14.7613895
20
43.9445274
40
0.8109088
50
63.5034997
51
70.1859467
0
ARC
8
back_labelLayer
10
14.8402608
20
44.1105588
40
0.627139
50
62.9314237
51
63.1849291
0
ARC
8
back_labelLayer
10
14.32589
20
42.6250398
40
1.8245478
50
68.3294693
51
74.8831547
0
ARC
8
back_labelLayer
10
14.229646
20
42.2837832
40
2.1790986
50
74.7801403
51
77.4497653
0
ARC
8
back_labelLayer
10
14.3307103
20
42.7581795
40
1.6940825
50
77.2997787
51
81.7346551
0
ARC
8
back_labelLayer
10
14.4044
20
43.2716866
40
1.1753161
50
81.6909619
51
87.5077878
0
ARC
8
back_labelLayer
10
14.4186292
20
43.5375366
40
0.9091025
50
87.6751549
51
89.9751521
0
ARC
8
back_labelLayer
10
14.3986914
20
43.537123
40
0.9097435
50
88.7193793
51
112.566746
0
ARC
8
back_labelLayer
10
14.3340476
20
43.7508515
40
0.6879341
50
114.4265411
51
161.6633107
0
ARC
8
back_labelLayer
10
14.9762138
20
43.4994995
40
1.3770547
50
160.1418065
51
175.1368089
0
ARC
8
back_labelLayer
10
15.8600969
20
43.4002485
40
2.2662965
50
174.531026
51
180.1549455
0
ARC
8
back_labelLayer
10
15.5800515
20
43.3838617
40
1.9862694
50
179.7040961
51
188.0743652
0
ARC
8
back_labelLayer
10
14.8646342
20
43.2791891
40
1.263246
50
187.931554
51
200.388495
0
ARC
8
back_labelLayer
10
14.4777888
20
43.1358844
40
0.8507108
50
200.4183811
51
216.6392453
0
ARC
8
back_labelLayer
10
14.3156135
20
43.0199503
40
0.6514042
50
216.9695789
51
261.3102717
0
ARC
8
back_labelLayer
10
14.3871821
20
43.3536033
40
0.9922485
50
260.1358257
51
270.2692911
0
ARC
8
back_labelLayer
10
14.383879
20
44.0782334
40
1.7168861
50
270.2658656
51
286.2891242
0
ARC
8
back_labelLayer
10
14.2795133
20
44.4674497
40
2.1197707
50
286.0460538
51
292.3654519
0
ARC
8
back_labelLayer
10
14.5574668
20
43.183918
40
1.1666247
50
282.0344502
51
296.9454431
0
ARC
8
back_labelLayer
10
14.4374852
20
43.7246393
40
1.7204846
50
272.5981105
51
282.1877865
0
ARC
8
back_labelLayer
10
14.4030825
20
44.2522062
40
2.2490928
50
269.9655069
51
272.8643941
0
LINE
8
back_labelLayer
10
16.1139258
20
43.4385924
11
16.1336914
21
43.4385924
0
LINE
8
back_labelLayer
10
16.4573535
20
43.8339049
11
17.3319824
21
44.7604185
0
LINE
8
back_labelLayer
10
17.3319824
20
44.7604185
11
17.8187109
21
44.7604185
0
LINE
8
back_labelLayer
10
17.8187109
20
44.7604185
11
16.7217188
21
43.6066002
0
LINE
8
back_labelLayer
10
16.7217188
20
43.6066002
11
17.8953027
21
42.0525279
0
LINE
8
back_labelLayer
10
17.8953027
20
42.0525279
11
17.3986914
21
42.0525279
0
LINE
8
back_labelLayer
10
17.3986914
20
42.0525279
11
16.4425293
21
43.3323521
0
LINE
8
back_labelLayer
10
16.4425293
20
43.3323521
11
16.1336914
21
43.0655162
0
LINE
8
back_labelLayer
10
16.1336914
20
43.0655162
11
16.1336914
21
42.0525279
0
LINE
8
back_labelLayer
10
16.1336914
20
42.0525279
11
15.7284961
21
42.0525279
0
LINE
8
back_labelLayer
10
15.7284961
20
42.0525279
11
15.7284961
21
45.896942
0
LINE
8
back_labelLayer
10
15.7284961
20
45.896942
11
16.1336914
21
45.896942
0
LINE
8
back_labelLayer
10
16.1336914
20
45.896942
11
16.1336914
21
43.8586119
0
ARC
8
back_labelLayer
10
18.1154932
20
42.035792
40
2.4280419
50
142.3235098
51
144.7075784
0
ARC
8
back_labelLayer
10
19.4084212
20
41.0385156
40
4.0608989
50
140.4330963
51
142.3365166
0
ARC
8
back_labelLayer
10
21.0944595
20
39.6505843
40
6.2447185
50
139.2800186
51
140.4701676
0
ARC
8
back_labelLayer
10
23.0416506
20
37.9761047
40
8.8128762
50
138.3417195
51
139.2876597
0
ARC
8
back_labelLayer
10
13.4012137
20
43.8637187
40
2.7324825
50
358.2736991
51
359.8929192
0
ARC
8
back_labelLayer
10
11.2734427
20
43.9230058
40
4.8610763
50
357.5043199
51
358.3307347
0
ARC
8
back_labelLayer
10
8.0909533
20
44.0636006
40
8.0466693
50
356.6325122
51
357.4909126
0
ARC
8
back_labelLayer
10
2.8054225
20
44.3718531
40
13.3411808
50
356.032828
51
356.6443289
0
ARC
8
back_labelLayer
10
-1.3688359
20
44.6544607
40
17.5249906
50
356.0216735
51
356.0552728
0
LINE
8
right_outsideCutPath
10
41.475
20
31.387868
11
41.475
21
34.3
0
LINE
8
right_outsideCutPath
10
41.475
20
34.3
11
50.925
21
34.3
0
LINE
8
right_outsideCutPath
10
50.925
20
34.3
11
50.925
21
31.387868
0
LINE
8
right_outsideCutPath
10
50.925
20
31.387868
11
51.012868
21
31.3
0
LINE
8
right_outsideCutPath
10
51.012868
20
31.3
11
60.887132
21
31.3
0
LINE
8
right_outsideCutPath
10
60.887132
20
31.3
11
60.975
21
31.387868
0
LINE
8
right_outsideCutPath
10
60.975
20
31.387868
11
60.975
21
34.3
0
LINE
8
right_outsideCutPath
10
60.975
20
34.3
11
70.425
21
34.3
0
LINE
8
right_outsideCutPath
10
70.425
20
34.3
11
70.425
21
31.387868
0
LINE
8
right_outsideCutPath
10
70.425
20
31.387868
11
70.512868
21
31.3
0
LINE
8
right_outsideCutPath
10
70.512868
20
31.3
11
80.512132
21
31.3
0
LINE
8
right_outsideCutPath
10
80.512132
20
31.3
11
80.6
21
31.387868
0
LINE
8
right_outsideCutPath
10
80.6
20
31.387868
11
80.6
21
38.925
0
LINE
8
right_outsideCutPath
10
80.6
20
38.925
11
83.512132
21
38.925
0
LINE
8
right_outsideCutPath
10
83.512132
20
38.925
11
83.6
21
39.012868
0
LINE
8
right_outsideCutPath
10
83.6
20
39.012868
11
83.6
21
48.887132
0
LINE
8
right_outsideCutPath
10
83.6
20
48.887132
11
83.512132
21
48.975
0
LINE
8
right_outsideCutPath
10
83.512132
20
48.975
11
80.6
21
48.975
0
LINE
8
right_outsideCutPath
10
80.6
20
48.975
11
80.6
21
56.512132
0
LINE
8
right_outsideCutPath
10
80.6
20
56.512132
11
80.512132
21
56.6
0
LINE
8
right_outsideCutPath
10
80.512132
20
56.6
11
70.512868
21
56.6
0
LINE
8
right_outsideCutPath
10
70.512868
20
56.6
11
70.425
21
56.512132
0
LINE
8
right_outsideCutPath
10
70.425
20
56.512132
11
70.425
21
53.6
0
LINE
8
right_outsideCutPath
10
70.425
20
53.6
11
60.975
21
53.6
0
LINE
8
right_outsideCutPath
10
60.975
20
53.6
11
60.975
21
56.512132
0
LINE
8
right_outsideCutPath
10
60.975
20
56.512132
11
60.887132
21
56.6
0
LINE
8
right_outsideCutPath
10
60.887132
20
56.6
11
51.012868
21
56.6
0
LINE
8
right_outsideCutPath
10
51.012868
20
56.6
11
50.925
21
56.512132
0
LINE
8
right_outsideCutPath
10
50.925
20
56.512132
11
50.925
21
53.6
0
LINE
8
right_outsideCutPath
10
50.925
20
53.6
11
41.475
21
53.6
0
LINE
8
right_outsideCutPath
10
41.475
20
53.6
11
41.475
21
56.512132
0
LINE
8
right_outsideCutPath
10
41.475
20
56.512132
11
41.387132
21
56.6
0
LINE
8
right_outsideCutPath
10
41.387132
20
56.6
11
31.387868
21
56.6
0
LINE
8
right_outsideCutPath
10
31.387868
20
56.6
11
31.3
21
56.512132
0
LINE
8
right_outsideCutPath
10
31.3
20
56.512132
11
31.3
21
48.975
0
LINE
8
right_outsideCutPath
10
31.3
20
48.975
11
28.387868
21
48.975
0
LINE
8
right_outsideCutPath
10
28.387868
20
48.975
11
28.3
21
48.887132
0
LINE
8
right_outsideCutPath
10
28.3
20
48.887132
11
28.3
21
39.012868
0
LINE
8
right_outsideCutPath
10
28.3
20
39.012868
11
28.387868
21
38.925
0
LINE
8
right_outsideCutPath
10
28.387868
20
38.925
11
31.3
21
38.925
0
LINE
8
right_outsideCutPath
10
31.3
20
38.925
11
31.3
21
31.387868
0
LINE
8
right_outsideCutPath
10
31.3
20
31.387868
11
31.387868
21
31.3
0
LINE
8
right_outsideCutPath
10
31.387868
20
31.3
11
41.387132
21
31.3
0
LINE
8
right_outsideCutPath
10
41.387132
20
31.3
11
41.475
21
31.387868
0
LINE
8
right_labelLayer
10
52.2748291
20
45.3632571
11
52.2180029
21
44.9827688
0
LINE
8
right_labelLayer
10
51.1259521
20
44.0883743
11
51.1259521
21
42.6356009
0
LINE
8
right_labelLayer
10
51.1259521
20
42.6356009
11
50.7158154
21
42.6356009
0
LINE
8
right_labelLayer
10
50.7158154
20
42.6356009
11
50.7158154
21
45.3434915
0
LINE
8
right_labelLayer
10
50.7158154
20
45.3434915
11
51.0543017
21
45.3434915
0
LINE
8
right_labelLayer
10
51.0543017
20
45.3434915
11
51.1012451
21
44.8419388
0
LINE
8
right_labelLayer
10
51.1012451
20
44.8419388
11
51.1210107
21
44.8419388
0
ARC
8
right_labelLayer
10
51.9553768
20
43.5100658
40
1.8828445
50
84.9922158
51
90.1281054
0
ARC
8
right_labelLayer
10
52.0005962
20
44.0166541
40
1.374243
50
78.4892364
51
85.0266601
0
ARC
8
right_labelLayer
10
51.8250804
20
43.2183735
40
1.8076169
50
77.4453645
51
81.635939
0
ARC
8
right_labelLayer
10
51.9038353
20
43.7611787
40
1.2591295
50
81.5885899
51
87.1914968
0
ARC
8
right_labelLayer
10
51.9209474
20
44.057967
40
0.9618626
50
87.3433668
51
89.9659778
0
ARC
8
right_labelLayer
10
51.916973
20
44.309199
40
0.7106449
50
89.6335162
51
137.0881025
0
ARC
8
right_labelLayer
10
52.0912461
20
44.113197
40
0.9720541
50
135.6205953
51
138.838009
0
ARC
8
right_labelLayer
10
52.0658215
20
44.1380204
40
0.9365766
50
138.9575518
51
174.5422609
0
ARC
8
right_labelLayer
10
52.3708049
20
44.0902941
40
1.2448543
50
173.6906289
51
180.0883593
0
ARC
8
right_labelLayer
10
52.3277172
20
44.1620871
40
1.3850411
50
139.413941
51
150.6033313
0
ARC
8
right_labelLayer
10
52.0793809
20
44.3748838
40
1.0580037
50
124.2321197
51
139.4160663
0
ARC
8
right_labelLayer
10
51.9465959
20
44.5753232
40
0.8175952
50
89.6796618
51
124.4405638
0
LINE
8
right_labelLayer
10
53.19146
20
45.3434915
11
53.19146
21
42.6356009
0
LINE
8
right_labelLayer
10
53.19146
20
42.6356009
11
52.7813232
21
42.6356009
0
LINE
8
right_labelLayer
10
52.7813232
20
42.6356009
11
52.7813232
21
45.3434915
0
LINE
8
right_labelLayer
10
52.7813232
20
45.3434915
11
53.19146
21
45.3434915
0
ARC
8
right_labelLayer
10
53.2012067
20
46.0801011
40
0.454482
50
170.8450868
51
180.3543467
0
ARC
8
right_labelLayer
10
53.0310705
20
46.1085493
40
0.2819887
50
155.9681004
51
171.051619
0
ARC
8
right_labelLayer
10
52.948659
20
46.1451095
40
0.1918318
50
133.7879231
51
155.9171417
0
ARC
8
right_labelLayer
10
52.9790845
20
46.1114731
40
0.237172
50
92.6446846
51
133.4710385
0
ARC
8
right_labelLayer
10
52.9886913
20
46.0361108
40
0.3129569
50
89.9686957
51
93.7650526
0
ARC
8
right_labelLayer
10
52.9926071
20
46.1074498
40
0.2416469
50
46.3707772
51
90.8879578
0
ARC
8
right_labelLayer
10
53.016658
20
46.1322784
40
0.2070808
50
17.7250584
51
46.4474264
0
ARC
8
right_labelLayer
10
52.9045154
20
46.0936592
40
0.3256682
50
4.9426016
51
18.1902445
0
ARC
8
right_labelLayer
10
52.7618841
20
46.0782359
40
0.469108
50
359.8845083
51
5.3184464
0
ARC
8
right_labelLayer
10
52.8066536
20
46.0744096
40
0.4243473
50
349.8343465
51
0.3889581
0
ARC
8
right_labelLayer
10
52.9611343
20
46.0455914
40
0.2672079
50
332.6324244
51
350.0703909
0
ARC
8
right_labelLayer
10
53.0212671
20
46.0158999
40
0.2001605
50
313.6154791
51
332.2675649
0
ARC
8
right_labelLayer
10
52.9922916
20
46.0422835
40
0.2392657
50
269.178783
51
314.2807421
0
ARC
8
right_labelLayer
10
52.9861435
20
46.0635545
40
0.2605264
50
250.5001413
51
270.5979357
0
ARC
8
right_labelLayer
10
52.9782576
20
46.0340687
40
0.2301119
50
225.1298571
51
249.9003346
0
ARC
8
right_labelLayer
10
52.9659168
20
46.0204372
40
0.2117465
50
197.7935784
51
224.894162
0
ARC
8
right_labelLayer
10
53.0814548
20
46.0600302
40
0.3338652
50
184.992745
51
198.2040746
0
ARC
8
right_labelLayer
10
53.2309503
20
46.0762807
40
0.484218
50
179.8805399
51
185.368828
0
LINE
8
right_labelLayer
10
55.3409717
20
45.3434915
11
56.2773682
21
45.3434915
0
LINE
8
right_labelLayer
10
56.2773682
20
45.3434915
11
56.2773682
21
45.0840677
0
LINE
8
right_labelLayer
10
56.2773682
20
45.0840677
11
55.7758154
21
45.0247708
0
LINE
8
right_labelLayer
10
54.8517725
20
43.0655032
11
55.3310889
21
43.0655032
0
LINE
8
right_labelLayer
10
55.2001416
20
42.6973684
11
54.7084717
21
42.6973684
0
ARC
8
right_labelLayer
10
55.2531546
20
44.6111435
40
0.6665297
50
29.458481
51
38.3576533
0
ARC
8
right_labelLayer
10
54.9808081
20
44.4556728
40
0.9801255
50
23.1844341
51
29.5422088
0
ARC
8
right_labelLayer
10
54.7207157
20
44.340337
40
1.2646256
50
21.2507802
51
23.3486806
0
ARC
8
right_labelLayer
10
55.1626444
20
44.5160958
40
0.7890513
50
6.8505512
51
20.987164
0
ARC
8
right_labelLayer
10
54.9404072
20
44.4859654
40
1.0133014
50
359.871161
51
7.0431879
0
ARC
8
right_labelLayer
10
55.0135347
20
44.4739112
40
0.9402221
50
342.5649952
51
0.5957248
0
ARC
8
right_labelLayer
10
55.1869442
20
44.426026
40
0.760458
50
310.6097297
51
342.0924021
0
ARC
8
right_labelLayer
10
55.0897031
20
44.5391345
40
0.9096201
50
284.9315921
51
310.6222629
0
ARC
8
right_labelLayer
10
54.9680194
20
44.9655303
40
1.3529939
50
272.5335202
51
285.2579812
0
ARC
8
right_labelLayer
10
54.9367343
20
45.392851
40
1.7813226
50
269.9691892
51
272.9312519
0
ARC
8
right_labelLayer
10
54.9328499
20
44.929635
40
1.3181097
50
263.4837205
51
270.1272097
0
ARC
8
right_labelLayer
10
54.9113825
20
44.7257045
40
1.1130617
50
259.4962629
51
263.3903202
0
ARC
8
right_labelLayer
10
55.0442661
20
42.983303
40
0.7298291
50
117.3935665
51
128.4094833
0
ARC
8
right_labelLayer
10
54.8563783
20
43.2163935
40
0.4304579
50
128.0882634
51
147.1400603
0
ARC
8
right_labelLayer
10
54.7551549
20
43.2843213
40
0.3085811
50
147.536809
51
180.259235
0
ARC
8
right_labelLayer
10
54.6591308
20
43.2802986
40
0.2125699
50
179.292048
51
198.3581367
0
ARC
8
right_labelLayer
10
54.6193307
20
43.2698385
40
0.1715209
50
199.2291766
51
239.5690151
0
ARC
8
right_labelLayer
10
54.6525587
20
43.3158164
40
0.2280578
50
238.221603
51
239.8441902
0
ARC
8
right_labelLayer
10
54.678659
20
43.3695986
40
0.2877073
50
240.7303763
51
254.5024848
0
ARC
8
right_labelLayer
10
54.7571784
20
43.6401725
40
0.5694337
50
254.1635774
51
262.2122393
0
ARC
8
right_labelLayer
10
54.819377
20
44.0746054
40
1.0082915
50
262.055544
51
267.2082658
0
ARC
8
right_labelLayer
10
54.8494183
20
44.6255681
40
1.5600667
50
267.0918183
51
270.086459
0
ARC
8
right_labelLayer
10
55.3400543
20
41.3866671
40
1.6788601
50
81.5744111
51
90.3059727
0
ARC
8
right_labelLayer
10
55.4321436
20
41.9872555
40
1.0712649
50
68.3670984
51
81.7399024
0
ARC
8
right_labelLayer
10
55.5524198
20
42.2946377
40
0.7411941
50
52.1879511
51
68.2500311
0
ARC
8
right_labelLayer
10
55.6365825
20
42.408041
40
0.6000125
50
8.620142
51
51.898251
0
ARC
8
right_labelLayer
10
55.3416137
20
42.3456274
40
0.9011739
50
359.7431255
51
9.732699
0
ARC
8
right_labelLayer
10
55.3548264
20
42.3304254
40
0.8880221
50
340.5268619
51
0.7201866
0
ARC
8
right_labelLayer
10
55.4852962
20
42.2979402
40
0.7542957
50
302.9903706
51
339.5494407
0
ARC
8
right_labelLayer
10
55.3484716
20
42.4717827
40
0.9748164
50
303.1866828
51
304.1722227
0
ARC
8
right_labelLayer
10
55.2206899
20
42.6929859
40
1.2299645
50
286.2542051
51
302.5279706
0
ARC
8
right_labelLayer
10
54.9883989
20
43.4591844
40
2.0305738
50
276.4940026
51
286.4953894
0
ARC
8
right_labelLayer
10
54.8434629
20
44.6707832
40
3.2507982
50
269.7545387
51
276.6169421
0
ARC
8
right_labelLayer
10
54.8187119
20
43.7178742
40
2.2978848
50
262.5634637
51
270.269893
0
ARC
8
right_labelLayer
10
54.7061636
20
42.8836762
40
1.456141
50
251.2101228
51
262.7064189
0
ARC
8
right_labelLayer
10
54.5439475
20
42.4075548
40
0.9531445
50
235.9667953
51
251.2229268
0
ARC
8
right_labelLayer
10
54.3720145
20
42.1622732
40
0.6536708
50
208.9036443
51
236.4230887
0
ARC
8
right_labelLayer
10
54.3877973
20
42.1556556
40
0.6644247
50
182.2079979
51
207.7461643
0
ARC
8
right_labelLayer
10
54.5887054
20
42.1757241
40
0.8660443
50
179.978435
51
183.0226419
0
ARC
8
right_labelLayer
10
54.349683
20
42.1870526
40
0.6271184
50
138.3915989
51
181.0052819
0
ARC
8
right_labelLayer
10
54.4159088
20
42.1275353
40
0.7161573
50
113.8121632
51
138.3496096
0
ARC
8
right_labelLayer
10
54.5415245
20
41.8562823
40
1.01505
50
102.2870218
51
114.1173687
0
ARC
8
right_labelLayer
10
54.5020558
20
43.2354137
40
0.4256687
50
216.5861729
51
245.496873
0
ARC
8
right_labelLayer
10
54.5636542
20
43.2876002
40
0.5062612
50
215.4666512
51
217.1734593
0
ARC
8
right_labelLayer
10
54.461495
20
43.2138006
40
0.3802374
50
182.1768088
51
215.3414891
0
ARC
8
right_labelLayer
10
54.5519217
20
43.2234979
40
0.4710088
50
179.9841518
51
182.9377972
0
ARC
8
right_labelLayer
10
54.5499154
20
43.2275922
40
0.469019
50
161.7226883
51
180.4842539
0
ARC
8
right_labelLayer
10
54.498347
20
43.2416627
40
0.415649
50
144.4964746
51
161.3350438
0
ARC
8
right_labelLayer
10
54.6358069
20
43.1392144
40
0.5870603
50
132.7259378
51
144.1479673
0
ARC
8
right_labelLayer
10
54.856104
20
42.903966
40
0.9093481
50
125.2211928
51
132.8656712
0
ARC
8
right_labelLayer
10
55.0776036
20
42.5963919
40
1.2883664
50
121.2352814
51
125.3795761
0
ARC
8
right_labelLayer
10
54.6849601
20
44.3621548
40
0.7190037
50
215.1640971
51
247.4747565
0
ARC
8
right_labelLayer
10
54.8190787
20
44.4704048
40
0.891061
50
212.4711249
51
215.8877215
0
ARC
8
right_labelLayer
10
54.7838786
20
44.4452196
40
0.8478461
50
183.0160647
51
212.3123301
0
ARC
8
right_labelLayer
10
54.9700141
20
44.4659606
40
1.0348726
50
179.9761205
51
183.6205798
0
ARC
8
right_labelLayer
10
55.120053
20
44.4764009
40
1.1849537
50
166.8196033
51
180.4839708
0
ARC
8
right_labelLayer
10
54.7269577
20
44.5756483
40
0.7796149
50
132.3287866
51
167.334071
0
ARC
8
right_labelLayer
10
54.779549
20
44.5000522
40
0.8709997
50
106.2189215
51
131.5377446
0
ARC
8
right_labelLayer
10
54.9126121
20
44.0692065
40
1.3218848
50
93.6329425
51
106.5409129
0
ARC
8
right_labelLayer
10
54.9560507
20
43.5815472
40
1.8113594
50
89.9379403
51
94.0267906
0
ARC
8
right_labelLayer
10
54.9630873
20
43.8208277
40
1.572086
50
82.5852598
51
90.1849492
0
ARC
8
right_labelLayer
10
55.0111245
20
44.1925051
40
1.1973174
50
74.0088717
51
82.5694799
0
ARC
8
right_labelLayer
10
54.52985
20
42.1753894
40
0.4119145
50
179.2207409
51
200.9355254
0
ARC
8
right_labelLayer
10
54.4808654
20
42.1640473
40
0.3621769
50
202.0287011
51
236.1457392
0
ARC
8
right_labelLayer
10
54.5547235
20
42.257834
40
0.4812936
50
235.0636612
51
238.5039143
0
ARC
8
right_labelLayer
10
54.6405155
20
42.4110796
40
0.65682
50
239.1066066
51
254.4863463
0
ARC
8
right_labelLayer
10
54.7549503
20
42.8056485
40
1.0676316
50
254.2324479
51
263.4936891
0
ARC
8
right_labelLayer
10
54.8268282
20
43.4144396
40
1.6806481
50
263.4108082
51
270.1457512
0
ARC
8
right_labelLayer
10
54.8343553
20
43.7644469
40
2.0306525
50
269.9082467
51
270.003448
0
ARC
8
right_labelLayer
10
54.8443087
20
44.4909214
40
2.7571447
50
269.7956996
51
275.3990772
0
ARC
8
right_labelLayer
10
54.9474967
20
43.4315701
40
1.6927866
50
275.2957268
51
283.3516113
0
ARC
8
right_labelLayer
10
55.1156243
20
42.7390938
40
0.980209
50
283.136954
51
295.8573993
0
ARC
8
right_labelLayer
10
55.2401959
20
42.4671439
40
0.6811873
50
296.4046791
51
301.8008562
0
ARC
8
right_labelLayer
10
55.2890349
20
42.3998271
40
0.5982695
50
301.2230067
51
318.6238626
0
ARC
8
right_labelLayer
10
55.3991918
20
42.2980715
40
0.4483629
50
319.0765398
51
1.1406985
0
ARC
8
right_labelLayer
10
55.2925729
20
42.3113933
40
0.5549103
50
359.5461009
51
10.9903391
0
ARC
8
right_labelLayer
10
55.5069224
20
42.3549909
40
0.336186
50
10.6607904
51
30.9362655
0
ARC
8
right_labelLayer
10
55.5748815
20
42.3927073
40
0.2585182
50
31.509373
51
58.0778786
0
ARC
8
right_labelLayer
10
55.5111846
20
42.2786575
40
0.3890508
50
58.9971531
51
73.8585791
0
ARC
8
right_labelLayer
10
55.3824459
20
41.8572103
40
0.8296998
50
73.4098864
51
81.5907738
0
ARC
8
right_labelLayer
10
55.273363
20
41.151311
40
1.5439694
50
81.4171873
51
86.5757129
0
ARC
8
right_labelLayer
10
55.2065146
20
40.087789
40
2.6095873
50
86.5053347
51
90.1399254
0
ARC
8
right_labelLayer
10
54.7026067
20
41.7545923
40
0.9427944
50
89.6435729
51
100.0208644
0
ARC
8
right_labelLayer
10
54.6433503
20
42.0769488
40
0.6150488
50
99.8103055
51
116.8229967
0
ARC
8
right_labelLayer
10
54.5856311
20
42.1986717
40
0.4803899
50
117.2305266
51
130.5023257
0
ARC
8
right_labelLayer
10
54.5559918
20
42.2367643
40
0.4321807
50
130.7944196
51
169.0413602
0
ARC
8
right_labelLayer
10
54.7742236
20
42.1853682
40
0.6562646
50
168.2579396
51
180.3821117
0
ARC
8
right_labelLayer
10
55.1408885
20
44.4701505
40
0.800575
50
179.561698
51
191.6528659
0
ARC
8
right_labelLayer
10
54.8625382
20
44.4100124
40
0.5158218
50
191.3555216
51
213.3660689
0
ARC
8
right_labelLayer
10
54.7956945
20
44.3714164
40
0.4387918
50
213.9574213
51
227.7971002
0
ARC
8
right_labelLayer
10
54.8538497
20
44.4419498
40
0.5301245
50
228.2620355
51
254.7341585
0
ARC
8
right_labelLayer
10
54.9281499
20
44.6966481
40
0.7954121
50
254.4015859
51
267.4348795
0
ARC
8
right_labelLayer
10
54.9475308
20
44.956472
40
1.0558713
50
267.0152464
51
270.0325075
0
ARC
8
right_labelLayer
10
54.9602047
20
44.7940213
40
0.893502
50
269.2256794
51
284.3773415
0
ARC
8
right_labelLayer
10
55.0819878
20
44.3697289
40
0.4524342
50
282.7796696
51
346.4828685
0
ARC
8
right_labelLayer
10
54.7178917
20
44.4728621
40
0.8306895
50
345.4362005
51
0.7466413
0
ARC
8
right_labelLayer
10
54.666703
20
44.4962974
40
0.8818979
50
359.1806753
51
15.0431259
0
ARC
8
right_labelLayer
10
55.0663096
20
44.6128663
40
0.4658148
50
13.9535386
51
77.6674036
0
ARC
8
right_labelLayer
10
54.9516597
20
44.2020087
40
0.8920088
50
76.1095323
51
90.7028438
0
ARC
8
right_labelLayer
10
54.9344977
20
44.2333953
40
0.8605777
50
89.5858749
51
101.3334171
0
ARC
8
right_labelLayer
10
54.8729989
20
44.526718
40
0.5608953
50
101.0620624
51
121.973887
0
ARC
8
right_labelLayer
10
54.8297818
20
44.604466
40
0.4720791
50
122.5212182
51
134.9966087
0
ARC
8
right_labelLayer
10
54.847572
20
44.5938101
40
0.4922192
50
135.5839778
51
163.0016222
0
ARC
8
right_labelLayer
10
55.1075004
20
44.5086148
40
0.7657182
50
162.5912147
51
175.73436
0
ARC
8
right_labelLayer
10
55.4192539
20
44.4779016
40
1.0789183
50
175.3392782
51
180.0863992
0
LINE
8
right_labelLayer
10
59.0964404
20
42.6356009
11
58.6863037
21
42.6356009
0
LINE
8
right_labelLayer
10
58.6863037
20
42.6356009
11
58.6863037
21
44.3873294
0
LINE
8
right_labelLayer
10
57.2434131
20
44.0513138
11
57.2434131
21
42.6356009
0
LINE
8
right_labelLayer
10
57.2434131
20
42.6356009
11
56.8332764
21
42.6356009
0
LINE
8
right_labelLayer
10
56.8332764
20
42.6356009
11
56.8332764
21
46.4800149
0
LINE
8
right_labelLayer
10
56.8332764
20
46.4800149
11
57.2434131
21
46.4800149
0
LINE
8
right_labelLayer
10
57.2434131
20
46.4800149
11
57.2434131
21
45.3163138
0
LINE
8
right_labelLayer
10
57.2236475
20
44.9679446
11
57.2483545
21
44.9679446
0
LINE
8
right_labelLayer
10
59.0964404
20
44.4021536
11
59.0964404
21
42.6356009
0
ARC
8
right_labelLayer
10
57.5269493
20
44.393977
40
1.1593735
50
359.6714769
51
8.6876327
0
ARC
8
right_labelLayer
10
57.9566495
20
44.4621214
40
0.7243145
50
8.4932365
51
22.6578993
0
ARC
8
right_labelLayer
10
58.1749656
20
44.5528448
40
0.4878987
50
22.7025307
51
42.3418268
0
ARC
8
right_labelLayer
10
58.1995104
20
44.5638867
40
0.4623951
50
43.379096
51
71.5386552
0
ARC
8
right_labelLayer
10
58.1077462
20
44.3074734
40
0.7346946
50
71.0828494
51
84.3691828
0
ARC
8
right_labelLayer
10
58.0665514
20
43.9572168
40
1.0873234
50
84.0198435
51
90.1509638
0
ARC
8
right_labelLayer
10
58.0548485
20
43.8034268
40
1.241141
50
89.5920007
51
100.3595016
0
ARC
8
right_labelLayer
10
57.9669629
20
44.2652775
40
0.7710227
50
100.1067542
51
118.0847734
0
ARC
8
right_labelLayer
10
57.8775776
20
44.4406713
40
0.5742126
50
118.4550761
51
139.6706742
0
ARC
8
right_labelLayer
10
57.9673139
20
44.3793342
40
0.6824119
50
140.6208126
51
160.5049588
0
ARC
8
right_labelLayer
10
58.4403278
20
44.2042254
40
1.1867684
50
160.1567135
51
171.531269
0
ARC
8
right_labelLayer
10
59.2056853
20
44.0829664
40
1.9616517
50
171.3203016
51
178.3406738
0
ARC
8
right_labelLayer
10
59.8906157
20
44.0523687
40
2.6472029
50
178.107966
51
180.0228325
0
ARC
8
right_labelLayer
10
53.5540274
20
45.3119159
40
3.6893883
50
357.8673637
51
0.0682987
0
ARC
8
right_labelLayer
10
54.8071407
20
45.264108
40
2.4353642
50
354.9829468
51
357.8942494
0
ARC
8
right_labelLayer
10
55.6351495
20
45.1920054
40
1.6042223
50
351.9712838
51
354.9620574
0
ARC
8
right_labelLayer
10
57.9430578
20
44.5333828
40
0.8194246
50
119.8316176
51
147.9725495
0
ARC
8
right_labelLayer
10
58.0422544
20
44.3810071
40
1.0010073
50
116.6657418
51
120.4184551
0
ARC
8
right_labelLayer
10
58.0608069
20
44.3322909
40
1.0528814
50
96.6652409
51
116.3782045
0
ARC
8
right_labelLayer
10
58.1007272
20
44.0568464
40
1.3311201
50
89.892798
51
96.9958211
0
ARC
8
right_labelLayer
10
58.1134893
20
43.7240069
40
1.6639889
50
80.6862977
51
90.3536791
0
ARC
8
right_labelLayer
10
58.2171003
20
44.3334304
40
1.0458374
50
65.6023363
51
80.8844071
0
ARC
8
right_labelLayer
10
58.3415164
20
44.6136474
40
0.7392554
50
46.7400955
51
65.4130202
0
ARC
8
right_labelLayer
10
58.3499738
20
44.6403488
40
0.7141173
50
19.22042
51
45.7660504
0
ARC
8
right_labelLayer
10
57.9382068
20
44.4877044
40
1.1532151
50
6.4733534
51
19.6467503
0
ARC
8
right_labelLayer
10
57.3229317
20
44.4085155
40
1.77352
50
359.79447
51
6.774359
0
LINE
8
right_labelLayer
10
61.1841846
20
42.9740872
11
61.1841846
21
42.6603079
0
LINE
8
right_labelLayer
10
59.9685986
20
43.4138724
11
59.9685986
21
45.0247708
0
LINE
8
right_labelLayer
10
59.9685986
20
45.0247708
11
59.5806982
21
45.0247708
0
LINE
8
right_labelLayer
10
59.5806982
20
45.0247708
11
59.5806982
21
45.222427
0
LINE
8
right_labelLayer
10
59.5806982
20
45.222427
11
59.9685986
21
45.3929056
0
LINE
8
right_labelLayer
10
59.9685986
20
45.3929056
11
60.1415478
21
45.9710501
0
LINE
8
right_labelLayer
10
60.1415478
20
45.9710501
11
60.3787353
21
45.9710501
0
LINE
8
right_labelLayer
10
60.3787353
20
45.9710501
11
60.3787353
21
45.3434915
0
LINE
8
right_labelLayer
10
60.3787353
20
45.3434915
11
61.1644189
21
45.3434915
0
LINE
8
right_labelLayer
10
61.1644189
20
45.3434915
11
61.1644189
21
45.0247708
0
LINE
8
right_labelLayer
10
61.1644189
20
45.0247708
11
60.3787353
21
45.0247708
0
LINE
8
right_labelLayer
10
60.3787353
20
45.0247708
11
60.3787353
21
43.4311673
0
ARC
8
right_labelLayer
10
60.8163904
20
44.2716218
40
1.3469516
50
269.8804149
51
278.3028514
0
ARC
8
right_labelLayer
10
60.8293418
20
44.1660764
40
1.2406447
50
278.4148728
51
279.0078298
0
ARC
8
right_labelLayer
10
60.677961
20
45.1330506
40
2.2193955
50
278.9591716
51
280.5101121
0
ARC
8
right_labelLayer
10
60.8220208
20
44.3599661
40
1.4330035
50
280.4851164
51
282.6264829
0
ARC
8
right_labelLayer
10
60.9484663
20
43.7981818
40
0.8571654
50
282.5873988
51
285.5797118
0
ARC
8
right_labelLayer
10
61.0132426
20
43.5602287
40
0.6105596
50
285.7216828
51
286.2587671
0
ARC
8
right_labelLayer
10
61.0117412
20
43.0250386
40
0.4034417
50
287.9891493
51
295.3046215
0
ARC
8
right_labelLayer
10
60.9144662
20
43.3193358
40
0.7133961
50
283.3068291
51
288.1200462
0
ARC
8
right_labelLayer
10
60.811702
20
43.7479674
40
1.154173
50
280.0067409
51
283.3737887
0
ARC
8
right_labelLayer
10
60.7429622
20
44.1208933
40
1.533373
50
279.1865245
51
280.1148401
0
ARC
8
right_labelLayer
10
60.7006692
20
44.361534
40
1.7776822
50
275.5261145
51
279.2939326
0
ARC
8
right_labelLayer
10
60.748243
20
43.8646905
40
1.2785664
50
270.8933983
51
275.5482114
0
ARC
8
right_labelLayer
10
60.7542091
20
43.6399022
40
1.0537154
50
270.0039737
51
270.7596069
0
ARC
8
right_labelLayer
10
60.7377319
20
43.6572749
40
1.0712159
50
253.7847785
51
270.8852551
0
ARC
8
right_labelLayer
10
60.6108215
20
43.2244624
40
0.6201826
50
190.3817883
51
253.8772261
0
ARC
8
right_labelLayer
10
61.2576783
20
43.3993622
40
1.2891615
50
179.3550945
51
192.8478103
0
ARC
8
right_labelLayer
10
61.2046143
20
43.426003
40
0.8258951
50
179.6417338
51
189.7504748
0
ARC
8
right_labelLayer
10
60.913046
20
43.3739993
40
0.5297346
50
189.5478713
51
205.7873261
0
ARC
8
right_labelLayer
10
60.7932367
20
43.3187524
40
0.3978293
50
206.1294802
51
221.4082255
0
ARC
8
right_labelLayer
10
60.7797973
20
43.308556
40
0.3810074
50
221.5949404
51
262.3505237
0
ARC
8
right_labelLayer
10
60.8117499
20
43.4728635
40
0.5481936
50
261.3265255
51
270.1911834
0
LINE
8
bottom_outsideCutPath
10
104.275
20
61.387868
11
104.275
21
64.3
0
LINE
8
bottom_outsideCutPath
10
104.275
20
64.3
11
108.812132
21
64.3
0
LINE
8
bottom_outsideCutPath
10
108.812132
20
64.3
11
108.9
21
64.387868
0
LINE
8
bottom_outsideCutPath
10
108.9
20
64.387868
11
108.9
21
74.175
0
LINE
8
bottom_outsideCutPath
10
108.9
20
74.175
11
111.812132
21
74.175
0
LINE
8
bottom_outsideCutPath
10
111.812132
20
74.175
11
111.9
21
74.262868
0
LINE
8
bottom_outsideCutPath
10
111.9
20
74.262868
11
111.9
21
84.137132
0
LINE
8
bottom_outsideCutPath
10
111.9
20
84.137132
11
111.812132
21
84.225
0
LINE
8
bottom_outsideCutPath
10
111.812132
20
84.225
11
108.9
21
84.225
0
LINE
8
bottom_outsideCutPath
10
108.9
20
84.225
11
108.9
21
93.675
0
LINE
8
bottom_outsideCutPath
10
108.9
20
93.675
11
111.812132
21
93.675
0
LINE
8
bottom_outsideCutPath
10
111.812132
20
93.675
11
111.9
21
93.762868
0
LINE
8
bottom_outsideCutPath
10
111.9
20
93.762868
11
111.9
21
103.637132
0
LINE
8
bottom_outsideCutPath
10
111.9
20
103.637132
11
111.812132
21
103.725
0
LINE
8
bottom_outsideCutPath
10
111.812132
20
103.725
11
108.9
21
103.725
0
LINE
8
bottom_outsideCutPath
10
108.9
20
103.725
11
108.9
21
113.512132
0
LINE
8
bottom_outsideCutPath
10
108.9
20
113.512132
11
108.812132
21
113.6
0
LINE
8
bottom_outsideCutPath
10
108.812132
20
113.6
11
104.275
21
113.6
0
LINE
8
bottom_outsideCutPath
10
104.275
20
113.6
11
104.275
21
116.512132
0
LINE
8
bottom_outsideCutPath
10
104.275
20
116.512132
11
104.187132
21
116.6
0
LINE
8
bottom_outsideCutPath
10
104.187132
20
116.6
11
94.312868
21
116.6
0
LINE
8
bottom_outsideCutPath
10
94.312868
20
116.6
11
94.225
21
116.512132
0
LINE
8
bottom_outsideCutPath
10
94.225
20
116.512132
11
94.225
21
113.6
0
LINE
8
bottom_outsideCutPath
10
94.225
20
113.6
11
89.687868
21
113.6
0
LINE
8
bottom_outsideCutPath
10
89.687868
20
113.6
11
89.6
21
113.512132
0
LINE
8
bottom_outsideCutPath
10
89.6
20
113.512132
11
89.6
21
103.725
0
LINE
8
bottom_outsideCutPath
10
89.6
20
103.725
11
86.687868
21
103.725
0
LINE
8
bottom_outsideCutPath
10
86.687868
20
103.725
11
86.6
21
103.637132
0
LINE
8
bottom_outsideCutPath
10
86.6
20
103.637132
11
86.6
21
93.762868
0
LINE
8
bottom_outsideCutPath
10
86.6
20
93.762868
11
86.687868
21
93.675
0
LINE
8
bottom_outsideCutPath
10
86.687868
20
93.675
11
89.6
21
93.675
0
LINE
8
bottom_outsideCutPath
10
89.6
20
93.675
11
89.6
21
84.225
0
LINE
8
bottom_outsideCutPath
10
89.6
20
84.225
11
86.687868
21
84.225
0
LINE
8
bottom_outsideCutPath
10
86.687868
20
84.225
11
86.6
21
84.137132
0
LINE
8
bottom_outsideCutPath
10
86.6
20
84.137132
11
86.6
21
74.262868
0
LINE
8
bottom_outsideCutPath
10
86.6
20
74.262868
11
86.687868
21
74.175
0
LINE
8
bottom_outsideCutPath
10
86.687868
20
74.175
11
89.6
21
74.175
0
LINE
8
bottom_outsideCutPath
10
89.6
20
74.175
11
89.6
21
64.387868
0
LINE
8
bottom_outsideCutPath
10
89.6
20
64.387868
11
89.687868
21
64.3
0
LINE
8
bottom_outsideCutPath
10
89.687868
20
64.3
11
94.225
21
64.3
0
LINE
8
bottom_outsideCutPath
10
94.225
20
64.3
11
94.225
21
61.387868
0
LINE
8
bottom_outsideCutPath
10
94.225
20
61.387868
11
94.312868
21
61.3
0
LINE
8
bottom_outsideCutPath
10
94.312868
20
61.3
11
104.187132
21
61.3
0
LINE
8
bottom_outsideCutPath
10
104.187132
20
61.3
11
104.275
21
61.387868
0
LINE
8
bottom_labelLayer
10
91.3363259
20
87.4009331
11
91.3066774
21
87.4009331
0
LINE
8
bottom_labelLayer
10
91.3066774
20
87.4009331
11
91.2202028
21
87.0525639
0
LINE
8
bottom_labelLayer
10
91.2202028
20
87.0525639
11
90.9261891
21
87.0525639
0
LINE
8
bottom_labelLayer
10
90.9261891
20
87.0525639
11
90.9261891
21
90.896978
0
LINE
8
bottom_labelLayer
10
90.9261891
20
90.896978
11
91.3363259
21
90.896978
0
LINE
8
bottom_labelLayer
10
91.3363259
20
90.896978
11
91.3363259
21
89.9630522
0
LINE
8
bottom_labelLayer
10
91.3165602
20
89.3997319
11
91.3363259
21
89.3997319
0
ARC
8
bottom_labelLayer
10
92.1985506
20
88.5514651
40
1.2535225
50
74.2393323
51
90.5623474
0
ARC
8
bottom_labelLayer
10
92.281439
20
88.8555427
40
0.938367
50
38.5631188
51
74.0670676
0
ARC
8
bottom_labelLayer
10
92.0681328
20
88.6896848
40
1.2085521
50
16.4709167
51
38.4075181
0
ARC
8
bottom_labelLayer
10
91.4536296
20
88.4969945
40
1.8525017
50
5.1338516
51
16.7973335
0
ARC
8
bottom_labelLayer
10
90.6779003
20
88.4145906
40
2.6325232
50
359.8778856
51
5.4093689
0
ARC
8
bottom_labelLayer
10
90.9057193
20
88.3947938
40
2.4047402
50
350.6563054
51
0.3380033
0
ARC
8
bottom_labelLayer
10
91.7440572
20
88.2522035
40
1.5543816
50
335.8305939
51
350.8254574
0
ARC
8
bottom_labelLayer
10
92.1128277
20
88.093036
40
1.1527836
50
321.3161342
51
335.5436515
0
ARC
8
bottom_labelLayer
10
92.2538062
20
87.9781595
40
0.9709355
50
274.0639872
51
321.4081073
0
ARC
8
bottom_labelLayer
10
92.1881296
20
88.3941424
40
1.3909938
50
269.9224858
51
275.5482731
0
ARC
8
bottom_labelLayer
10
92.1793321
20
88.2471689
40
1.2440383
50
255.775561
51
270.3185121
0
ARC
8
bottom_labelLayer
10
92.1438393
20
88.0894622
40
1.0824542
50
245.9802828
51
255.5454521
0
ARC
8
bottom_labelLayer
10
92.0750685
20
87.9295293
40
0.9083802
50
215.5850462
51
245.8361454
0
ARC
8
bottom_labelLayer
10
82.7849549
20
89.9558288
40
8.551374
50
358.112359
51
0.0483981
0
ARC
8
bottom_labelLayer
10
85.1648132
20
89.8759436
40
6.170176
50
355.7239375
51
358.1258261
0
ARC
8
bottom_labelLayer
10
86.1826876
20
89.8062852
40
5.149945
50
355.4721746
51
355.6523966
0
ARC
8
bottom_labelLayer
10
92.1012132
20
88.8663552
40
0.932493
50
95.1835246
51
145.1108914
0
ARC
8
bottom_labelLayer
10
92.1831772
20
88.404152
40
1.4007787
50
89.8744057
51
96.8145603
0
ARC
8
bottom_labelLayer
10
92.1183634
20
88.309015
40
1.1525164
50
89.5730837
51
100.7323969
0
ARC
8
bottom_labelLayer
10
92.0330454
20
88.7400733
40
0.7131189
50
100.4469304
51
119.6701118
0
ARC
8
bottom_labelLayer
10
91.9539286
20
88.8879896
40
0.5454511
50
120.1402421
51
142.4249264
0
ARC
8
bottom_labelLayer
10
92.0848219
20
88.8013991
40
0.7020834
50
143.3382483
51
161.2559747
0
ARC
8
bottom_labelLayer
10
92.6321841
20
88.6070667
40
1.2828882
50
160.8926058
51
171.2333796
0
ARC
8
bottom_labelLayer
10
93.545939
20
88.4596568
40
2.2084439
50
171.0667601
51
177.8456639
0
ARC
8
bottom_labelLayer
10
94.4965165
20
88.4113211
40
3.1601915
50
177.6178
51
180.0424467
0
ARC
8
bottom_labelLayer
10
94.0481308
20
88.3983927
40
2.7118256
50
179.7763106
51
185.7074916
0
ARC
8
bottom_labelLayer
10
92.9789453
20
88.288232
40
1.6369883
50
185.5925427
51
194.2050636
0
ARC
8
bottom_labelLayer
10
92.2940351
20
88.1104741
40
0.9294095
50
193.9430239
51
208.0218813
0
ARC
8
bottom_labelLayer
10
92.0169187
20
87.9694954
40
0.6185736
50
208.5535801
51
217.5606279
0
ARC
8
bottom_labelLayer
10
91.9943512
20
87.960111
40
0.594997
50
218.1690396
51
253.8047229
0
ARC
8
bottom_labelLayer
10
92.104713
20
88.3003705
40
0.9525996
50
253.138298
51
266.8482669
0
ARC
8
bottom_labelLayer
10
92.1356618
20
88.665442
40
1.3188649
50
266.3777615
51
270.0509122
0
ARC
8
bottom_labelLayer
10
92.1455819
20
88.1641389
40
0.8176081
50
269.3869349
51
285.8630174
0
ARC
8
bottom_labelLayer
10
92.2063253
20
87.9446016
40
0.5898299
50
286.0162902
51
326.8497339
0
ARC
8
bottom_labelLayer
10
91.9131553
20
88.1388173
40
0.9414903
50
326.7104377
51
343.6662359
0
ARC
8
bottom_labelLayer
10
91.3643401
20
88.3065174
40
1.5153322
50
343.4171723
51
353.6369482
0
ARC
8
bottom_labelLayer
10
90.535455
20
88.4048738
40
2.3500191
50
353.4934212
51
0.2205878
0
ARC
8
bottom_labelLayer
10
90.4623929
20
88.4237311
40
2.4230837
50
359.7680395
51
6.3095901
0
ARC
8
bottom_labelLayer
10
91.3750988
20
88.5284739
40
1.5044
50
6.1648137
51
16.0396217
0
ARC
8
bottom_labelLayer
10
91.9630626
20
88.7017458
40
0.8914588
50
15.7779769
51
32.0150642
0
ARC
8
bottom_labelLayer
10
92.1463958
20
88.8067305
40
0.6804013
50
32.7034971
51
35.5242137
0
ARC
8
bottom_labelLayer
10
92.2134772
20
88.8544086
40
0.5981025
50
35.5408534
51
79.8011073
0
ARC
8
bottom_labelLayer
10
92.1331574
20
88.5129506
40
0.9485693
50
78.678148
51
90.3748923
0
ARC
8
bottom_labelLayer
10
94.2457348
20
88.394697
40
2.1185201
50
349.1761929
51
0.3862867
0
ARC
8
bottom_labelLayer
10
94.9589929
20
88.2525068
40
1.3912611
50
330.2506684
51
349.4116845
0
ARC
8
bottom_labelLayer
10
95.1784962
20
88.1384161
40
1.1441173
50
318.143946
51
329.7566435
0
ARC
8
bottom_labelLayer
10
95.2181098
20
88.1066695
40
1.0934325
50
278.8959095
51
317.99791
0
ARC
8
bottom_labelLayer
10
95.1160306
20
88.595743
40
1.5926082
50
269.750287
51
279.803301
0
ARC
8
bottom_labelLayer
10
95.0994747
20
88.3201764
40
1.3170616
50
253.5436898
51
270.4182744
0
ARC
8
bottom_labelLayer
10
95.0556337
20
88.1505862
40
1.1420147
50
238.8115436
51
253.2428095
0
ARC
8
bottom_labelLayer
10
95.0414837
20
88.122131
40
1.1103477
50
207.7947043
51
238.6757886
0
ARC
8
bottom_labelLayer
10
95.2444201
20
88.2464278
40
1.3479175
50
205.655829
51
208.4461683
0
ARC
8
bottom_labelLayer
10
95.4009104
20
88.3116426
40
1.5172419
50
188.9102768
51
205.3171162
0
ARC
8
bottom_labelLayer
10
95.9279261
20
88.4009027
40
2.0517333
50
179.7744376
51
189.0933212
0
ARC
8
bottom_labelLayer
10
96.0056994
20
88.4234026
40
2.1295396
50
169.2443373
51
180.3880491
0
ARC
8
bottom_labelLayer
10
95.2825125
20
88.5663495
40
1.3923915
50
150.7111311
51
169.4695731
0
ARC
8
bottom_labelLayer
10
95.0516492
20
88.684908
40
1.1330804
50
138.1758758
51
150.228777
0
ARC
8
bottom_labelLayer
10
95.0132559
20
88.714371
40
1.0848289
50
99.175943
51
137.9832741
0
ARC
8
bottom_labelLayer
10
95.1189523
20
88.2169415
40
1.5929445
50
89.7326765
51
100.0759258
0
ARC
8
bottom_labelLayer
10
95.1400766
20
88.4317755
40
1.3781611
50
73.5222675
51
90.569248
0
ARC
8
bottom_labelLayer
10
95.2208972
20
88.7254174
40
1.0736705
50
41.1445833
51
73.2133907
0
ARC
8
bottom_labelLayer
10
95.0666175
20
88.5928158
40
1.2770988
50
13.5014325
51
41.070367
0
ARC
8
bottom_labelLayer
10
94.4705576
20
88.4368348
40
1.893144
50
1.1276868
51
13.8799982
0
ARC
8
bottom_labelLayer
10
93.9570597
20
88.4093129
40
2.4071472
50
359.9920739
51
1.5421048
0
ARC
8
bottom_labelLayer
10
96.378064
20
88.3983214
40
2.0769218
50
179.7059637
51
187.9160891
0
ARC
8
bottom_labelLayer
10
95.61632
20
88.2888973
40
1.3073709
50
187.7639283
51
200.0976464
0
ARC
8
bottom_labelLayer
10
95.1966732
20
88.1351399
40
0.8604428
50
200.0846393
51
216.913132
0
ARC
8
bottom_labelLayer
10
95.0434299
20
88.0257173
40
0.6722134
50
217.3009441
51
261.7099092
0
ARC
8
bottom_labelLayer
10
95.114569
20
88.3651912
40
1.018623
50
260.5033672
51
270.2476821
0
ARC
8
bottom_labelLayer
10
95.1281481
20
88.2991735
40
0.9526401
50
269.4481214
51
284.725564
0
ARC
8
bottom_labelLayer
10
95.2035624
20
88.019486
40
0.662972
50
284.5662295
51
322.6333601
0
ARC
8
bottom_labelLayer
10
95.0272406
20
88.1468709
40
0.8804374
50
323.0088943
51
342.6390753
0
ARC
8
bottom_labelLayer
10
94.522919
20
88.3116988
40
1.4109837
50
342.3615426
51
353.7537807
0
ARC
8
bottom_labelLayer
10
93.7788918
20
88.4013836
40
2.1603673
50
353.5362713
51
0.2014641
0
ARC
8
bottom_labelLayer
10
93.892836
20
88.4194234
40
2.0464364
50
359.7076058
51
7.8972004
0
ARC
8
bottom_labelLayer
10
94.6423079
20
88.5268634
40
1.2893151
50
7.7440401
51
20.068989
0
ARC
8
bottom_labelLayer
10
95.0599457
20
88.6801211
40
0.8444459
50
20.0256339
51
37.4351148
0
ARC
8
bottom_labelLayer
10
95.1985047
20
88.7784419
40
0.6746868
50
37.9577324
51
80.4006349
0
ARC
8
bottom_labelLayer
10
95.1197636
20
88.4271036
40
1.0344116
50
79.3453941
51
90.317532
0
ARC
8
bottom_labelLayer
10
95.1051827
20
88.4854629
40
0.9760767
50
89.4805974
51
103.8805212
0
ARC
8
bottom_labelLayer
10
95.0231668
20
88.7977778
40
0.6532235
50
103.4685274
51
142.311909
0
ARC
8
bottom_labelLayer
10
95.1826144
20
88.685643
40
0.8480026
50
142.9025962
51
162.3749208
0
ARC
8
bottom_labelLayer
10
95.6850279
20
88.5182151
40
1.377547
50
162.0652982
51
173.1674352
0
ARC
8
bottom_labelLayer
10
96.4684112
20
88.4183011
40
2.1672615
50
173.0086374
51
180.2464241
0
LINE
8
bottom_labelLayer
10
98.3284157
20
87.3910503
11
98.3284157
21
87.077271
0
LINE
8
bottom_labelLayer
10
97.1128298
20
87.8308354
11
97.1128298
21
89.4417339
0
LINE
8
bottom_labelLayer
10
97.1128298
20
89.4417339
11
96.7249294
21
89.4417339
0
LINE
8
bottom_labelLayer
10
96.7249294
20
89.4417339
11
96.7249294
21
89.6393901
0
LINE
8
bottom_labelLayer
10
96.7249294
20
89.6393901
11
97.1128298
21
89.8098686
0
LINE
8
bottom_labelLayer
10
97.1128298
20
89.8098686
11
97.285779
21
90.3880131
0
LINE
8
bottom_labelLayer
10
97.285779
20
90.3880131
11
97.5229665
21
90.3880131
0
LINE
8
bottom_labelLayer
10
97.5229665
20
90.3880131
11
97.5229665
21
89.7604546
0
LINE
8
bottom_labelLayer
10
97.5229665
20
89.7604546
11
98.3086501
21
89.7604546
0
LINE
8
bottom_labelLayer
10
98.3086501
20
89.7604546
11
98.3086501
21
89.4417339
0
LINE
8
bottom_labelLayer
10
98.3086501
20
89.4417339
11
97.5229665
21
89.4417339
0
LINE
8
bottom_labelLayer
10
97.5229665
20
89.4417339
11
97.5229665
21
87.8481303
0
ARC
8
bottom_labelLayer
10
97.9606215
20
88.6885849
40
1.3469516
50
269.8804149
51
278.3028514
0
ARC
8
bottom_labelLayer
10
97.973573
20
88.5830394
40
1.2406447
50
278.4148728
51
279.0078298
0
ARC
8
bottom_labelLayer
10
97.8221922
20
89.5500137
40
2.2193955
50
278.9591716
51
280.5101121
0
ARC
8
bottom_labelLayer
10
97.9662519
20
88.7769291
40
1.4330035
50
280.4851164
51
282.6264829
0
ARC
8
bottom_labelLayer
10
98.0926974
20
88.2151449
40
0.8571654
50
282.5873988
51
285.5797118
0
ARC
8
bottom_labelLayer
10
98.1574737
20
87.9771918
40
0.6105596
50
285.7216828
51
286.2587671
0
ARC
8
bottom_labelLayer
10
98.1559723
20
87.4420016
40
0.4034417
50
287.9891493
51
295.3046215
0
ARC
8
bottom_labelLayer
10
98.0586974
20
87.7362989
40
0.7133961
50
283.3068291
51
288.1200462
0
ARC
8
bottom_labelLayer
10
97.9559332
20
88.1649304
40
1.154173
50
280.0067409
51
283.3737887
0
ARC
8
bottom_labelLayer
10
97.8871934
20
88.5378564
40
1.533373
50
279.1865245
51
280.1148401
0
ARC
8
bottom_labelLayer
10
97.8449003
20
88.7784971
40
1.7776822
50
275.5261145
51
279.2939326
0
ARC
8
bottom_labelLayer
10
97.8924741
20
88.2816535
40
1.2785664
50
270.8933983
51
275.5482114
0
ARC
8
bottom_labelLayer
10
97.8984403
20
88.0568652
40
1.0537154
50
270.0039737
51
270.7596069
0
ARC
8
bottom_labelLayer
10
97.8819631
20
88.0742379
40
1.0712159
50
253.7847785
51
270.8852551
0
ARC
8
bottom_labelLayer
10
97.7550526
20
87.6414255
40
0.6201826
50
190.3817883
51
253.8772261
0
ARC
8
bottom_labelLayer
10
98.4019095
20
87.8163253
40
1.2891615
50
179.3550945
51
192.8478103
0
ARC
8
bottom_labelLayer
10
98.3488454
20
87.8429661
40
0.8258951
50
179.6417338
51
189.7504748
0
ARC
8
bottom_labelLayer
10
98.0572771
20
87.7909624
40
0.5297346
50
189.5478713
51
205.7873261
0
ARC
8
bottom_labelLayer
10
97.9374679
20
87.7357155
40
0.3978293
50
206.1294802
51
221.4082255
0
ARC
8
bottom_labelLayer
10
97.9240285
20
87.7255191
40
0.3810074
50
221.5949404
51
262.3505237
0
ARC
8
bottom_labelLayer
10
97.955981
20
87.8898266
40
0.5481936
50
261.3265255
51
270.1911834
0
LINE
8
bottom_labelLayer
10
100.1147341
20
87.3910503
11
100.1147341
21
87.077271
0
LINE
8
bottom_labelLayer
10
98.8991481
20
87.8308354
11
98.8991481
21
89.4417339
0
LINE
8
bottom_labelLayer
10
98.8991481
20
89.4417339
11
98.5112477
21
89.4417339
0
LINE
8
bottom_labelLayer
10
98.5112477
20
89.4417339
11
98.5112477
21
89.6393901
0
LINE
8
bottom_labelLayer
10
98.5112477
20
89.6393901
11
98.8991481
21
89.8098686
0
LINE
8
bottom_labelLayer
10
98.8991481
20
89.8098686
11
99.0720974
21
90.3880131
0
LINE
8
bottom_labelLayer
10
99.0720974
20
90.3880131
11
99.3092849
21
90.3880131
0
LINE
8
bottom_labelLayer
10
99.3092849
20
90.3880131
11
99.3092849
21
89.7604546
0
LINE
8
bottom_labelLayer
10
99.3092849
20
89.7604546
11
100.0949684
21
89.7604546
0
LINE
8
bottom_labelLayer
10
100.0949684
20
89.7604546
11
100.0949684
21
89.4417339
0
LINE
8
bottom_labelLayer
10
100.0949684
20
89.4417339
11
99.3092849
21
89.4417339
0
LINE
8
bottom_labelLayer
10
99.3092849
20
89.4417339
11
99.3092849
21
87.8481303
0
ARC
8
bottom_labelLayer
10
99.7469399
20
88.6885849
40
1.3469516
50
269.8804149
51
278.3028514
0
ARC
8
bottom_labelLayer
10
99.7598913
20
88.5830394
40
1.2406447
50
278.4148728
51
279.0078298
0
ARC
8
bottom_labelLayer
10
99.6085106
20
89.5500137
40
2.2193955
50
278.9591716
51
280.5101121
0
ARC
8
bottom_labelLayer
10
99.7525703
20
88.7769291
40
1.4330035
50
280.4851164
51
282.6264829
0
ARC
8
bottom_labelLayer
10
99.8790158
20
88.2151449
40
0.8571654
50
282.5873988
51
285.5797118
0
ARC
8
bottom_labelLayer
10
99.9437921
20
87.9771918
40
0.6105596
50
285.7216828
51
286.2587671
0
ARC
8
bottom_labelLayer
10
99.9422907
20
87.4420016
40
0.4034417
50
287.9891493
51
295.3046215
0
ARC
8
bottom_labelLayer
10
99.8450157
20
87.7362989
40
0.7133961
50
283.3068291
51
288.1200462
0
ARC
8
bottom_labelLayer
10
99.7422515
20
88.1649304
40
1.154173
50
280.0067409
51
283.3737887
0
ARC
8
bottom_labelLayer
10
99.6735117
20
88.5378564
40
1.533373
50
279.1865245
51
280.1148401
0
ARC
8
bottom_labelLayer
10
99.6312187
20
88.7784971
40
1.7776822
50
275.5261145
51
279.2939326
0
ARC
8
bottom_labelLayer
10
99.6787925
20
88.2816535
40
1.2785664
50
270.8933983
51
275.5482114
0
ARC
8
bottom_labelLayer
10
99.6847586
20
88.0568652
40
1.0537154
50
270.0039737
51
270.7596069
0
ARC
8
bottom_labelLayer
10
99.6682814
20
88.0742379
40
1.0712159
50
253.7847785
51
270.8852551
0
ARC
8
bottom_labelLayer
10
99.541371
20
87.6414255
40
0.6201826
50
190.3817883
51
253.8772261
0
ARC
8
bottom_labelLayer
10
100.1882278
20
87.8163253
40
1.2891615
50
179.3550945
51
192.8478103
0
ARC
8
bottom_labelLayer
10
100.1351638
20
87.8429661
40
0.8258951
50
179.6417338
51
189.7504748
0
ARC
8
bottom_labelLayer
10
99.8435955
20
87.7909624
40
0.5297346
50
189.5478713
51
205.7873261
0
ARC
8
bottom_labelLayer
10
99.7237862
20
87.7357155
40
0.3978293
50
206.1294802
51
221.4082255
0
ARC
8
bottom_labelLayer
10
99.7103468
20
87.7255191
40
0.3810074
50
221.5949404
51
262.3505237
0
ARC
8
bottom_labelLayer
10
99.7422994
20
87.8898266
40
0.5481936
50
261.3265255
51
270.1911834
0
ARC
8
bottom_labelLayer
10
100.8746313
20
88.394697
40
2.1185201
50
349.1761929
51
0.3862867
0
ARC
8
bottom_labelLayer
10
101.5878894
20
88.2525068
40
1.3912611
50
330.2506684
51
349.4116845
0
ARC
8
bottom_labelLayer
10
101.8073927
20
88.1384161
40
1.1441173
50
318.143946
51
329.7566435
0
ARC
8
bottom_labelLayer
10
101.8470063
20
88.1066695
40
1.0934325
50
278.8959095
51
317.99791
0
ARC
8
bottom_labelLayer
10
101.7449271
20
88.595743
40
1.5926082
50
269.750287
51
279.803301
0
ARC
8
bottom_labelLayer
10
101.7283712
20
88.3201764
40
1.3170616
50
253.5436898
51
270.4182744
0
ARC
8
bottom_labelLayer
10
101.6845302
20
88.1505862
40
1.1420147
50
238.8115436
51
253.2428095
0
ARC
8
bottom_labelLayer
10
101.6703802
20
88.122131
40
1.1103477
50
207.7947043
51
238.6757886
0
ARC
8
bottom_labelLayer
10
101.8733166
20
88.2464278
40
1.3479175
50
205.655829
51
208.4461683
0
ARC
8
bottom_labelLayer
10
102.0298069
20
88.3116426
40
1.5172419
50
188.9102768
51
205.3171162
0
ARC
8
bottom_labelLayer
10
102.5568226
20
88.4009027
40
2.0517333
50
179.7744376
51
189.0933212
0
ARC
8
bottom_labelLayer
10
102.6345959
20
88.4234026
40
2.1295396
50
169.2443373
51
180.3880491
0
ARC
8
bottom_labelLayer
10
101.911409
20
88.5663495
40
1.3923915
50
150.7111311
51
169.4695731
0
ARC
8
bottom_labelLayer
10
101.6805456
20
88.684908
40
1.1330804
50
138.1758758
51
150.228777
0
ARC
8
bottom_labelLayer
10
101.6421524
20
88.714371
40
1.0848289
50
99.175943
51
137.9832741
0
ARC
8
bottom_labelLayer
10
101.7478488
20
88.2169415
40
1.5929445
50
89.7326765
51
100.0759258
0
ARC
8
bottom_labelLayer
10
101.7689731
20
88.4317755
40
1.3781611
50
73.5222675
51
90.569248
0
ARC
8
bottom_labelLayer
10
101.8497937
20
88.7254174
40
1.0736705
50
41.1445833
51
73.2133907
0
ARC
8
bottom_labelLayer
10
101.695514
20
88.5928158
40
1.2770988
50
13.5014325
51
41.070367
0
ARC
8
bottom_labelLayer
10
101.0994541
20
88.4368348
40
1.893144
50
1.1276868
51
13.8799982
0
ARC
8
bottom_labelLayer
10
100.5859562
20
88.4093129
40
2.4071472
50
359.9920739
51
1.5421048
0
ARC
8
bottom_labelLayer
10
103.0069605
20
88.3983214
40
2.0769218
50
179.7059637
51
187.9160891
0
ARC
8
bottom_labelLayer
10
102.2452165
20
88.2888973
40
1.3073709
50
187.7639283
51
200.0976464
0
ARC
8
bottom_labelLayer
10
101.8255697
20
88.1351399
40
0.8604428
50
200.0846393
51
216.913132
0
ARC
8
bottom_labelLayer
10
101.6723263
20
88.0257173
40
0.6722134
50
217.3009441
51
261.7099092
0
ARC
8
bottom_labelLayer
10
101.7434655
20
88.3651912
40
1.018623
50
260.5033672
51
270.2476821
0
ARC
8
bottom_labelLayer
10
101.7570446
20
88.2991735
40
0.9526401
50
269.4481214
51
284.725564
0
ARC
8
bottom_labelLayer
10
101.8324589
20
88.019486
40
0.662972
50
284.5662295
51
322.6333601
0
ARC
8
bottom_labelLayer
10
101.6561371
20
88.1468709
40
0.8804374
50
323.0088943
51
342.6390753
0
ARC
8
bottom_labelLayer
10
101.1518155
20
88.3116988
40
1.4109837
50
342.3615426
51
353.7537807
0
ARC
8
bottom_labelLayer
10
100.4077883
20
88.4013836
40
2.1603673
50
353.5362713
51
0.2014641
0
ARC
8
bottom_labelLayer
10
100.5217325
20
88.4194234
40
2.0464364
50
359.7076058
51
7.8972004
0
ARC
8
bottom_labelLayer
10
101.2712044
20
88.5268634
40
1.2893151
50
7.7440401
51
20.068989
0
ARC
8
bottom_labelLayer
10
101.6888422
20
88.6801211
40
0.8444459
50
20.0256339
51
37.4351148
0
ARC
8
bottom_labelLayer
10
101.8274012
20
88.7784419
40
0.6746868
50
37.9577324
51
80.4006349
0
ARC
8
bottom_labelLayer
10
101.7486601
20
88.4271036
40
1.0344116
50
79.3453941
51
90.317532
0
ARC
8
bottom_labelLayer
10
101.7340791
20
88.4854629
40
0.9760767
50
89.4805974
51
103.8805212
0
ARC
8
bottom_labelLayer
10
101.6520633
20
88.7977778
40
0.6532235
50
103.4685274
51
142.311909
0
ARC
8
bottom_labelLayer
10
101.8115108
20
88.685643
40
0.8480026
50
142.9025962
51
162.3749208
0
ARC
8
bottom_labelLayer
10
102.3139244
20
88.5182151
40
1.377547
50
162.0652982
51
173.1674352
0
ARC
8
bottom_labelLayer
10
103.0973077
20
88.4183011
40
2.1672615
50
173.0086374
51
180.2464241
0
LINE
8
bottom_labelLayer
10
107.5737868
20
87.0525639
11
107.1636501
21
87.0525639
0
LINE
8
bottom_labelLayer
10
107.1636501
20
87.0525639
11
107.1636501
21
88.8141753
0
LINE
8
bottom_labelLayer
10
105.8467653
20
88.5646342
11
105.8467653
21
87.0525639
0
LINE
8
bottom_labelLayer
10
105.8467653
20
87.0525639
11
105.4366286
21
87.0525639
0
LINE
8
bottom_labelLayer
10
105.4366286
20
87.0525639
11
105.4366286
21
88.8141753
0
LINE
8
bottom_labelLayer
10
104.1222145
20
88.4732182
11
104.1222145
21
87.0525639
0
LINE
8
bottom_labelLayer
10
104.1222145
20
87.0525639
11
103.7120778
21
87.0525639
0
LINE
8
bottom_labelLayer
10
103.7120778
20
87.0525639
11
103.7120778
21
89.7604546
0
LINE
8
bottom_labelLayer
10
103.7120778
20
89.7604546
11
104.0456227
21
89.7604546
0
LINE
8
bottom_labelLayer
10
104.0456227
20
89.7604546
11
104.1123317
21
89.3898491
0
LINE
8
bottom_labelLayer
10
104.1123317
20
89.3898491
11
104.1320974
21
89.3898491
0
LINE
8
bottom_labelLayer
10
105.7627614
20
89.3503178
11
105.782527
21
89.3503178
0
LINE
8
bottom_labelLayer
10
107.5737868
20
88.8191167
11
107.5737868
21
87.0525639
0
ARC
8
bottom_labelLayer
10
105.9537441
20
88.8206195
40
1.2099232
50
359.6948299
51
8.1472352
0
ARC
8
bottom_labelLayer
10
106.399377
20
88.8865689
40
0.7594449
50
7.9865553
51
20.794849
0
ARC
8
bottom_labelLayer
10
106.6457366
20
88.980939
40
0.4956307
50
20.7070667
51
40.0217584
0
ARC
8
bottom_labelLayer
10
106.6997777
20
89.0162965
40
0.4315766
50
41.0408597
51
73.1792028
0
ARC
8
bottom_labelLayer
10
106.6215771
20
88.7797737
40
0.6806394
50
72.6396065
51
86.2566999
0
ARC
8
bottom_labelLayer
10
106.596527
20
88.5094149
40
0.9520851
50
85.8146281
51
90.0685243
0
ARC
8
bottom_labelLayer
10
106.5873233
20
88.4061834
40
1.0553469
50
89.5621342
51
101.2961638
0
ARC
8
bottom_labelLayer
10
106.5078384
20
88.7867062
40
0.6666348
50
101.003246
51
121.7840143
0
ARC
8
bottom_labelLayer
10
106.4474099
20
88.8945885
40
0.5431292
50
122.3596878
51
140.288328
0
ARC
8
bottom_labelLayer
10
106.5561287
20
88.814874
40
0.6777435
50
140.9765939
51
161.1699574
0
ARC
8
bottom_labelLayer
10
106.9656961
20
88.6691188
40
1.1124503
50
160.8732142
51
172.5272186
0
ARC
8
bottom_labelLayer
10
107.6500805
20
88.5746022
40
1.8033205
50
172.3776916
51
180.1829106
0
ARC
8
bottom_labelLayer
10
108.0606167
20
88.5646368
40
2.2138515
50
179.8910826
51
180.0000667
0
ARC
8
bottom_labelLayer
10
104.2267226
20
88.8206195
40
1.2099232
50
359.6948299
51
8.1472352
0
ARC
8
bottom_labelLayer
10
104.6723555
20
88.8865689
40
0.7594449
50
7.9865553
51
20.794849
0
ARC
8
bottom_labelLayer
10
104.9187151
20
88.980939
40
0.4956307
50
20.7070667
51
40.0217584
0
ARC
8
bottom_labelLayer
10
104.973881
20
89.0170748
40
0.4302173
50
41.0610324
51
72.8993579
0
ARC
8
bottom_labelLayer
10
104.8941994
20
88.7798574
40
0.6804078
50
72.3600131
51
85.9561413
0
ARC
8
bottom_labelLayer
10
104.8672239
20
88.5010578
40
0.9604427
50
85.5237903
51
90.0792043
0
ARC
8
bottom_labelLayer
10
104.858026
20
88.442863
40
1.0186669
50
89.5573287
51
101.4831615
0
ARC
8
bottom_labelLayer
10
104.779841
20
88.8091838
40
0.6441241
50
101.1546799
51
123.065537
0
ARC
8
bottom_labelLayer
10
104.7266931
20
88.901765
40
0.5375725
50
123.702021
51
142.3021989
0
ARC
8
bottom_labelLayer
10
104.851182
20
88.8173095
40
0.687781
50
143.0769138
51
161.3914433
0
ARC
8
bottom_labelLayer
10
105.3530097
20
88.6400757
40
1.2199542
50
161.0234874
51
171.4469301
0
ARC
8
bottom_labelLayer
10
106.1837583
20
88.5099423
40
2.0608242
50
171.3042303
51
178.3502077
0
ARC
8
bottom_labelLayer
10
106.9777095
20
88.4744801
40
2.8554953
50
178.0975981
51
180.0253187
0
ARC
8
bottom_labelLayer
10
104.8269238
20
88.9812568
40
0.8060592
50
117.12093
51
149.5423703
0
ARC
8
bottom_labelLayer
10
104.90919
20
88.8350394
40
0.9737244
50
93.8343416
51
117.5072037
0
ARC
8
bottom_labelLayer
10
104.931914
20
88.6337774
40
1.1760916
50
89.9663287
51
94.2832432
0
ARC
8
bottom_labelLayer
10
104.9455254
20
88.4671368
40
1.3427939
50
77.5572615
51
90.5513011
0
ARC
8
bottom_labelLayer
10
105.0701212
20
89.003051
40
0.7926456
50
52.7027315
51
78.0053745
0
ARC
8
bottom_labelLayer
10
105.114513
20
89.085643
40
0.7001992
50
22.2098138
51
51.4970815
0
ARC
8
bottom_labelLayer
10
106.5255065
20
88.9245149
40
0.8563449
50
119.4041407
51
150.1828975
0
ARC
8
bottom_labelLayer
10
106.620271
20
88.7804699
40
1.0284282
50
118.2581505
51
120.0635333
0
ARC
8
bottom_labelLayer
10
106.6202106
20
88.7695293
40
1.0380495
50
95.8635345
51
117.9693086
0
ARC
8
bottom_labelLayer
10
106.65534
20
88.5155447
40
1.2943253
50
89.9196119
51
96.2618816
0
ARC
8
bottom_labelLayer
10
106.6666195
20
88.3842385
40
1.4256615
50
79.9360911
51
90.3803325
0
ARC
8
bottom_labelLayer
10
106.7616133
20
88.8987165
40
0.9025071
50
62.9723036
51
80.1664732
0
ARC
8
bottom_labelLayer
10
106.8609197
20
89.1024524
40
0.6759077
50
44.2289642
51
62.6229683
0
ARC
8
bottom_labelLayer
10
106.8313787
20
89.0894001
40
0.7062694
50
19.5612557
51
43.3160374
0
ARC
8
bottom_labelLayer
10
106.4024369
20
88.9282899
40
1.1644254
50
7.5041717
51
19.9645292
0
ARC
8
bottom_labelLayer
10
105.6926354
20
88.8286125
40
1.8811755
50
359.710781
51
7.6907165
0
ENDSEC
0
EOF