0
SECTION
2
HEADER
9
$INSUNITS
70
4
9
$ACADVER
1
AC1014
9
$HANDSEED
5
FFFF
0
ENDSEC
0
SECTION
2
TABLES
0
TABLE
2
VPORT
5
8
100
AcDbSymbolTable
0
ENDTAB
0
TABLE
2
LTYPE
5
5
100
AcDbSymbolTable
0
LTYPE
5
14
100
AcDbSymbolTableRecord
100
AcDbLinetypeTableRecord
2
BYBLOCK
70
0
0
LTYPE
5
15
100
AcDbSymbolTableRecord
100
AcDbLinetypeTableRecord
2
BYLAYER
70
0
0
ENDTAB
0
TABLE
2
LAYER
5
2
100
AcDbSymbolTable
70
2
0
LAYER
5
50
100
AcDbSymbolTableRecord
100
AcDbLayerTableRecord
2
0
70
0
6
CONTINUOUS
0
ENDTAB
0
TABLE
2
STYLE
5
3
100
AcDbSymbolTable
70
1
0
STYLE
5
11
100
AcDbSymbolTableRecord
100
AcDbTextStyleTableRecord
2
STANDARD
70
0
0
ENDTAB
0
TABLE
2
VIEW
5
6
100
AcDbSymbolTable
70
0
0
ENDTAB
0
TABLE
2
UCS
5
7
100
AcDbSymbolTable
70
0
0
ENDTAB
0
TABLE
2
APPID
5
9
100
AcDbSymbolTable
70
2
0
APPID
5
12
100
AcDbSymbolTableRecord
100
AcDbRegAppTableRecord
2
ACAD
70
0
0
ENDTAB
0
TABLE
2
DIMSTYLE
5
A
100
AcDbSymbolTable
70
1
0
ENDTAB
0
TABLE
2
BLOCK_RECORD
5
1
100
AcDbSymbolTable
70
1
0
BLOCK_RECORD
5
1F
100
AcDbSymbolTableRecord
100
AcDbBlockTableRecord
2
*MODEL_SPACE
0
BLOCK_RECORD
5
1B
100
AcDbSymbolTableRecord
100
AcDbBlockTableRecord
2
*PAPER_SPACE
0
ENDTAB
0
ENDSEC
0
SECTION
2
BLOCKS
0
BLOCK
5
20
100
AcDbEntity
100
AcDbBlockBegin
2
*MODEL_SPACE
0
ENDBLK
5
21
100
AcDbEntity
100
AcDbBlockEnd
0
BLOCK
5
1C
100
AcDbEntity
100
AcDbBlockBegin
2
*PAPER_SPACE
0
ENDBLK
5
1D
100
AcDbEntity
100
AcDbBlockEnd
0
ENDSEC
0
SECTION
2
ENTITIES
0
CIRCLE
5
100
100
AcDbEntity
8
0
100
AcDbCircle
10
37.285269145586774
20
52.792295972966173
30
0
40
2.0000000000000018
210
0
220
-0
230
1
0
CIRCLE
5
101
100
AcDbEntity
8
0
100
AcDbCircle
10
-37.714730854413226
20
83.792295972966159
30
0
40
2.0000000000000018
210
0
220
-0
230
1
0
CIRCLE
5
102
100
AcDbEntity
8
0
100
AcDbCircle
10
37.285269145586774
20
83.792295972966159
30
0
40
2.0000000000000018
210
0
220
-0
230
1
0
LWPOLYLINE
5
103
100
AcDbEntity
8
0
100
AcDbPolyline
90
4
70
1
43
0.0
10
-35.03352307168953
20
81.017435944253862
10
35.036476928310464
20
81.042435944253867
10
35.036476928310464
20
56.017435944253869
10
-35.033523071689537
20
56.017435944253869
0
CIRCLE
5
104
100
AcDbEntity
8
0
100
AcDbCircle
10
-37.714730854413226
20
52.792295972966173
30
0
40
2.0000000000000018
210
0
220
-0
230
1
0
CIRCLE
5
105
100
AcDbEntity
8
0
100
AcDbCircle
10
41.27500000000002
20
-50.326390970201459
30
0
40
1.1937999999999958
210
0
220
-0
230
1
0
CIRCLE
5
106
100
AcDbEntity
8
0
100
AcDbCircle
10
41.27500000000002
20
9.8604310694713071
30
0
40
1.1937999999999958
210
0
220
-0
230
1
0
CIRCLE
5
107
100
AcDbEntity
8
0
100
AcDbCircle
10
-41.274999999999977
20
9.8604310694713071
30
0
40
1.1937999999999958
210
0
220
-0
230
1
0
CIRCLE
5
108
100
AcDbEntity
8
0
100
AcDbCircle
10
-41.274999999999977
20
-50.326390970201459
30
0
40
1.1937999999999958
210
0
220
-0
230
1
0
CIRCLE
5
109
100
AcDbEntity
8
0
100
AcDbCircle
10
-41.274999999999977
20
-107.25869187052407
30
0
40
1.1938000000000137
210
0
220
-0
230
1
0
LWPOLYLINE
5
110
100
AcDbEntity
8
0
100
AcDbPolyline
90
4
70
1
43
0.0
10
-18.968135019812308
20
-68.902288652954525
42
0.052535875976029461
10
18.968135013588238
20
-68.902288653566927
42
-1.0000012610872202
10
22.011585025586697
20
-97.788138671742416
42
-0.05253578001703145
10
-22.011578123162625
20
-97.788139398936679
42
-1.0000014998272417
0
CIRCLE
5
111
100
AcDbEntity
8
0
100
AcDbCircle
10
41.27500000000002
20
-107.25869187052407
30
0
40
1.1938000000000137
210
0
220
-0
230
1
0
LWPOLYLINE
5
112
100
AcDbEntity
8
0
100
AcDbPolyline
90
4
70
1
43
0.0
10
-61.912500000000385
20
131.93882488710648
10
-61.912500000000144
20
-131.93882488710648
42
0.12535715910185102
10
61.912500000000257
20
-131.93882488710665
10
61.912500000000136
20
131.93882488710648
42
0.12535715910185324
0
LWPOLYLINE
5
113
100
AcDbEntity
8
0
100
AcDbPolyline
90
8
70
1
43
0.0
10
20.08304738076102
20
-75.323190900302521
42
0.42589302519857847
10
16.625550975861554
20
-72.321961249695121
42
-0.04522165872194895
10
-16.625550975861458
20
-72.321961249695093
42
0.42589302519857647
10
-20.083047380760863
20
-75.323190900302521
10
-20.911546186309927
20
-91.659795275948284
42
0.40355619044693808
10
-18.01711156279913
20
-94.983544597177314
42
0.043624642208377425
10
18.017111562799442
20
-94.9835445971773
42
0.40355619044693963
10
20.911546186310094
20
-91.659795275948284
0
LWPOLYLINE
5
114
100
AcDbEntity
8
0
100
AcDbPolyline
90
4
70
1
43
0.0
10
-18.968135019812308
20
-68.902288652954525
42
0.052535875976029461
10
18.968135013588181
20
-68.902288653566956
42
-1.0000012610872202
10
22.011585025586932
20
-97.788138671742416
42
-0.052535780017675712
10
-22.011578124231757
20
-97.788139398824043
42
-1.0000014997902293
0
ENDSEC
0
SECTION
2
OBJECTS
0
DICTIONARY
5
C
100
AcDbDictionary
3
ACAD_GROUP
350
D
3
ACAD_MLINESTYLE
350
17
0
DICTIONARY
5
D
100
AcDbDictionary
0
DICTIONARY
5
1A
330
C
100
AcDbDictionary
0
DICTIONARY
5
17
100
AcDbDictionary
0
ENDSEC
0
EOF
