999
Inkscape export via "Better DXF Output" (bob@bobcookdev.com)
  0
SECTION
  2
HEADER
  9
$ACADVER
  1
AC1014
  9
$HANDSEED
  5
FFFF
  0
ENDSEC
  0
SECTION
  2
TABLES
  0
TABLE
  2
VPORT
  5
8
330
0
100
AcDbSymbolTable
 70
     4
  0
VPORT
  5
2E
330
8
100
AcDbSymbolTableRecord
100
AcDbViewportTableRecord
  2
*ACTIVE
 70
     0
 10
0.0
 20
0.0
 11
1.0
 21
1.0
 12
4.25
 22
5.5
 13
0.0
 23
0.0
 14
10.0
 24
10.0
 15
10.0
 25
10.0
 16
0.0
 26
0.0
 36
1.0
 17
0.0
 27
0.0
 37
0.0
 40
11
 41
1.24
 42
50.0
 43
0.0
 44
0.0
 50
0.0
 51
0.0
 71
     0
 72
   100
 73
     1
 74
     3
 75
     0
 76
     0
 77
     0
 78
     0
  0
ENDTAB
  0
TABLE
  2
LTYPE
  5
5
330
0
100
AcDbSymbolTable
 70
     1
  0
LTYPE
  5
14
330
5
100
AcDbSymbolTableRecord
100
AcDbLinetypeTableRecord
  2
BYBLOCK
 70
     0
  3

 72
    65
 73
     0
 40
0.0
  0
LTYPE
  5
15
330
5
100
AcDbSymbolTableRecord
100
AcDbLinetypeTableRecord
  2
BYLAYER
 70
     0
  3

 72
    65
 73
     0
 40
0.0
  0
LTYPE
  5
16
330
5
100
AcDbSymbolTableRecord
100
AcDbLinetypeTableRecord
  2
CONTINUOUS
 70
     0
  3
Solid line
 72
    65
 73
     0
 40
0.0
  0
ENDTAB
  0
TABLE
  2
LAYER
  5
2
330
0
100
AcDbSymbolTable
 70
1
  0
LAYER
  5
10
330
2
100
AcDbSymbolTableRecord
100
AcDbLayerTableRecord
  2
0
 70
     0
 62
     7
  6
CONTINUOUS
  0
ENDTAB
  0
TABLE
  2
STYLE
  5
3
330
0
100
AcDbSymbolTable
 70
     1
  0
STYLE
  5
11
330
3
100
AcDbSymbolTableRecord
100
AcDbTextStyleTableRecord
  2
STANDARD
 70
     0
 40
0.0
 41
1.0
 50
0.0
 71
     0
 42
2.5
  3
txt
  4

  0
ENDTAB
  0
TABLE
  2
VIEW
  5
6
330
0
100
AcDbSymbolTable
 70
     0
  0
ENDTAB
  0
TABLE
  2
UCS
  5
7
330
0
100
AcDbSymbolTable
 70
     0
  0
ENDTAB
  0
TABLE
  2
APPID
  5
9
330
0
100
AcDbSymbolTable
 70
     2
  0
APPID
  5
12
330
9
100
AcDbSymbolTableRecord
100
AcDbRegAppTableRecord
  2
ACAD
 70
     0
  0
ENDTAB
  0
TABLE
  2
DIMSTYLE
  5
A
330
0
100
AcDbSymbolTable
 70
     1
  0
DIMSTYLE
105
27
330
A
100
AcDbSymbolTableRecord
100
AcDbDimStyleTableRecord
  2
ISO-25
 70
     0
  3

  4

  5

  6

  7

 40
1.0
 41
2.5
 42
0.625
 43
3.75
 44
1.25
 45
0.0
 46
0.0
 47
0.0
 48
0.0
140
2.5
141
2.5
142
0.0
143
0.03937007874016
144
1.0
145
0.0
146
1.0
147
0.625
 71
     0
 72
     0
 73
     0
 74
     0
 75
     0
 76
     0
 77
     1
 78
     8
170
     0
171
     3
172
     1
173
     0
174
     0
175
     0
176
     0
177
     0
178
     0
270
     2
271
     2
272
     2
273
     2
274
     3
340
11
275
     0
280
     0
281
     0
282
     0
283
     0
284
     8
285
     0
286
     0
287
     3
288
     0
  0
ENDTAB
  0
TABLE
  2
BLOCK_RECORD
  5
1
330
0
100
AcDbSymbolTable
 70
     1
  0
BLOCK_RECORD
  5
1F
330
1
100
AcDbSymbolTableRecord
100
AcDbBlockTableRecord
  2
*MODEL_SPACE
  0
BLOCK_RECORD
  5
1B
330
1
100
AcDbSymbolTableRecord
100
AcDbBlockTableRecord
  2
*PAPER_SPACE
  0
ENDTAB
  0
ENDSEC
  0
SECTION
  2
BLOCKS
  0
BLOCK
  5
20
330
1F
100
AcDbEntity
  8
0
100
AcDbBlockBegin
  2
*MODEL_SPACE
 70
     0
 10
0.0
 20
0.0
 30
0.0
  3
*MODEL_SPACE
  1

  0
ENDBLK
  5
21
330
1F
100
AcDbEntity
  8
0
100
AcDbBlockEnd
  0
BLOCK
  5
1C
330
1B
100
AcDbEntity
 67
     1
  8
0
100
AcDbBlockBegin
  2
*PAPER_SPACE
  1

  0
ENDBLK
  5
1D
330
1B
100
AcDbEntity
 67
     1
  8
0
100
AcDbBlockEnd
  0
ENDSEC
  0
SECTION
  2
ENTITIES
0
LINE
8
Layer 1
62
4
5
100
100
AcDbEntity
100
AcDbLine
10
138.356478
20
-179.435920
30
0.0
11
98.466131
21
-187.152934
31
0.0
0
LINE
8
Layer 1
62
4
5
101
100
AcDbEntity
100
AcDbLine
10
98.466131
20
-187.152934
30
0.0
11
99.452433
21
-186.796681
31
0.0
0
LINE
8
Layer 1
62
4
5
102
100
AcDbEntity
100
AcDbLine
10
99.452433
20
-186.796681
30
0.0
11
100.258466
21
-186.338581
31
0.0
0
LINE
8
Layer 1
62
4
5
103
100
AcDbEntity
100
AcDbLine
10
100.258466
20
-186.338581
30
0.0
11
100.893830
21
-185.796855
31
0.0
0
LINE
8
Layer 1
62
4
5
104
100
AcDbEntity
100
AcDbLine
10
100.893830
20
-185.796855
30
0.0
11
101.368123
21
-185.189727
31
0.0
0
LINE
8
Layer 1
62
4
5
105
100
AcDbEntity
100
AcDbLine
10
101.368123
20
-185.189727
30
0.0
11
101.871889
21
-183.852156
31
0.0
0
LINE
8
Layer 1
62
4
5
106
100
AcDbEntity
100
AcDbLine
10
101.871889
20
-183.852156
30
0.0
11
101.846549
21
-182.471649
31
0.0
0
LINE
8
Layer 1
62
4
5
107
100
AcDbEntity
100
AcDbLine
10
101.846549
20
-182.471649
30
0.0
11
101.368892
21
-181.193989
31
0.0
0
LINE
8
Layer 1
62
4
5
108
100
AcDbEntity
100
AcDbLine
10
101.368892
20
-181.193989
30
0.0
11
100.515704
21
-180.164959
31
0.0
0
LINE
8
Layer 1
62
4
5
109
100
AcDbEntity
100
AcDbLine
10
100.515704
20
-180.164959
30
0.0
11
99.363771
21
-179.530342
31
0.0
0
LINE
8
Layer 1
62
4
5
10a
100
AcDbEntity
100
AcDbLine
10
99.363771
20
-179.530342
30
0.0
11
98.699772
21
-179.406495
31
0.0
0
LINE
8
Layer 1
62
4
5
10b
100
AcDbEntity
100
AcDbLine
10
98.699772
20
-179.406495
30
0.0
11
97.989881
21
-179.435920
31
0.0
0
LINE
8
Layer 1
62
4
5
10c
100
AcDbEntity
100
AcDbLine
10
97.989881
20
-179.435920
30
0.0
11
67.977312
21
-185.221475
31
0.0
0
LINE
8
Layer 1
62
4
5
10d
100
AcDbEntity
100
AcDbLine
10
67.977312
20
-185.221475
30
0.0
11
51.220367
21
-184.983350
31
0.0
0
LINE
8
Layer 1
62
4
5
10e
100
AcDbEntity
100
AcDbLine
10
51.220367
20
-184.983350
30
0.0
11
51.220367
21
-191.730225
31
0.0
0
LINE
8
Layer 1
62
4
5
10f
100
AcDbEntity
100
AcDbLine
10
51.220367
20
-191.730225
30
0.0
11
68.577034
21
-191.730225
31
0.0
0
LINE
8
Layer 1
62
4
5
110
100
AcDbEntity
100
AcDbLine
10
68.577034
20
-191.730225
30
0.0
11
71.222685
21
-191.601105
31
0.0
0
LINE
8
Layer 1
62
4
5
111
100
AcDbEntity
100
AcDbLine
10
71.222685
20
-191.601105
30
0.0
11
73.849321
21
-191.326954
31
0.0
0
LINE
8
Layer 1
62
4
5
112
100
AcDbEntity
100
AcDbLine
10
73.849321
20
-191.326954
30
0.0
11
79.009350
21
-190.638738
31
0.0
0
LINE
8
Layer 1
62
4
5
113
100
AcDbEntity
100
AcDbLine
10
79.009350
20
-190.638738
30
0.0
11
81.524640
21
-190.372263
31
0.0
0
LINE
8
Layer 1
62
4
5
114
100
AcDbEntity
100
AcDbLine
10
81.524640
20
-190.372263
30
0.0
11
83.984713
21
-190.255935
31
0.0
0
LINE
8
Layer 1
62
4
5
115
100
AcDbEntity
100
AcDbLine
10
83.984713
20
-190.255935
30
0.0
11
86.380519
21
-190.363552
31
0.0
0
LINE
8
Layer 1
62
4
5
116
100
AcDbEntity
100
AcDbLine
10
86.380519
20
-190.363552
30
0.0
11
88.703006
21
-190.768906
31
0.0
0
LINE
8
Layer 1
62
4
5
117
100
AcDbEntity
100
AcDbLine
10
88.703006
20
-190.768906
30
0.0
11
116.669464
21
-196.069392
31
0.0
0
LINE
8
Layer 1
62
4
5
118
100
AcDbEntity
100
AcDbLine
10
116.669464
20
-196.069392
30
0.0
11
117.776617
21
-196.175347
31
0.0
0
LINE
8
Layer 1
62
4
5
119
100
AcDbEntity
100
AcDbLine
10
117.776617
20
-196.175347
30
0.0
11
118.738228
21
-196.093484
31
0.0
0
LINE
8
Layer 1
62
4
5
11a
100
AcDbEntity
100
AcDbLine
10
118.738228
20
-196.093484
30
0.0
11
119.557473
21
-195.846733
31
0.0
0
LINE
8
Layer 1
62
4
5
11b
100
AcDbEntity
100
AcDbLine
10
119.557473
20
-195.846733
30
0.0
11
120.237525
21
-195.458024
31
0.0
0
LINE
8
Layer 1
62
4
5
11c
100
AcDbEntity
100
AcDbLine
10
120.237525
20
-195.458024
30
0.0
11
120.781558
21
-194.950286
31
0.0
0
LINE
8
Layer 1
62
4
5
11d
100
AcDbEntity
100
AcDbLine
10
120.781558
20
-194.950286
30
0.0
11
121.192747
21
-194.346448
31
0.0
0
LINE
8
Layer 1
62
4
5
11e
100
AcDbEntity
100
AcDbLine
10
121.192747
20
-194.346448
30
0.0
11
121.629287
21
-192.942195
31
0.0
0
LINE
8
Layer 1
62
4
5
11f
100
AcDbEntity
100
AcDbLine
10
121.629287
20
-192.942195
30
0.0
11
121.572539
21
-191.428703
31
0.0
0
LINE
8
Layer 1
62
4
5
120
100
AcDbEntity
100
AcDbLine
10
121.572539
20
-191.428703
30
0.0
11
121.047894
21
-189.989410
31
0.0
0
LINE
8
Layer 1
62
4
5
121
100
AcDbEntity
100
AcDbLine
10
121.047894
20
-189.989410
30
0.0
11
120.080745
21
-188.807753
31
0.0
0
LINE
8
Layer 1
62
4
5
122
100
AcDbEntity
100
AcDbLine
10
120.080745
20
-188.807753
30
0.0
11
119.439167
21
-188.370862
31
0.0
0
LINE
8
Layer 1
62
4
5
123
100
AcDbEntity
100
AcDbLine
10
119.439167
20
-188.370862
30
0.0
11
118.696486
21
-188.067170
31
0.0
0
LINE
8
Layer 1
62
4
5
124
100
AcDbEntity
100
AcDbLine
10
118.696486
20
-188.067170
30
0.0
11
158.276699
21
-195.913492
31
0.0
0
LINE
8
Layer 1
62
4
5
125
100
AcDbEntity
100
AcDbLine
10
158.276699
20
-195.913492
30
0.0
11
159.236833
21
-195.979844
31
0.0
0
LINE
8
Layer 1
62
4
5
126
100
AcDbEntity
100
AcDbLine
10
159.236833
20
-195.979844
30
0.0
11
160.094703
21
-195.867306
31
0.0
0
LINE
8
Layer 1
62
4
5
127
100
AcDbEntity
100
AcDbLine
10
160.094703
20
-195.867306
30
0.0
11
160.847263
21
-195.598220
31
0.0
0
LINE
8
Layer 1
62
4
5
128
100
AcDbEntity
100
AcDbLine
10
160.847263
20
-195.598220
30
0.0
11
161.491468
21
-195.194929
31
0.0
0
LINE
8
Layer 1
62
4
5
129
100
AcDbEntity
100
AcDbLine
10
161.491468
20
-195.194929
30
0.0
11
162.442624
21
-194.075100
31
0.0
0
LINE
8
Layer 1
62
4
5
12a
100
AcDbEntity
100
AcDbLine
10
162.442624
20
-194.075100
30
0.0
11
162.923802
21
-192.686560
31
0.0
0
LINE
8
Layer 1
62
4
5
12b
100
AcDbEntity
100
AcDbLine
10
162.923802
20
-192.686560
30
0.0
11
162.910634
21
-191.208049
31
0.0
0
LINE
8
Layer 1
62
4
5
12c
100
AcDbEntity
100
AcDbLine
10
162.910634
20
-191.208049
30
0.0
11
162.378749
21
-189.818307
31
0.0
0
LINE
8
Layer 1
62
4
5
12d
100
AcDbEntity
100
AcDbLine
10
162.378749
20
-189.818307
30
0.0
11
161.910672
21
-189.212581
31
0.0
0
LINE
8
Layer 1
62
4
5
12e
100
AcDbEntity
100
AcDbLine
10
161.910672
20
-189.212581
30
0.0
11
161.303778
21
-188.696074
31
0.0
0
LINE
8
Layer 1
62
4
5
12f
100
AcDbEntity
100
AcDbLine
10
161.303778
20
-188.696074
30
0.0
11
160.555020
21
-188.291129
31
0.0
0
LINE
8
Layer 1
62
4
5
130
100
AcDbEntity
100
AcDbLine
10
160.555020
20
-188.291129
30
0.0
11
159.661352
21
-188.020090
31
0.0
0
LINE
8
Layer 1
62
4
5
131
100
AcDbEntity
100
AcDbLine
10
159.661352
20
-188.020090
30
0.0
11
199.137185
21
-195.913492
31
0.0
0
LINE
8
Layer 1
62
4
5
132
100
AcDbEntity
100
AcDbLine
10
199.137185
20
-195.913492
30
0.0
11
199.966072
21
-196.051034
31
0.0
0
LINE
8
Layer 1
62
4
5
133
100
AcDbEntity
100
AcDbLine
10
199.966072
20
-196.051034
30
0.0
11
200.729519
21
-196.023602
31
0.0
0
LINE
8
Layer 1
62
4
5
134
100
AcDbEntity
100
AcDbLine
10
200.729519
20
-196.023602
30
0.0
11
201.420451
21
-195.848854
31
0.0
0
LINE
8
Layer 1
62
4
5
135
100
AcDbEntity
100
AcDbLine
10
201.420451
20
-195.848854
30
0.0
11
202.031789
21
-195.544445
31
0.0
0
LINE
8
Layer 1
62
4
5
136
100
AcDbEntity
100
AcDbLine
10
202.031789
20
-195.544445
30
0.0
11
202.987379
21
-194.617279
31
0.0
0
LINE
8
Layer 1
62
4
5
137
100
AcDbEntity
100
AcDbLine
10
202.987379
20
-194.617279
30
0.0
11
203.539672
21
-193.383360
31
0.0
0
LINE
8
Layer 1
62
4
5
138
100
AcDbEntity
100
AcDbLine
10
203.539672
20
-193.383360
30
0.0
11
203.632055
21
-191.983945
31
0.0
0
LINE
8
Layer 1
62
4
5
139
100
AcDbEntity
100
AcDbLine
10
203.632055
20
-191.983945
30
0.0
11
203.207910
21
-190.560292
31
0.0
0
LINE
8
Layer 1
62
4
5
13a
100
AcDbEntity
100
AcDbLine
10
203.207910
20
-190.560292
30
0.0
11
202.784447
21
-189.883518
31
0.0
0
LINE
8
Layer 1
62
4
5
13b
100
AcDbEntity
100
AcDbLine
10
202.784447
20
-189.883518
30
0.0
11
202.210621
21
-189.253657
31
0.0
0
LINE
8
Layer 1
62
4
5
13c
100
AcDbEntity
100
AcDbLine
10
202.210621
20
-189.253657
30
0.0
11
201.479356
21
-188.688364
31
0.0
0
LINE
8
Layer 1
62
4
5
13d
100
AcDbEntity
100
AcDbLine
10
201.479356
20
-188.688364
30
0.0
11
200.583574
21
-188.205298
31
0.0
0
LINE
8
Layer 1
62
4
5
13e
100
AcDbEntity
100
AcDbLine
10
200.583574
20
-188.205298
30
0.0
11
204.698475
21
-188.493378
31
0.0
0
LINE
8
Layer 1
62
4
5
13f
100
AcDbEntity
100
AcDbLine
10
204.698475
20
-188.493378
30
0.0
11
208.860802
21
-188.933156
31
0.0
0
LINE
8
Layer 1
62
4
5
140
100
AcDbEntity
100
AcDbLine
10
208.860802
20
-188.933156
30
0.0
11
217.076293
21
-190.040441
31
0.0
0
LINE
8
Layer 1
62
4
5
141
100
AcDbEntity
100
AcDbLine
10
217.076293
20
-190.040441
30
0.0
11
224.727161
21
-191.072411
31
0.0
0
LINE
8
Layer 1
62
4
5
142
100
AcDbEntity
100
AcDbLine
10
224.727161
20
-191.072411
30
0.0
11
228.183709
21
-191.418047
31
0.0
0
LINE
8
Layer 1
62
4
5
143
100
AcDbEntity
100
AcDbLine
10
228.183709
20
-191.418047
30
0.0
11
231.310519
21
-191.574326
31
0.0
0
LINE
8
Layer 1
62
4
5
144
100
AcDbEntity
100
AcDbLine
10
231.310519
20
-191.574326
30
0.0
11
248.914144
21
-191.574326
31
0.0
0
LINE
8
Layer 1
62
4
5
145
100
AcDbEntity
100
AcDbLine
10
248.914144
20
-191.574326
30
0.0
11
248.790643
21
-184.465854
31
0.0
0
LINE
8
Layer 1
62
4
5
146
100
AcDbEntity
100
AcDbLine
10
248.790643
20
-184.465854
30
0.0
11
230.710796
21
-184.703979
31
0.0
0
LINE
8
Layer 1
62
4
5
147
100
AcDbEntity
100
AcDbLine
10
230.710796
20
-184.703979
30
0.0
11
228.489370
21
-184.453132
31
0.0
0
LINE
8
Layer 1
62
4
5
148
100
AcDbEntity
100
AcDbLine
10
228.489370
20
-184.453132
30
0.0
11
226.837347
21
-183.805083
31
0.0
0
LINE
8
Layer 1
62
4
5
149
100
AcDbEntity
100
AcDbLine
10
226.837347
20
-183.805083
30
0.0
11
225.617757
21
-182.891900
31
0.0
0
LINE
8
Layer 1
62
4
5
14a
100
AcDbEntity
100
AcDbLine
10
225.617757
20
-182.891900
30
0.0
11
224.693626
21
-181.845651
31
0.0
0
LINE
8
Layer 1
62
4
5
14b
100
AcDbEntity
100
AcDbLine
10
224.693626
20
-181.845651
30
0.0
11
223.183855
21
-179.882222
31
0.0
0
LINE
8
Layer 1
62
4
5
14c
100
AcDbEntity
100
AcDbLine
10
223.183855
20
-179.882222
30
0.0
11
222.324270
21
-179.229179
31
0.0
0
LINE
8
Layer 1
62
4
5
14d
100
AcDbEntity
100
AcDbLine
10
222.324270
20
-179.229179
30
0.0
11
221.212255
21
-178.971340
31
0.0
0
LINE
8
Layer 1
62
4
5
14e
100
AcDbEntity
100
AcDbLine
10
221.212255
20
-178.971340
30
0.0
11
220.462602
21
-179.041895
31
0.0
0
LINE
8
Layer 1
62
4
5
14f
100
AcDbEntity
100
AcDbLine
10
220.462602
20
-179.041895
30
0.0
11
180.210658
21
-186.997034
31
0.0
0
LINE
8
Layer 1
62
4
5
150
100
AcDbEntity
100
AcDbLine
10
180.210658
20
-186.997034
30
0.0
11
181.289666
21
-186.524891
31
0.0
0
LINE
8
Layer 1
62
4
5
151
100
AcDbEntity
100
AcDbLine
10
181.289666
20
-186.524891
30
0.0
11
182.148913
21
-185.973948
31
0.0
0
LINE
8
Layer 1
62
4
5
152
100
AcDbEntity
100
AcDbLine
10
182.148913
20
-185.973948
30
0.0
11
182.803370
21
-185.360593
31
0.0
0
LINE
8
Layer 1
62
4
5
153
100
AcDbEntity
100
AcDbLine
10
182.803370
20
-185.360593
30
0.0
11
183.268010
21
-184.701220
31
0.0
0
LINE
8
Layer 1
62
4
5
154
100
AcDbEntity
100
AcDbLine
10
183.268010
20
-184.701220
30
0.0
11
183.557803
21
-184.012217
31
0.0
0
LINE
8
Layer 1
62
4
5
155
100
AcDbEntity
100
AcDbLine
10
183.557803
20
-184.012217
30
0.0
11
183.687721
21
-183.309975
31
0.0
0
LINE
8
Layer 1
62
4
5
156
100
AcDbEntity
100
AcDbLine
10
183.687721
20
-183.309975
30
0.0
11
183.527816
21
-181.931339
31
0.0
0
LINE
8
Layer 1
62
4
5
157
100
AcDbEntity
100
AcDbLine
10
183.527816
20
-181.931339
30
0.0
11
182.908067
21
-180.696435
31
0.0
0
LINE
8
Layer 1
62
4
5
158
100
AcDbEntity
100
AcDbLine
10
182.908067
20
-180.696435
30
0.0
11
181.948245
21
-179.736389
31
0.0
0
LINE
8
Layer 1
62
4
5
159
100
AcDbEntity
100
AcDbLine
10
181.948245
20
-179.736389
30
0.0
11
180.768120
21
-179.182324
31
0.0
0
LINE
8
Layer 1
62
4
5
15a
100
AcDbEntity
100
AcDbLine
10
180.768120
20
-179.182324
30
0.0
11
180.132872
21
-179.098512
31
0.0
0
LINE
8
Layer 1
62
4
5
15b
100
AcDbEntity
100
AcDbLine
10
180.132872
20
-179.098512
30
0.0
11
179.487463
21
-179.165367
31
0.0
0
LINE
8
Layer 1
62
4
5
15c
100
AcDbEntity
100
AcDbLine
10
179.487463
20
-179.165367
30
0.0
11
139.219333
21
-187.136720
31
0.0
0
LINE
8
Layer 1
62
4
5
15d
100
AcDbEntity
100
AcDbLine
10
139.219333
20
-187.136720
30
0.0
11
140.112062
21
-186.805153
31
0.0
0
LINE
8
Layer 1
62
4
5
15e
100
AcDbEntity
100
AcDbLine
10
140.112062
20
-186.805153
30
0.0
11
140.854704
21
-186.370102
31
0.0
0
LINE
8
Layer 1
62
4
5
15f
100
AcDbEntity
100
AcDbLine
10
140.854704
20
-186.370102
30
0.0
11
141.452373
21
-185.849465
31
0.0
0
LINE
8
Layer 1
62
4
5
160
100
AcDbEntity
100
AcDbLine
10
141.452373
20
-185.849465
30
0.0
11
141.910182
21
-185.261138
31
0.0
0
LINE
8
Layer 1
62
4
5
161
100
AcDbEntity
100
AcDbLine
10
141.910182
20
-185.261138
30
0.0
11
142.426681
21
-183.953004
31
0.0
0
LINE
8
Layer 1
62
4
5
162
100
AcDbEntity
100
AcDbLine
10
142.426681
20
-183.953004
30
0.0
11
142.445114
21
-182.588874
31
0.0
0
LINE
8
Layer 1
62
4
5
163
100
AcDbEntity
100
AcDbLine
10
142.445114
20
-182.588874
30
0.0
11
142.006397
21
-181.311925
31
0.0
0
LINE
8
Layer 1
62
4
5
164
100
AcDbEntity
100
AcDbLine
10
142.006397
20
-181.311925
30
0.0
11
141.151442
21
-180.265333
31
0.0
0
LINE
8
Layer 1
62
4
5
165
100
AcDbEntity
100
AcDbLine
10
141.151442
20
-180.265333
30
0.0
11
139.921165
21
-179.592272
31
0.0
0
LINE
8
Layer 1
62
4
5
166
100
AcDbEntity
100
AcDbLine
10
139.921165
20
-179.592272
30
0.0
11
139.178065
21
-179.440559
31
0.0
0
LINE
8
Layer 1
62
4
5
167
100
AcDbEntity
100
AcDbLine
10
139.178065
20
-179.440559
30
0.0
11
138.356478
21
-179.435920
31
0.0
0
LINE
8
Layer 1
62
4
5
168
100
AcDbEntity
100
AcDbLine
10
138.356478
20
-179.435920
30
0.0
11
138.356478
21
-179.435920
31
0.0
0
LINE
8
Layer 1
62
4
5
169
100
AcDbEntity
100
AcDbLine
10
97.707659
20
-182.020017
30
0.0
11
98.327514
21
-182.107979
31
0.0
0
LINE
8
Layer 1
62
4
5
16a
100
AcDbEntity
100
AcDbLine
10
98.327514
20
-182.107979
30
0.0
11
98.775580
21
-182.347885
31
0.0
0
LINE
8
Layer 1
62
4
5
16b
100
AcDbEntity
100
AcDbLine
10
98.775580
20
-182.347885
30
0.0
11
99.046522
21
-182.696083
31
0.0
0
LINE
8
Layer 1
62
4
5
16c
100
AcDbEntity
100
AcDbLine
10
99.046522
20
-182.696083
30
0.0
11
99.135008
21
-183.108917
31
0.0
0
LINE
8
Layer 1
62
4
5
16d
100
AcDbEntity
100
AcDbLine
10
99.135008
20
-183.108917
30
0.0
11
99.035705
21
-183.542735
31
0.0
0
LINE
8
Layer 1
62
4
5
16e
100
AcDbEntity
100
AcDbLine
10
99.035705
20
-183.542735
30
0.0
11
98.743280
21
-183.953884
31
0.0
0
LINE
8
Layer 1
62
4
5
16f
100
AcDbEntity
100
AcDbLine
10
98.743280
20
-183.953884
30
0.0
11
98.252398
21
-184.298710
31
0.0
0
LINE
8
Layer 1
62
4
5
170
100
AcDbEntity
100
AcDbLine
10
98.252398
20
-184.298710
30
0.0
11
97.557728
21
-184.533559
31
0.0
0
LINE
8
Layer 1
62
4
5
171
100
AcDbEntity
100
AcDbLine
10
97.557728
20
-184.533559
30
0.0
11
87.935714
21
-186.447378
31
0.0
0
LINE
8
Layer 1
62
4
5
172
100
AcDbEntity
100
AcDbLine
10
87.935714
20
-186.447378
30
0.0
11
81.867937
21
-185.071545
31
0.0
0
LINE
8
Layer 1
62
4
5
173
100
AcDbEntity
100
AcDbLine
10
81.867937
20
-185.071545
30
0.0
11
97.072659
21
-182.090573
31
0.0
0
LINE
8
Layer 1
62
4
5
174
100
AcDbEntity
100
AcDbLine
10
97.072659
20
-182.090573
30
0.0
11
97.707659
21
-182.020017
31
0.0
0
LINE
8
Layer 1
62
4
5
175
100
AcDbEntity
100
AcDbLine
10
97.707659
20
-182.020017
30
0.0
11
97.707659
21
-182.020017
31
0.0
0
LINE
8
Layer 1
62
4
5
176
100
AcDbEntity
100
AcDbLine
10
138.453492
20
-182.020017
30
0.0
11
139.072969
21
-182.107979
31
0.0
0
LINE
8
Layer 1
62
4
5
177
100
AcDbEntity
100
AcDbLine
10
139.072969
20
-182.107979
30
0.0
11
139.520035
21
-182.347885
31
0.0
0
LINE
8
Layer 1
62
4
5
178
100
AcDbEntity
100
AcDbLine
10
139.520035
20
-182.347885
30
0.0
11
139.789565
21
-182.696083
31
0.0
0
LINE
8
Layer 1
62
4
5
179
100
AcDbEntity
100
AcDbLine
10
139.789565
20
-182.696083
30
0.0
11
139.876432
21
-183.108917
31
0.0
0
LINE
8
Layer 1
62
4
5
17a
100
AcDbEntity
100
AcDbLine
10
139.876432
20
-183.108917
30
0.0
11
139.775510
21
-183.542735
31
0.0
0
LINE
8
Layer 1
62
4
5
17b
100
AcDbEntity
100
AcDbLine
10
139.775510
20
-183.542735
30
0.0
11
139.481671
21
-183.953884
31
0.0
0
LINE
8
Layer 1
62
4
5
17c
100
AcDbEntity
100
AcDbLine
10
139.481671
20
-183.953884
30
0.0
11
138.989791
21
-184.298710
31
0.0
0
LINE
8
Layer 1
62
4
5
17d
100
AcDbEntity
100
AcDbLine
10
138.989791
20
-184.298710
30
0.0
11
138.294742
21
-184.533559
31
0.0
0
LINE
8
Layer 1
62
4
5
17e
100
AcDbEntity
100
AcDbLine
10
138.294742
20
-184.533559
30
0.0
11
130.251409
21
-186.235711
31
0.0
0
LINE
8
Layer 1
62
4
5
17f
100
AcDbEntity
100
AcDbLine
10
130.251409
20
-186.235711
30
0.0
11
123.345784
21
-184.754045
31
0.0
0
LINE
8
Layer 1
62
4
5
180
100
AcDbEntity
100
AcDbLine
10
123.345784
20
-184.754045
30
0.0
11
137.809673
21
-182.090573
31
0.0
0
LINE
8
Layer 1
62
4
5
181
100
AcDbEntity
100
AcDbLine
10
137.809673
20
-182.090573
30
0.0
11
138.453492
21
-182.020017
31
0.0
0
LINE
8
Layer 1
62
4
5
182
100
AcDbEntity
100
AcDbLine
10
138.453492
20
-182.020017
30
0.0
11
138.453492
21
-182.020017
31
0.0
0
LINE
8
Layer 1
62
4
5
183
100
AcDbEntity
100
AcDbLine
10
179.778505
20
-182.155159
30
0.0
11
180.398360
21
-182.243121
31
0.0
0
LINE
8
Layer 1
62
4
5
184
100
AcDbEntity
100
AcDbLine
10
180.398360
20
-182.243121
30
0.0
11
180.846426
21
-182.483028
31
0.0
0
LINE
8
Layer 1
62
4
5
185
100
AcDbEntity
100
AcDbLine
10
180.846426
20
-182.483028
30
0.0
11
181.117368
21
-182.831225
31
0.0
0
LINE
8
Layer 1
62
4
5
186
100
AcDbEntity
100
AcDbLine
10
181.117368
20
-182.831225
30
0.0
11
181.205854
21
-183.244059
31
0.0
0
LINE
8
Layer 1
62
4
5
187
100
AcDbEntity
100
AcDbLine
10
181.205854
20
-183.244059
30
0.0
11
181.106551
21
-183.677877
31
0.0
0
LINE
8
Layer 1
62
4
5
188
100
AcDbEntity
100
AcDbLine
10
181.106551
20
-183.677877
30
0.0
11
180.814125
21
-184.089026
31
0.0
0
LINE
8
Layer 1
62
4
5
189
100
AcDbEntity
100
AcDbLine
10
180.814125
20
-184.089026
30
0.0
11
180.323244
21
-184.433852
31
0.0
0
LINE
8
Layer 1
62
4
5
18a
100
AcDbEntity
100
AcDbLine
10
180.323244
20
-184.433852
30
0.0
11
179.628574
21
-184.668701
31
0.0
0
LINE
8
Layer 1
62
4
5
18b
100
AcDbEntity
100
AcDbLine
10
179.628574
20
-184.668701
30
0.0
11
171.585241
21
-186.370854
31
0.0
0
LINE
8
Layer 1
62
4
5
18c
100
AcDbEntity
100
AcDbLine
10
171.585241
20
-186.370854
30
0.0
11
165.305796
21
-184.792173
31
0.0
0
LINE
8
Layer 1
62
4
5
18d
100
AcDbEntity
100
AcDbLine
10
165.305796
20
-184.792173
30
0.0
11
179.143505
21
-182.225715
31
0.0
0
LINE
8
Layer 1
62
4
5
18e
100
AcDbEntity
100
AcDbLine
10
179.143505
20
-182.225715
30
0.0
11
179.778505
21
-182.155159
31
0.0
0
LINE
8
Layer 1
62
4
5
18f
100
AcDbEntity
100
AcDbLine
10
179.778505
20
-182.155159
30
0.0
11
179.778505
21
-182.155159
31
0.0
0
LINE
8
Layer 1
62
4
5
190
100
AcDbEntity
100
AcDbLine
10
220.497880
20
-182.155159
30
0.0
11
221.117735
21
-182.243121
31
0.0
0
LINE
8
Layer 1
62
4
5
191
100
AcDbEntity
100
AcDbLine
10
221.117735
20
-182.243121
30
0.0
11
221.565801
21
-182.483028
31
0.0
0
LINE
8
Layer 1
62
4
5
192
100
AcDbEntity
100
AcDbLine
10
221.565801
20
-182.483028
30
0.0
11
221.836743
21
-182.831225
31
0.0
0
LINE
8
Layer 1
62
4
5
193
100
AcDbEntity
100
AcDbLine
10
221.836743
20
-182.831225
30
0.0
11
221.925229
21
-183.244059
31
0.0
0
LINE
8
Layer 1
62
4
5
194
100
AcDbEntity
100
AcDbLine
10
221.925229
20
-183.244059
30
0.0
11
221.825926
21
-183.677877
31
0.0
0
LINE
8
Layer 1
62
4
5
195
100
AcDbEntity
100
AcDbLine
10
221.825926
20
-183.677877
30
0.0
11
221.533500
21
-184.089026
31
0.0
0
LINE
8
Layer 1
62
4
5
196
100
AcDbEntity
100
AcDbLine
10
221.533500
20
-184.089026
30
0.0
11
221.042619
21
-184.433852
31
0.0
0
LINE
8
Layer 1
62
4
5
197
100
AcDbEntity
100
AcDbLine
10
221.042619
20
-184.433852
30
0.0
11
220.347949
21
-184.668701
31
0.0
0
LINE
8
Layer 1
62
4
5
198
100
AcDbEntity
100
AcDbLine
10
220.347949
20
-184.668701
30
0.0
11
212.304616
21
-186.370854
31
0.0
0
LINE
8
Layer 1
62
4
5
199
100
AcDbEntity
100
AcDbLine
10
212.304616
20
-186.370854
30
0.0
11
202.550310
21
-185.206687
31
0.0
0
LINE
8
Layer 1
62
4
5
19a
100
AcDbEntity
100
AcDbLine
10
202.550310
20
-185.206687
30
0.0
11
219.862880
21
-182.225715
31
0.0
0
LINE
8
Layer 1
62
4
5
19b
100
AcDbEntity
100
AcDbLine
10
219.862880
20
-182.225715
30
0.0
11
220.497880
21
-182.155159
31
0.0
0
LINE
8
Layer 1
62
4
5
19c
100
AcDbEntity
100
AcDbLine
10
220.497880
20
-182.155159
30
0.0
11
220.497880
21
-182.155159
31
0.0
0
LINE
8
Layer 1
62
4
5
19d
100
AcDbEntity
100
AcDbLine
10
109.128839
20
-189.049114
30
0.0
11
117.172173
21
-190.751267
31
0.0
0
LINE
8
Layer 1
62
4
5
19e
100
AcDbEntity
100
AcDbLine
10
117.172173
20
-190.751267
30
0.0
11
117.927176
21
-191.017519
31
0.0
0
LINE
8
Layer 1
62
4
5
19f
100
AcDbEntity
100
AcDbLine
10
117.927176
20
-191.017519
30
0.0
11
118.435031
21
-191.412330
31
0.0
0
LINE
8
Layer 1
62
4
5
1a0
100
AcDbEntity
100
AcDbLine
10
118.435031
20
-191.412330
30
0.0
11
118.702792
21
-191.877008
31
0.0
0
LINE
8
Layer 1
62
4
5
1a1
100
AcDbEntity
100
AcDbLine
10
118.702792
20
-191.877008
30
0.0
11
118.737514
21
-192.352864
31
0.0
0
LINE
8
Layer 1
62
4
5
1a2
100
AcDbEntity
100
AcDbLine
10
118.737514
20
-192.352864
30
0.0
11
118.546251
21
-192.781206
31
0.0
0
LINE
8
Layer 1
62
4
5
1a3
100
AcDbEntity
100
AcDbLine
10
118.546251
20
-192.781206
30
0.0
11
118.136059
21
-193.103345
31
0.0
0
LINE
8
Layer 1
62
4
5
1a4
100
AcDbEntity
100
AcDbLine
10
118.136059
20
-193.103345
30
0.0
11
117.513991
21
-193.260591
31
0.0
0
LINE
8
Layer 1
62
4
5
1a5
100
AcDbEntity
100
AcDbLine
10
117.513991
20
-193.260591
30
0.0
11
116.687103
21
-193.194253
31
0.0
0
LINE
8
Layer 1
62
4
5
1a6
100
AcDbEntity
100
AcDbLine
10
116.687103
20
-193.194253
30
0.0
11
101.588214
21
-190.521961
31
0.0
0
LINE
8
Layer 1
62
4
5
1a7
100
AcDbEntity
100
AcDbLine
10
101.588214
20
-190.521961
30
0.0
11
109.128839
21
-189.049114
31
0.0
0
LINE
8
Layer 1
62
4
5
1a8
100
AcDbEntity
100
AcDbLine
10
151.044755
20
-188.893215
30
0.0
11
159.096908
21
-190.595367
31
0.0
0
LINE
8
Layer 1
62
4
5
1a9
100
AcDbEntity
100
AcDbLine
10
159.096908
20
-190.595367
30
0.0
11
159.851532
21
-190.861620
31
0.0
0
LINE
8
Layer 1
62
4
5
1aa
100
AcDbEntity
100
AcDbLine
10
159.851532
20
-190.861620
30
0.0
11
160.358388
21
-191.256430
31
0.0
0
LINE
8
Layer 1
62
4
5
1ab
100
AcDbEntity
100
AcDbLine
10
160.358388
20
-191.256430
30
0.0
11
160.624736
21
-191.721109
31
0.0
0
LINE
8
Layer 1
62
4
5
1ac
100
AcDbEntity
100
AcDbLine
10
160.624736
20
-191.721109
30
0.0
11
160.657839
21
-192.196964
31
0.0
0
LINE
8
Layer 1
62
4
5
1ad
100
AcDbEntity
100
AcDbLine
10
160.657839
20
-192.196964
30
0.0
11
160.464957
21
-192.625307
31
0.0
0
LINE
8
Layer 1
62
4
5
1ae
100
AcDbEntity
100
AcDbLine
10
160.464957
20
-192.625307
30
0.0
11
160.053352
21
-192.947446
31
0.0
0
LINE
8
Layer 1
62
4
5
1af
100
AcDbEntity
100
AcDbLine
10
160.053352
20
-192.947446
30
0.0
11
159.430286
21
-193.104692
31
0.0
0
LINE
8
Layer 1
62
4
5
1b0
100
AcDbEntity
100
AcDbLine
10
159.430286
20
-193.104692
30
0.0
11
158.603019
21
-193.038354
31
0.0
0
LINE
8
Layer 1
62
4
5
1b1
100
AcDbEntity
100
AcDbLine
10
158.603019
20
-193.038354
30
0.0
11
144.774130
21
-190.471895
31
0.0
0
LINE
8
Layer 1
62
4
5
1b2
100
AcDbEntity
100
AcDbLine
10
144.774130
20
-190.471895
30
0.0
11
151.044755
21
-188.893215
31
0.0
0
LINE
8
Layer 1
62
4
5
1b3
100
AcDbEntity
100
AcDbLine
10
191.155588
20
-188.893215
30
0.0
11
199.207741
21
-190.595367
31
0.0
0
LINE
8
Layer 1
62
4
5
1b4
100
AcDbEntity
100
AcDbLine
10
199.207741
20
-190.595367
30
0.0
11
199.962365
21
-190.861620
31
0.0
0
LINE
8
Layer 1
62
4
5
1b5
100
AcDbEntity
100
AcDbLine
10
199.962365
20
-190.861620
30
0.0
11
200.469221
21
-191.256430
31
0.0
0
LINE
8
Layer 1
62
4
5
1b6
100
AcDbEntity
100
AcDbLine
10
200.469221
20
-191.256430
30
0.0
11
200.735569
21
-191.721109
31
0.0
0
LINE
8
Layer 1
62
4
5
1b7
100
AcDbEntity
100
AcDbLine
10
200.735569
20
-191.721109
30
0.0
11
200.768672
21
-192.196964
31
0.0
0
LINE
8
Layer 1
62
4
5
1b8
100
AcDbEntity
100
AcDbLine
10
200.768672
20
-192.196964
30
0.0
11
200.575790
21
-192.625307
31
0.0
0
LINE
8
Layer 1
62
4
5
1b9
100
AcDbEntity
100
AcDbLine
10
200.575790
20
-192.625307
30
0.0
11
200.164185
21
-192.947446
31
0.0
0
LINE
8
Layer 1
62
4
5
1ba
100
AcDbEntity
100
AcDbLine
10
200.164185
20
-192.947446
30
0.0
11
199.541119
21
-193.104692
31
0.0
0
LINE
8
Layer 1
62
4
5
1bb
100
AcDbEntity
100
AcDbLine
10
199.541119
20
-193.104692
30
0.0
11
198.713852
21
-193.038354
31
0.0
0
LINE
8
Layer 1
62
4
5
1bc
100
AcDbEntity
100
AcDbLine
10
198.713852
20
-193.038354
30
0.0
11
184.884963
21
-190.471895
31
0.0
0
LINE
8
Layer 1
62
4
5
1bd
100
AcDbEntity
100
AcDbLine
10
184.884963
20
-190.471895
30
0.0
11
191.155588
21
-188.893215
31
0.0
  0
ENDSEC
  0
SECTION
  2
OBJECTS
  0
DICTIONARY
  5
C
330
0
100
AcDbDictionary
  3
ACAD_GROUP
350
D
  3
ACAD_MLINESTYLE
350
17
  0
DICTIONARY
  5
D
330
C
100
AcDbDictionary
  0
DICTIONARY
  5
1A
330
C
100
AcDbDictionary
  0
DICTIONARY
  5
17
330
C
100
AcDbDictionary
  3
STANDARD
350
18
  0
DICTIONARY
  5
19
330
C
100
AcDbDictionary
  0
ENDSEC
  0
EOF
