0
SECTION
2
HEADER
9
$INSUNITS
70
4
9
$ACADVER
1
AC1014
9
$HANDSEED
5
FFFF
0
ENDSEC
0
SECTION
2
TABLES
0
TABLE
2
VPORT
5
8
100
AcDbSymbolTable
0
ENDTAB
0
TABLE
2
LTYPE
5
5
100
AcDbSymbolTable
0
LTYPE
5
14
100
AcDbSymbolTableRecord
100
AcDbLinetypeTableRecord
2
BYBLOCK
70
0
0
LTYPE
5
15
100
AcDbSymbolTableRecord
100
AcDbLinetypeTableRecord
2
BYLAYER
70
0
0
ENDTAB
0
TABLE
2
LAYER
5
2
100
AcDbSymbolTable
70
2
0
LAYER
5
50
100
AcDbSymbolTableRecord
100
AcDbLayerTableRecord
2
0
70
0
6
CONTINUOUS
0
ENDTAB
0
TABLE
2
STYLE
5
3
100
AcDbSymbolTable
70
1
0
STYLE
5
11
100
AcDbSymbolTableRecord
100
AcDbTextStyleTableRecord
2
STANDARD
70
0
0
ENDTAB
0
TABLE
2
VIEW
5
6
100
AcDbSymbolTable
70
0
0
ENDTAB
0
TABLE
2
UCS
5
7
100
AcDbSymbolTable
70
0
0
ENDTAB
0
TABLE
2
APPID
5
9
100
AcDbSymbolTable
70
2
0
APPID
5
12
100
AcDbSymbolTableRecord
100
AcDbRegAppTableRecord
2
ACAD
70
0
0
ENDTAB
0
TABLE
2
DIMSTYLE
5
A
100
AcDbSymbolTable
70
1
0
ENDTAB
0
TABLE
2
BLOCK_RECORD
5
1
100
AcDbSymbolTable
70
1
0
BLOCK_RECORD
5
1F
100
AcDbSymbolTableRecord
100
AcDbBlockTableRecord
2
*MODEL_SPACE
0
BLOCK_RECORD
5
1B
100
AcDbSymbolTableRecord
100
AcDbBlockTableRecord
2
*PAPER_SPACE
0
ENDTAB
0
ENDSEC
0
SECTION
2
BLOCKS
0
BLOCK
5
20
100
AcDbEntity
100
AcDbBlockBegin
2
*MODEL_SPACE
0
ENDBLK
5
21
100
AcDbEntity
100
AcDbBlockEnd
0
BLOCK
5
1C
100
AcDbEntity
100
AcDbBlockBegin
2
*PAPER_SPACE
0
ENDBLK
5
1D
100
AcDbEntity
100
AcDbBlockEnd
0
ENDSEC
0
SECTION
2
ENTITIES
0
LINE
5
100
100
AcDbEntity
8
0
100
AcDbLine
10
0
20
0
30
0
11
-6.0000000000000009
21
-8.176400362083895e-34
31
0
0
LINE
5
101
100
AcDbEntity
8
0
100
AcDbLine
10
-6.0000000000000009
20
-8.176400362083895e-34
30
0
11
-6.0000000000000018
21
20.000000000000004
31
0
0
LINE
5
102
100
AcDbEntity
8
0
100
AcDbLine
10
-6.0000000000000018
20
20.000000000000004
30
0
11
-1.2453274928646266e-15
21
20.000000000000288
31
0
0
LINE
5
103
100
AcDbEntity
8
0
100
AcDbLine
10
20.00000044478826
20
34.999999999999972
30
0
11
20.000000444788263
21
28.999999999999968
31
0
0
LINE
5
104
100
AcDbEntity
8
0
100
AcDbLine
10
20.000000444788263
20
28.999999999999968
30
0
11
22.50000044478827
21
28.999999999999964
31
0
0
LINE
5
105
100
AcDbEntity
8
0
100
AcDbLine
10
22.50000044478827
20
28.999999999999964
30
0
11
22.500000444788277
21
34.999999999999957
31
0
0
LINE
5
106
100
AcDbEntity
8
0
100
AcDbLine
10
22.500000444788277
20
34.999999999999957
30
0
11
42.500000444788277
21
35.000000000000021
31
0
0
LINE
5
107
100
AcDbEntity
8
0
100
AcDbLine
10
42.500000444788277
20
35.000000000000021
30
0
11
42.500000444788185
21
20.000000000000021
31
0
0
LINE
5
108
100
AcDbEntity
8
0
100
AcDbLine
10
48.500000444788647
20
-1.6659957306939937e-13
30
0
11
42.500000444788441
21
-1.6304791314152502e-13
31
0
0
LINE
5
109
100
AcDbEntity
8
0
100
AcDbLine
10
42.500000444788441
20
-1.6304791314152502e-13
30
0
11
42.500000444788441
21
-2.4999999999996838
31
0
0
LINE
5
110
100
AcDbEntity
8
0
100
AcDbLine
10
42.500000444788441
20
-2.4999999999996838
30
0
11
48.500000444788434
21
-2.499999999999809
31
0
0
LINE
5
111
100
AcDbEntity
8
0
100
AcDbLine
10
48.500000444788434
20
-2.499999999999809
30
0
11
48.500000444788355
21
-22.499999999999908
31
0
0
LINE
5
112
100
AcDbEntity
8
0
100
AcDbLine
10
48.500000444788355
20
-22.499999999999908
30
0
11
42.500000444788348
21
-22.499999999999908
31
0
0
LINE
5
113
100
AcDbEntity
8
0
100
AcDbLine
10
42.500000444788348
20
-22.499999999999908
30
0
11
42.500000444788327
21
-37.499999999999908
31
0
0
LINE
5
114
100
AcDbEntity
8
0
100
AcDbLine
10
42.500000444788327
20
-37.499999999999908
30
0
11
22.500000444788327
21
-37.499999999999979
31
0
0
LINE
5
115
100
AcDbEntity
8
0
100
AcDbLine
10
22.500000444788327
20
-37.499999999999979
30
0
11
22.500000444788313
21
-31.499999999999993
31
0
0
LINE
5
116
100
AcDbEntity
8
0
100
AcDbLine
10
22.500000444788313
20
-31.499999999999993
30
0
11
20.000000444788313
21
-31.500000000000004
31
0
0
LINE
5
117
100
AcDbEntity
8
0
100
AcDbLine
10
20.000000444788313
20
-31.500000000000004
30
0
11
20.000000444788327
21
-37.5
31
0
0
LINE
5
118
100
AcDbEntity
8
0
100
AcDbLine
10
20.000000444788327
20
-37.5
30
0
11
4.4478832617045327e-07
21
-37.500000000000007
31
0
0
LINE
5
119
100
AcDbEntity
8
0
100
AcDbLine
10
4.4478832617045327e-07
20
-37.500000000000007
30
0
11
4.4478832617045338e-07
21
-22.500000000000007
31
0
0
LINE
5
120
100
AcDbEntity
8
0
100
AcDbLine
10
4.4478832617045338e-07
20
-22.500000000000007
30
0
11
-5.9999995552116747
21
-22.500000000000018
31
0
0
LINE
5
121
100
AcDbEntity
8
0
100
AcDbLine
10
-5.9999995552116747
20
-22.500000000000018
30
0
11
-5.9999995552116658
21
-2.5000000000000178
31
0
0
LINE
5
122
100
AcDbEntity
8
0
100
AcDbLine
10
-5.9999995552116658
20
-2.5000000000000178
30
0
11
1.0715659492539345e-15
21
-2.5
31
0
0
LINE
5
123
100
AcDbEntity
8
0
100
AcDbLine
10
1.0715659492539345e-15
20
-2.5
30
0
11
0
21
0
31
0
0
LINE
5
124
100
AcDbEntity
8
0
100
AcDbLine
10
42.500000444788185
20
20.000000000000021
30
0
11
48.500000444788192
21
20.000000000000018
31
0
0
LINE
5
125
100
AcDbEntity
8
0
100
AcDbLine
10
20.00000044478826
20
34.999999999999972
30
0
11
4.4478825990401649e-07
21
34.999999999999972
31
0
0
LINE
5
126
100
AcDbEntity
8
0
100
AcDbLine
10
4.4478825990401649e-07
20
34.999999999999972
30
0
11
4.4478819939686165e-07
21
19.999999999999964
31
0
0
LINE
5
127
100
AcDbEntity
8
0
100
AcDbLine
10
4.4478819939686165e-07
20
19.999999999999964
30
0
11
-0.053309858605444793
21
19.999999999999972
31
0
0
LINE
5
128
100
AcDbEntity
8
0
100
AcDbLine
10
48.500000444788192
20
20.000000000000018
30
0
11
48.500000444788647
21
-1.6659957306939937e-13
31
0
0
LINE
5
129
100
AcDbEntity
8
0
100
AcDbLine
10
-0.053309858605444793
20
19.999999999999972
30
0
11
-6.0000000000000018
21
20.000000000000004
31
0
0
ENDSEC
0
SECTION
2
OBJECTS
0
DICTIONARY
5
C
100
AcDbDictionary
3
ACAD_GROUP
350
D
3
ACAD_MLINESTYLE
350
17
0
DICTIONARY
5
D
100
AcDbDictionary
0
DICTIONARY
5
1A
330
C
100
AcDbDictionary
0
DICTIONARY
5
17
100
AcDbDictionary
0
ENDSEC
0
EOF
