0
SECTION
2
HEADER
9
$INSUNITS
70
4
9
$ACADVER
1
AC1014
9
$HANDSEED
5
FFFF
0
ENDSEC
0
SECTION
2
TABLES
0
TABLE
2
VPORT
5
8
100
AcDbSymbolTable
0
ENDTAB
0
TABLE
2
LTYPE
5
5
100
AcDbSymbolTable
0
LTYPE
5
14
100
AcDbSymbolTableRecord
100
AcDbLinetypeTableRecord
2
BYBLOCK
70
0
0
LTYPE
5
15
100
AcDbSymbolTableRecord
100
AcDbLinetypeTableRecord
2
BYLAYER
70
0
0
ENDTAB
0
TABLE
2
LAYER
5
2
100
AcDbSymbolTable
70
2
0
LAYER
5
50
100
AcDbSymbolTableRecord
100
AcDbLayerTableRecord
2
0
70
0
6
CONTINUOUS
0
ENDTAB
0
TABLE
2
STYLE
5
3
100
AcDbSymbolTable
70
1
0
STYLE
5
11
100
AcDbSymbolTableRecord
100
AcDbTextStyleTableRecord
2
STANDARD
70
0
0
ENDTAB
0
TABLE
2
VIEW
5
6
100
AcDbSymbolTable
70
0
0
ENDTAB
0
TABLE
2
UCS
5
7
100
AcDbSymbolTable
70
0
0
ENDTAB
0
TABLE
2
APPID
5
9
100
AcDbSymbolTable
70
2
0
APPID
5
12
100
AcDbSymbolTableRecord
100
AcDbRegAppTableRecord
2
ACAD
70
0
0
ENDTAB
0
TABLE
2
DIMSTYLE
5
A
100
AcDbSymbolTable
70
1
0
ENDTAB
0
TABLE
2
BLOCK_RECORD
5
1
100
AcDbSymbolTable
70
1
0
BLOCK_RECORD
5
1F
100
AcDbSymbolTableRecord
100
AcDbBlockTableRecord
2
*MODEL_SPACE
0
BLOCK_RECORD
5
1B
100
AcDbSymbolTableRecord
100
AcDbBlockTableRecord
2
*PAPER_SPACE
0
ENDTAB
0
ENDSEC
0
SECTION
2
BLOCKS
0
BLOCK
5
20
100
AcDbEntity
100
AcDbBlockBegin
2
*MODEL_SPACE
0
ENDBLK
5
21
100
AcDbEntity
100
AcDbBlockEnd
0
BLOCK
5
1C
100
AcDbEntity
100
AcDbBlockBegin
2
*PAPER_SPACE
0
ENDBLK
5
1D
100
AcDbEntity
100
AcDbBlockEnd
0
ENDSEC
0
SECTION
2
ENTITIES
0
LWPOLYLINE
5
100
100
AcDbEntity
8
0
100
AcDbPolyline
90
5
70
1
43
0.0
10
-266.78786309999725
20
-98.179913542755827
10
-553.78786309999725
20
-98.179913542755827
10
-553.78786309999759
20
89.820086457244201
10
-410.28786309999737
20
270.8414940310447
10
-266.78786309999725
20
89.820086457244187
0
SPLINE
5
101
100
AcDbEntity
8
0
100
AcDbSpline
70
4
71
3
72
8
73
4
74
0
42
0.000000001
43
0.0000000001
44
0.0000000001
40
0
40
0
40
0
40
0
40
1
40
1
40
1
40
1
41
1
41
1
41
1
41
1
10
7.9408004759024475
20
136.0720408363598
30
0
10
3.8043039320181737
20
136.03579314981474
30
0
10
-0.39040126817713627
20
134.99412849381142
30
0
10
-4.4038634937732546
20
132.80628914867413
30
0
0
SPLINE
5
102
100
AcDbEntity
8
0
100
AcDbSpline
70
4
71
3
72
8
73
4
74
0
42
0.000000001
43
0.0000000001
44
0.0000000001
40
0
40
0
40
0
40
0
40
1
40
1
40
1
40
1
41
1
41
1
41
1
41
1
10
-4.4038634937732546
20
132.80628914867413
30
0
10
4.8557578403026813
20
133.47885993356081
30
0
10
12.995667966035107
20
130.64146852527631
30
0
10
15.266580708649844
20
123.82686106398276
30
0
0
SPLINE
5
103
100
AcDbEntity
8
0
100
AcDbSpline
70
4
71
3
72
8
73
4
74
0
42
0.000000001
43
0.0000000001
44
0.0000000001
40
0
40
0
40
0
40
0
40
1
40
1
40
1
40
1
41
1
41
1
41
1
41
1
10
15.266580708649844
20
123.82686106398276
30
0
10
-18.827627786172343
20
128.28561870291404
30
0
10
-53.591231791350168
20
93.838987032915867
30
0
10
6.8739970523388116
20
58.954464213396832
30
0
0
SPLINE
5
104
100
AcDbEntity
8
0
100
AcDbSpline
70
4
71
3
72
8
73
4
74
0
42
0.000000001
43
0.0000000001
44
0.0000000001
40
0
40
0
40
0
40
0
40
1
40
1
40
1
40
1
41
1
41
1
41
1
41
1
10
6.8739970523388116
20
58.954464213396832
30
0
10
23.279754384186955
20
49.489521917050787
30
0
10
12.001623344249612
20
25.142041651751317
30
0
10
-20.724689801705793
20
39.085578473752456
30
0
0
SPLINE
5
105
100
AcDbEntity
8
0
100
AcDbSpline
70
4
71
3
72
8
73
4
74
0
42
0.000000001
43
0.0000000001
44
0.0000000001
40
0
40
0
40
0
40
0
40
1
40
1
40
1
40
1
41
1
41
1
41
1
41
1
10
-20.724689801705793
20
39.085578473752456
30
0
10
-64.341775727443803
20
57.668851471290701
30
0
10
-61.173125267200589
20
92.204917685534284
30
0
10
-45.463754288527284
20
110.27543128365848
30
0
0
SPLINE
5
106
100
AcDbEntity
8
0
100
AcDbSpline
70
4
71
3
72
8
73
4
74
0
42
0.000000001
43
0.0000000001
44
0.0000000001
40
0
40
0
40
0
40
0
40
1
40
1
40
1
40
1
41
1
41
1
41
1
41
1
10
-45.463754288527284
20
110.27543128365848
30
0
10
-43.526475493284977
20
107.01364717517865
30
0
10
-41.913575315647236
20
103.34493538572958
30
0
10
-40.453605079822651
20
99.493660450325123
30
0
0
SPLINE
5
107
100
AcDbEntity
8
0
100
AcDbSpline
70
4
71
3
72
8
73
4
74
0
42
0.000000001
43
0.0000000001
44
0.0000000001
40
0
40
0
40
0
40
0
40
1
40
1
40
1
40
1
41
1
41
1
41
1
41
1
10
-40.453605079822651
20
99.493660450325123
30
0
10
-35.408794307880513
20
112.35108785663616
30
0
10
-25.534279950631571
20
117.6493695103583
30
0
10
-15.689927673511619
20
122.99183451368981
30
0
0
SPLINE
5
108
100
AcDbEntity
8
0
100
AcDbSpline
70
4
71
3
72
8
73
4
74
0
42
0.000000001
43
0.0000000001
44
0.0000000001
40
0
40
0
40
0
40
0
40
1
40
1
40
1
40
1
41
1
41
1
41
1
41
1
10
-15.689927673511619
20
122.99183451368981
30
0
10
-29.500381533476627
20
129.49529333148971
30
0
10
-42.68007407205593
20
126.9031701806642
30
0
10
-55.617141723804586
20
120.76774748200748
30
0
0
SPLINE
5
109
100
AcDbEntity
8
0
100
AcDbSpline
70
4
71
3
72
8
73
4
74
0
42
0.000000001
43
0.0000000001
44
0.0000000001
40
0
40
0
40
0
40
0
40
1
40
1
40
1
40
1
41
1
41
1
41
1
41
1
10
-55.617141723804586
20
120.76774748200748
30
0
10
-52.87552935299567
20
119.247979943301
30
0
10
-50.562540690275945
20
117.19507916802738
30
0
10
-48.564673296782289
20
114.75641382569643
30
0
0
SPLINE
5
110
100
AcDbEntity
8
0
100
AcDbSpline
70
4
71
3
72
8
73
4
74
0
42
0.000000001
43
0.0000000001
44
0.0000000001
40
0
40
0
40
0
40
0
40
1
40
1
40
1
40
1
41
1
41
1
41
1
41
1
10
-48.564673296782289
20
114.75641382569643
30
0
10
-78.61022710817349
20
96.787236500129822
30
0
10
-69.14211357451768
20
40.567246755307629
30
0
10
-29.671834246489315
20
17.778682963396815
30
0
0
SPLINE
5
111
100
AcDbEntity
8
0
100
AcDbSpline
70
4
71
3
72
8
73
4
74
0
42
0.000000001
43
0.0000000001
44
0.0000000001
40
0
40
0
40
0
40
0
40
1
40
1
40
1
40
1
41
1
41
1
41
1
41
1
10
-29.671834246489315
20
17.778682963396815
30
0
10
20.560104497102003
20
-11.222292327537424
30
0
10
80.073639170157023
20
52.766655540809744
30
0
10
25.403042093740993
20
73.62217356398277
30
0
0
SPLINE
5
112
100
AcDbEntity
8
0
100
AcDbSpline
70
4
71
3
72
8
73
4
74
0
42
0.000000001
43
0.0000000001
44
0.0000000001
40
0
40
0
40
0
40
0
40
1
40
1
40
1
40
1
41
1
41
1
41
1
41
1
10
25.403042093740993
20
73.62217356398277
30
0
10
-14.664929676227683
20
88.907153861071393
30
0
10
-4.1522396407255613
20
110.63870449100506
30
0
10
15.340938250052023
20
107.00095011427575
30
0
0
LINE
5
113
100
AcDbEntity
8
0
100
AcDbLine
10
15.340938250052016
20
107.00095011427575
30
0
11
16.035203043448018
21
95.723085530942427
31
0
0
LINE
5
114
100
AcDbEntity
8
0
100
AcDbLine
10
16.035203043448018
20
95.723085530942427
30
0
11
53.432734616425741
21
85.305116780942399
31
0
0
LINE
5
115
100
AcDbEntity
8
0
100
AcDbLine
10
53.432734616425741
20
85.305116780942399
30
0
11
58.964115333385365
21
101.35394741728476
31
0
0
SPLINE
5
116
100
AcDbEntity
8
0
100
AcDbSpline
70
4
71
3
72
8
73
4
74
0
42
0.000000001
43
0.0000000001
44
0.0000000001
40
0
40
0
40
0
40
0
40
1
40
1
40
1
40
1
41
1
41
1
41
1
41
1
10
58.964115333385365
20
101.35394741728476
30
0
10
51.307073020763298
20
104.66467879647584
30
0
10
45.151013056265406
20
108.3857775691606
30
0
10
40.1543542224438
20
112.95407511427572
30
0
0
SPLINE
5
117
100
AcDbEntity
8
0
100
AcDbSpline
70
4
71
3
72
8
73
4
74
0
42
0.000000001
43
0.0000000001
44
0.0000000001
40
0
40
0
40
0
40
0
40
1
40
1
40
1
40
1
41
1
41
1
41
1
41
1
10
40.1543542224438
20
112.95407511427572
30
0
10
40.489847310212355
20
120.4269676529822
30
0
10
37.333894920177357
20
127.90435664688124
30
0
10
31.183123715546817
20
135.37751261427576
30
0
0
SPLINE
5
118
100
AcDbEntity
8
0
100
AcDbSpline
70
4
71
3
72
8
73
4
74
0
42
0.000000001
43
0.0000000001
44
0.0000000001
40
0
40
0
40
0
40
0
40
1
40
1
40
1
40
1
41
1
41
1
41
1
41
1
10
31.183123715546817
20
135.37751261427576
30
0
10
31.383410262889768
20
131.72811489139571
30
0
10
31.342666625804796
20
128.07977492048911
30
0
10
30.761904271271927
20
124.4301127596157
30
0
0
SPLINE
5
119
100
AcDbEntity
8
0
100
AcDbSpline
70
4
71
3
72
8
73
4
74
0
42
0.000000001
43
0.0000000001
44
0.0000000001
40
0
40
0
40
0
40
0
40
1
40
1
40
1
40
1
41
1
41
1
41
1
41
1
10
30.761904271271927
20
124.4301127596157
30
0
10
24.8855106987825
20
131.86067099605572
30
0
10
16.545047569103133
20
136.14771451189688
30
0
10
7.9415917712719164
20
136.07177942628238
30
0
0
LINE
5
120
100
AcDbEntity
8
0
100
AcDbLine
10
7.9415917712719173
20
136.07177942628238
30
0
11
7.9408004759024475
21
136.0720408363598
31
0
0
SPLINE
5
121
100
AcDbEntity
8
0
100
AcDbSpline
70
4
71
3
72
8
73
4
74
0
42
0.000000001
43
0.0000000001
44
0.0000000001
40
0
40
0
40
0
40
0
40
1
40
1
40
1
40
1
41
1
41
1
41
1
41
1
10
19.433509826488393
20
118.7751708669918
30
0
10
25.51892649315505
20
116.85217979783388
30
0
10
31.266201654898218
20
113.25437574420943
30
0
10
35.837676493155058
20
107.1086308800635
30
0
0
SPLINE
5
122
100
AcDbEntity
8
0
100
AcDbSpline
70
4
71
3
72
8
73
4
74
0
42
0.000000001
43
0.0000000001
44
0.0000000001
40
0
40
0
40
0
40
0
40
1
40
1
40
1
40
1
41
1
41
1
41
1
41
1
10
35.837676493155058
20
107.1086308800635
30
0
10
26.913277753022413
20
102.92292060886396
30
0
10
17.548620033092401
20
108.51621413265241
30
0
10
19.433509826488393
20
118.7749044103878
30
0
0
LINE
5
123
100
AcDbEntity
8
0
100
AcDbLine
10
19.433509826488397
20
118.7749044103878
30
0
11
19.433509826488393
21
118.7751708669918
31
0
0
LINE
5
124
100
AcDbEntity
8
0
100
AcDbLine
10
90.943981159627441
20
-32.77549575601293
30
0
11
64.441799753902544
21
-32.385154803188129
31
0
0
LINE
5
125
100
AcDbEntity
8
0
100
AcDbLine
10
64.441799753902544
20
-32.385154803188129
30
0
11
53.89228675436415
21
-5.2256590198615305
31
0
0
SPLINE
5
126
100
AcDbEntity
8
0
100
AcDbSpline
70
4
71
3
72
8
73
4
74
0
42
0.000000001
43
0.0000000001
44
0.0000000001
40
0
40
0
40
0
40
0
40
1
40
1
40
1
40
1
41
1
41
1
41
1
41
1
10
53.892286754364164
20
-5.2256590198615314
30
0
10
51.858399667850996
20
-0.21274072527572729
30
0
10
44.760437624931825
20
-0.21274072527572729
30
0
10
42.736716744991284
20
-5.2256590198615314
30
0
0
LINE
5
127
100
AcDbEntity
8
0
100
AcDbLine
10
42.736716744991277
20
-5.2256590198615314
30
0
11
32.187206880268377
21
-32.385154803188129
31
0
0
LINE
5
128
100
AcDbEntity
8
0
100
AcDbLine
10
32.187206880268377
20
-32.385154803188129
30
0
11
5.6850254745434858
21
-32.775495756012923
31
0
0
SPLINE
5
129
100
AcDbEntity
8
0
100
AcDbSpline
70
4
71
3
72
8
73
4
74
0
42
0.000000001
43
0.0000000001
44
0.0000000001
40
0
40
0
40
0
40
0
40
1
40
1
40
1
40
1
41
1
41
1
41
1
41
1
10
5.6850254745434849
20
-32.77549575601293
30
0
10
0.19969009661779238
20
-33.094036895288689
30
0
10
-2.0293690337155059
20
-39.986552536681344
30
0
10
2.2233063520919787
20
-43.448272834688659
30
0
0
LINE
5
130
100
AcDbEntity
8
0
100
AcDbLine
10
2.2233063520919809
20
-43.448272834688659
30
0
11
23.712672128437742
21
-62.081973363601932
31
0
0
LINE
5
131
100
AcDbEntity
8
0
100
AcDbLine
10
23.712672128437742
20
-62.081973363601932
30
0
11
16.388619356707416
21
-87.526123199691142
31
0
0
SPLINE
5
132
100
AcDbEntity
8
0
100
AcDbSpline
70
4
71
3
72
8
73
4
74
0
42
0.000000001
43
0.0000000001
44
0.0000000001
40
0
40
0
40
0
40
0
40
1
40
1
40
1
40
1
41
1
41
1
41
1
41
1
10
16.388619356707416
20
-87.526123199691114
30
0
10
14.950516489730097
20
-92.754550261613602
30
0
10
20.610477547174764
20
-97.068858862545554
30
0
10
25.274040641960141
20
-94.295374761946448
30
0
0
LINE
5
133
100
AcDbEntity
8
0
100
AcDbLine
10
25.274040641960145
20
-94.295374761946448
30
0
11
48.314503317085453
21
-81.691429095297607
31
0
0
LINE
5
134
100
AcDbEntity
8
0
100
AcDbLine
10
48.314503317085453
20
-81.691429095297607
30
0
11
71.354964424803043
21
-94.285205420558341
31
0
0
SPLINE
5
135
100
AcDbEntity
8
0
100
AcDbSpline
70
4
71
3
72
8
73
4
74
0
42
0.000000001
43
0.0000000001
44
0.0000000001
40
0
40
0
40
0
40
0
40
1
40
1
40
1
40
1
41
1
41
1
41
1
41
1
10
71.354964424803043
20
-94.285205420558341
30
0
10
76.018529086996153
20
-97.058689521157447
30
0
10
81.678488577033079
20
-92.744380920225495
30
0
10
80.240385710055762
20
-87.515847274576998
30
0
0
LINE
5
136
100
AcDbEntity
8
0
100
AcDbLine
10
80.240385710055762
20
-87.515847274576998
30
0
11
72.916334505733175
21
-62.07169743848781
31
0
0
LINE
5
137
100
AcDbEntity
8
0
100
AcDbLine
10
72.916334505733175
20
-62.07169743848781
30
0
11
94.405701457634734
21
-43.438097223669615
31
0
0
SPLINE
5
138
100
AcDbEntity
8
0
100
AcDbSpline
70
4
71
3
72
8
73
4
74
0
42
0.000000001
43
0.0000000001
44
0.0000000001
40
0
40
0
40
0
40
0
40
1
40
1
40
1
40
1
41
1
41
1
41
1
41
1
10
94.405701457634734
20
-43.438097223669615
30
0
10
98.658273002679749
20
-39.976383195293245
30
0
10
96.429318888664724
20
-33.083660656079495
30
0
10
90.943981159627441
20
-32.77549575601293
30
0
0
ENDSEC
0
SECTION
2
OBJECTS
0
DICTIONARY
5
C
100
AcDbDictionary
3
ACAD_GROUP
350
D
3
ACAD_MLINESTYLE
350
17
0
DICTIONARY
5
D
100
AcDbDictionary
0
DICTIONARY
5
1A
330
C
100
AcDbDictionary
0
DICTIONARY
5
17
100
AcDbDictionary
0
ENDSEC
0
EOF
