0
SECTION
2
HEADER
9
$INSUNITS
70
4
9
$ACADVER
1
AC1014
9
$HANDSEED
5
FFFF
0
ENDSEC
0
SECTION
2
TABLES
0
TABLE
2
VPORT
5
8
100
AcDbSymbolTable
0
ENDTAB
0
TABLE
2
LTYPE
5
5
100
AcDbSymbolTable
0
LTYPE
5
14
100
AcDbSymbolTableRecord
100
AcDbLinetypeTableRecord
2
BYBLOCK
70
0
0
LTYPE
5
15
100
AcDbSymbolTableRecord
100
AcDbLinetypeTableRecord
2
BYLAYER
70
0
0
ENDTAB
0
TABLE
2
LAYER
5
2
100
AcDbSymbolTable
70
2
0
LAYER
5
50
100
AcDbSymbolTableRecord
100
AcDbLayerTableRecord
2
0
70
0
6
CONTINUOUS
0
ENDTAB
0
TABLE
2
STYLE
5
3
100
AcDbSymbolTable
70
1
0
STYLE
5
11
100
AcDbSymbolTableRecord
100
AcDbTextStyleTableRecord
2
STANDARD
70
0
0
ENDTAB
0
TABLE
2
VIEW
5
6
100
AcDbSymbolTable
70
0
0
ENDTAB
0
TABLE
2
UCS
5
7
100
AcDbSymbolTable
70
0
0
ENDTAB
0
TABLE
2
APPID
5
9
100
AcDbSymbolTable
70
2
0
APPID
5
12
100
AcDbSymbolTableRecord
100
AcDbRegAppTableRecord
2
ACAD
70
0
0
ENDTAB
0
TABLE
2
DIMSTYLE
5
A
100
AcDbSymbolTable
70
1
0
ENDTAB
0
TABLE
2
BLOCK_RECORD
5
1
100
AcDbSymbolTable
70
1
0
BLOCK_RECORD
5
1F
100
AcDbSymbolTableRecord
100
AcDbBlockTableRecord
2
*MODEL_SPACE
0
BLOCK_RECORD
5
1B
100
AcDbSymbolTableRecord
100
AcDbBlockTableRecord
2
*PAPER_SPACE
0
ENDTAB
0
ENDSEC
0
SECTION
2
BLOCKS
0
BLOCK
5
20
100
AcDbEntity
100
AcDbBlockBegin
2
*MODEL_SPACE
0
ENDBLK
5
21
100
AcDbEntity
100
AcDbBlockEnd
0
BLOCK
5
1C
100
AcDbEntity
100
AcDbBlockBegin
2
*PAPER_SPACE
0
ENDBLK
5
1D
100
AcDbEntity
100
AcDbBlockEnd
0
ENDSEC
0
SECTION
2
ENTITIES
0
LINE
5
100
100
AcDbEntity
8
0
100
AcDbLine
10
-1442.5463216481385
20
376.96970735039872
30
0
11
-2683.3896394600692
21
376.12047922012152
31
0
0
LINE
5
101
100
AcDbEntity
8
0
100
AcDbLine
10
-2683.2828846232565
20
260.72050846741894
30
0
11
-1442.7686729878465
21
261.56950238880506
31
0
0
LINE
5
102
100
AcDbEntity
8
0
100
AcDbLine
10
-2683.3611223450889
20
345.2918523615387
30
0
11
-2695.3099177794661
21
345.29185236162874
31
0
0
LINE
5
103
100
AcDbEntity
8
0
100
AcDbLine
10
-2695.3099177794661
20
345.29185236162874
30
0
11
-2695.3099177794661
21
289.89182245308621
31
0
0
LINE
5
104
100
AcDbEntity
8
0
100
AcDbLine
10
-2695.3099177794661
20
289.89182247336629
30
0
11
-2683.3098688011337
21
289.89182247327648
31
0
0
LINE
5
105
100
AcDbEntity
8
0
100
AcDbLine
10
-2683.3896394600692
20
376.12047922012152
30
0
11
-2683.3611223450889
21
345.2918523615387
31
0
0
LINE
5
106
100
AcDbEntity
8
0
100
AcDbLine
10
-2683.3098688011337
20
289.89182247327648
30
0
11
-2683.2828846232565
21
260.72050846741894
31
0
0
LINE
5
107
100
AcDbEntity
8
0
100
AcDbLine
10
-1430.6113963502498
20
343.18441733231026
30
0
11
-1442.6114862489933
21
343.14932063822096
31
0
0
LINE
5
108
100
AcDbEntity
8
0
100
AcDbLine
10
-1442.7181624929997
20
287.78441733231028
30
0
11
-1430.6113963502498
21
287.78441733231028
31
0
0
LINE
5
109
100
AcDbEntity
8
0
100
AcDbLine
10
-1430.6113963502498
20
287.78441733231028
30
0
11
-1430.6113963502498
21
343.18441733231026
31
0
0
LINE
5
110
100
AcDbEntity
8
0
100
AcDbLine
10
-1442.7686729878465
20
261.56950238880506
30
0
11
-1442.7181624929997
21
287.78441733231028
31
0
0
LINE
5
111
100
AcDbEntity
8
0
100
AcDbLine
10
-1442.6114862489933
20
343.14932063822096
30
0
11
-1442.5463216481385
21
376.96970735039872
31
0
0
ENDSEC
0
SECTION
2
OBJECTS
0
DICTIONARY
5
C
100
AcDbDictionary
3
ACAD_GROUP
350
D
3
ACAD_MLINESTYLE
350
17
0
DICTIONARY
5
D
100
AcDbDictionary
0
DICTIONARY
5
1A
330
C
100
AcDbDictionary
0
DICTIONARY
5
17
100
AcDbDictionary
0
ENDSEC
0
EOF
