0
SECTION
2
HEADER
9
$INSUNITS
70
4
9
$ACADVER
1
AC1014
9
$HANDSEED
5
FFFF
0
ENDSEC
0
SECTION
2
TABLES
0
TABLE
2
VPORT
5
8
100
AcDbSymbolTable
0
ENDTAB
0
TABLE
2
LTYPE
5
5
100
AcDbSymbolTable
0
LTYPE
5
14
100
AcDbSymbolTableRecord
100
AcDbLinetypeTableRecord
2
BYBLOCK
70
0
0
LTYPE
5
15
100
AcDbSymbolTableRecord
100
AcDbLinetypeTableRecord
2
BYLAYER
70
0
0
ENDTAB
0
TABLE
2
LAYER
5
2
100
AcDbSymbolTable
70
2
0
LAYER
5
50
100
AcDbSymbolTableRecord
100
AcDbLayerTableRecord
2
0
70
0
6
CONTINUOUS
0
ENDTAB
0
TABLE
2
STYLE
5
3
100
AcDbSymbolTable
70
1
0
STYLE
5
11
100
AcDbSymbolTableRecord
100
AcDbTextStyleTableRecord
2
STANDARD
70
0
0
ENDTAB
0
TABLE
2
VIEW
5
6
100
AcDbSymbolTable
70
0
0
ENDTAB
0
TABLE
2
UCS
5
7
100
AcDbSymbolTable
70
0
0
ENDTAB
0
TABLE
2
APPID
5
9
100
AcDbSymbolTable
70
2
0
APPID
5
12
100
AcDbSymbolTableRecord
100
AcDbRegAppTableRecord
2
ACAD
70
0
0
ENDTAB
0
TABLE
2
DIMSTYLE
5
A
100
AcDbSymbolTable
70
1
0
ENDTAB
0
TABLE
2
BLOCK_RECORD
5
1
100
AcDbSymbolTable
70
1
0
BLOCK_RECORD
5
1F
100
AcDbSymbolTableRecord
100
AcDbBlockTableRecord
2
*MODEL_SPACE
0
BLOCK_RECORD
5
1B
100
AcDbSymbolTableRecord
100
AcDbBlockTableRecord
2
*PAPER_SPACE
0
ENDTAB
0
ENDSEC
0
SECTION
2
BLOCKS
0
BLOCK
5
20
100
AcDbEntity
100
AcDbBlockBegin
2
*MODEL_SPACE
0
ENDBLK
5
21
100
AcDbEntity
100
AcDbBlockEnd
0
BLOCK
5
1C
100
AcDbEntity
100
AcDbBlockBegin
2
*PAPER_SPACE
0
ENDBLK
5
1D
100
AcDbEntity
100
AcDbBlockEnd
0
ENDSEC
0
SECTION
2
ENTITIES
0
LWPOLYLINE
5
100
100
AcDbEntity
8
0
100
AcDbPolyline
90
10
70
1
43
0.0
10
-346.27636965771046
20
-515.21579542226732
10
-342.68263142268154
20
-510.05016696909001
10
-332.58984330990654
20
-517.0717402137966
10
-326.73853249958267
20
-508.66108377934154
10
-322.43156143667215
20
-511.6574523192478
10
-328.28287224699602
20
-520.06810875370286
10
-322.46187160563181
20
-524.11779075476329
10
-315.02573245187961
20
-513.42910686009463
10
-310.61376840072882
20
-516.49851923574488
10
-321.64364578950995
20
-532.35283158359096
0
LWPOLYLINE
5
101
100
AcDbEntity
8
0
100
AcDbPolyline
90
8
70
1
43
0.0
10
-303.62748555422121
20
-469.29695304265954
10
-298.67942164571343
20
-465.2567631215411
10
-287.37324750479354
20
-494.76498048893637
10
-292.88175328733371
20
-499.2627820441619
10
-319.44316254508954
20
-482.21075932238506
10
-315.37620675683763
20
-478.8900112299691
10
-309.21949148207273
20
-482.81913436996177
10
-301.04210375730685
20
-476.14213906885618
0
LWPOLYLINE
5
102
100
AcDbEntity
8
0
100
AcDbPolyline
90
3
70
1
43
0.0
10
-294.29170010328625
20
-492.84118145658857
10
-299.01479099527467
20
-481.03992076518932
10
-304.90377541053243
20
-485.84839048588935
0
LWPOLYLINE
5
103
100
AcDbEntity
8
0
100
AcDbPolyline
90
8
70
1
43
0.0
10
-272.28199576870514
20
-449.54160828601562
10
-266.48020867126593
20
-446.54970495605585
10
-255.190178657904
20
-468.44290912656135
10
-248.30331673343679
20
-464.89144734784816
10
-245.83994705761648
20
-469.66832174024012
10
-265.41515657356723
20
-479.76299318402414
10
-267.87852624938756
20
-474.98611879163207
10
-260.99196575534324
20
-471.43481245652112
0
LWPOLYLINE
5
104
100
AcDbEntity
8
0
100
AcDbPolyline
90
4
70
1
43
0.0
10
-235.36691775542747
20
-433.12514494141084
10
-229.59084335263196
20
-431.03265638063203
10
-219.37009150175382
20
-459.24586827088478
10
-225.14616590454926
20
-461.33835683166353
0
LWPOLYLINE
5
105
100
AcDbEntity
8
0
100
AcDbPolyline
90
13
70
1
43
0.0
10
-179.63978205032043
20
-416.92711808234151
10
-173.55948037188185
20
-415.47961582980258
10
-166.60998811903394
20
-444.67128674787659
10
-175.3991921257003
20
-446.76368170959188
10
-185.26815287671803
20
-429.82618823628462
10
-186.54486833078866
20
-449.41706837791224
10
-195.28277866724582
20
-451.49725215223981
10
-202.23227092009375
20
-422.30558123416574
10
-197.19039187072741
20
-421.10529025076494
10
-191.28300063646918
20
-445.91956654902447
10
-190.05545141915502
20
-419.40671624546428
10
-186.7336888413773
20
-418.61592344141911
10
-173.73239081606218
20
-441.74139438060087
0
LWPOLYLINE
5
106
100
AcDbEntity
8
0
100
AcDbPolyline
90
8
70
1
43
0.0
10
-127.55818941896888
20
-408.27220108556475
10
-121.22416231724873
20
-407.44360485333902
10
-127.15348504977952
20
-438.48241278534158
10
-134.20493498287343
20
-439.40485987192005
10
-147.80387107234563
20
-410.92067341879408
10
-142.5977523437673
20
-410.23962638603848
10
-139.43331036971611
20
-416.82213795964117
10
-128.96541900297723
20
-415.45276343589256
0
LWPOLYLINE
5
107
100
AcDbEntity
8
0
100
AcDbPolyline
90
3
70
1
43
0.0
10
-132.02157022008555
20
-433.20342274470886
10
-129.82145280741062
20
-420.68396489499378
10
-137.35995424505666
20
-421.67012642975669
0
LWPOLYLINE
5
108
100
AcDbEntity
8
0
100
AcDbPolyline
90
13
70
1
43
0.0
10
-37.856169023292104
20
-404.11097692702862
10
-31.606222644993739
20
-404.17015074153426
10
-31.89031751583564
20
-434.17628984115663
10
-40.924746505499947
20
-434.09075284726265
10
-46.424923875090286
20
-415.27525071826005
10
-52.381394927847147
20
-433.98228254246862
10
-61.363099117771618
20
-433.89724474126047
10
-61.079004246929728
20
-403.89110564163809
10
-55.896453220531022
20
-403.94017347271051
10
-56.137947057583858
20
-429.44678555914049
10
-48.56244290442924
20
-404.00961108701296
10
-45.148000810845431
20
-404.04193865446024
10
-38.09766286034494
20
-429.61758901345866
0
SPLINE
5
109
100
AcDbEntity
8
0
100
AcDbSpline
70
0
71
2
72
6
73
3
74
0
42
0.000000001
43
0.0000000001
44
0.0000000001
40
0
40
0
40
0
40
1
40
1
40
1
10
8.7187938284927942
20
-406.31340781296717
30
-1.8918761810451675e-15
10
2.7090576347941764
20
-405.77796907652373
30
-1.8918761810451675e-15
10
-1.0143607756384276
20
-409.95866065092969
30
-1.3414431826842943e-15
0
SPLINE
5
110
100
AcDbEntity
8
0
100
AcDbSpline
70
0
71
2
72
6
73
3
74
0
42
0.000000001
43
0.0000000001
44
0.0000000001
40
0
40
0
40
0
40
1
40
1
40
1
10
-1.0143607756384276
20
-409.95866065092969
30
-1.3414431826842943e-15
10
-4.7377790376473472
20
-414.13935223855947
30
-7.910101843234209e-16
10
-5.3198273145615351
20
-420.6722314610937
30
1.22058712939156e-17
0
SPLINE
5
111
100
AcDbEntity
8
0
100
AcDbSpline
70
0
71
2
72
6
73
3
74
0
42
0.000000001
43
0.0000000001
44
0.0000000001
40
0
40
0
40
0
40
1
40
1
40
1
10
-5.3198273145615351
20
-420.6722314610937
30
1.22058712939156e-17
10
-5.8979513904595144
20
-427.16106565798202
30
8.1000660074896539e-16
10
-2.7546336667539428
20
-431.87944138814913
30
1.3513996512309055e-15
0
SPLINE
5
112
100
AcDbEntity
8
0
100
AcDbSpline
70
0
71
2
72
6
73
3
74
0
42
0.000000001
43
0.0000000001
44
0.0000000001
40
0
40
0
40
0
40
1
40
1
40
1
10
-2.7546336667539428
20
-431.87944138814913
30
1.3513996512309055e-15
10
0.38868361168057142
20
-436.59781707864465
30
1.8927927017128454e-15
10
6.2100315577808729
20
-437.11647132372212
30
1.8927927017128454e-15
0
SPLINE
5
113
100
AcDbEntity
8
0
100
AcDbSpline
70
0
71
2
72
6
73
3
74
0
42
0.000000001
43
0.0000000001
44
0.0000000001
40
0
40
0
40
0
40
1
40
1
40
1
10
6.2100315577808729
20
-437.11647132372212
30
1.8927927017128454e-15
10
12.091014953496712
20
-437.64043880198653
30
1.8927927017128454e-15
10
15.883900735872533
20
-433.53099529783424
30
1.3502956803342856e-15
0
SPLINE
5
114
100
AcDbEntity
8
0
100
AcDbSpline
70
0
71
2
72
6
73
3
74
0
42
0.000000001
43
0.0000000001
44
0.0000000001
40
0
40
0
40
0
40
1
40
1
40
1
10
15.883900735872533
20
-433.53099529783424
30
1.3502956803342856e-15
10
19.676788893027329
20
-429.42155200526321
30
8.0779865895572563e-16
10
20.258988239091551
20
-422.88697719054096
30
4.3741306538645742e-18
0
SPLINE
5
115
100
AcDbEntity
8
0
100
AcDbSpline
70
0
71
2
72
6
73
3
74
0
42
0.000000001
43
0.0000000001
44
0.0000000001
40
0
40
0
40
0
40
1
40
1
40
1
10
20.258988239091551
20
-422.88697719054096
30
4.3741306538645742e-18
10
20.87080158177157
20
-416.02001643660884
30
-8.3991717536431368e-16
10
17.721903961298565
20
-411.42750328511886
30
-1.3658966782047409e-15
0
SPLINE
5
116
100
AcDbEntity
8
0
100
AcDbSpline
70
0
71
2
72
6
73
3
74
0
42
0.000000001
43
0.0000000001
44
0.0000000001
40
0
40
0
40
0
40
1
40
1
40
1
10
17.721903961298565
20
-411.42750328511886
30
-1.3658966782047409e-15
10
14.573008715604525
20
-406.83499034521037
30
-1.8918761810451675e-15
10
8.7187938284927942
20
-406.31340781296717
30
-1.8918761810451675e-15
0
SPLINE
5
117
100
AcDbEntity
8
0
100
AcDbSpline
70
0
71
2
72
6
73
3
74
0
42
0.000000001
43
0.0000000001
44
0.0000000001
40
0
40
0
40
0
40
1
40
1
40
1
10
8.3087832429270065
20
-411.39447285324206
30
-1.2676242897998418e-15
10
10.928238070295652
20
-411.62785374347271
30
-1.2676242897998418e-15
10
12.575244487569595
20
-413.99614355779249
30
-9.9663636996621705e-16
0
SPLINE
5
118
100
AcDbEntity
8
0
100
AcDbSpline
70
0
71
2
72
6
73
3
74
0
42
0.000000001
43
0.0000000001
44
0.0000000001
40
0
40
0
40
0
40
1
40
1
40
1
10
12.575244487569595
20
-413.99614355779249
30
-9.9663636996621705e-16
10
14.222248318483121
20
-416.36443553530972
30
-7.256481581540431e-16
10
13.689436101172998
20
-422.34469181650979
30
9.6230290427918323e-18
0
SPLINE
5
119
100
AcDbEntity
8
0
100
AcDbSpline
70
0
71
2
72
6
73
3
74
0
42
0.000000001
43
0.0000000001
44
0.0000000001
40
0
40
0
40
0
40
1
40
1
40
1
10
13.689436101172998
20
-422.34469181650979
30
9.6230290427918323e-18
10
13.255126047635846
20
-427.21936499642698
30
6.0896301844455788e-16
10
11.489062821422207
20
-429.76561497012005
30
9.3875191445603876e-16
0
SPLINE
5
120
100
AcDbEntity
8
0
100
AcDbSpline
70
0
71
2
72
6
73
3
74
0
42
0.000000001
43
0.0000000001
44
0.0000000001
40
0
40
0
40
0
40
1
40
1
40
1
10
11.489062821422207
20
-429.76561497012005
30
9.3875191445603876e-16
10
9.7229993836271245
20
-432.31186731859214
30
1.2685411024460694e-15
10
6.5773505301349751
20
-432.03160505863229
30
1.2685411024460694e-15
0
SPLINE
5
121
100
AcDbEntity
8
0
100
AcDbSpline
70
0
71
2
72
6
73
3
74
0
42
0.000000001
43
0.0000000001
44
0.0000000001
40
0
40
0
40
0
40
1
40
1
40
1
10
6.5773505301349751
20
-432.03160505863229
30
1.2685411024460694e-15
10
0.31417317468620198
20
-431.47358592746997
30
1.2685411024460694e-15
10
1.2397270974098373
20
-421.08521741763974
30
-8.7065083751142025e-18
0
SPLINE
5
122
100
AcDbEntity
8
0
100
AcDbSpline
70
0
71
2
72
6
73
3
74
0
42
0.000000001
43
0.0000000001
44
0.0000000001
40
0
40
0
40
0
40
1
40
1
40
1
10
1.2397270974098373
20
-421.08521741763974
30
-8.7065083751142025e-18
10
1.6971306306642475
20
-415.95134423695845
30
-6.3991508054687896e-16
10
3.5363544014521264
20
-413.54224008052535
30
-9.5376983116263498e-16
0
SPLINE
5
123
100
AcDbEntity
8
0
100
AcDbSpline
70
0
71
2
72
6
73
3
74
0
42
0.000000001
43
0.0000000001
44
0.0000000001
40
0
40
0
40
0
40
1
40
1
40
1
10
3.5363544014521264
20
-413.54224008052535
30
-9.5376983116263498e-16
10
5.3755773669638192
20
-411.13313824597577
30
-1.2676242897998418e-15
10
8.3087832429270065
20
-411.39447285324206
30
-1.2676242897998418e-15
0
LWPOLYLINE
5
124
100
AcDbEntity
8
0
100
AcDbPolyline
90
12
70
1
43
0.0
10
65.060069634629471
20
-414.00442206557187
10
71.125374431927796
20
-414.98095944900888
10
66.355481792077299
20
-444.60691458577747
10
60.290176994778967
20
-443.63037720234047
10
62.193667590769373
20
-431.80773647266568
10
52.095238811623943
20
-430.18185062745556
10
50.191748215633545
20
-442.00449135713035
10
44.126443712569241
20
-441.02795402106614
10
48.896336352419752
20
-411.40199888429754
10
54.961640855484063
20
-412.37853622036187
10
52.949573678018339
20
-424.87554955641713
10
63.048002457163761
20
-426.50143540162719
0
LWPOLYLINE
5
125
100
AcDbEntity
8
0
100
AcDbPolyline
90
8
70
1
43
0.0
10
116.53903404500949
20
-424.48351330130333
10
122.76476661933431
20
-425.91415125493609
10
106.39065659090795
20
-452.94104502176111
10
99.459767152060849
20
-451.34836602932586
10
96.639498136075858
20
-419.91071307400063
10
101.75660648338791
20
-421.08659548255554
10
102.42880058894649
20
-428.3592364545961
10
112.71771966362202
20
-430.72357156767043
0
LWPOLYLINE
5
126
100
AcDbEntity
8
0
100
AcDbPolyline
90
3
70
1
43
0.0
10
103.66735760772806
20
-446.29652609841798
10
110.09236668952995
20
-435.32854543746168
10
102.68275299381304
20
-433.62585833224188
0
LWPOLYLINE
5
127
100
AcDbEntity
8
0
100
AcDbPolyline
90
13
70
1
43
0.0
10
170.27704292070723
20
-439.30707650190294
10
176.26097369130432
20
-441.11204292946587
10
167.59528755299417
20
-469.84103485946275
10
158.9453897212714
20
-467.23191791164902
10
158.92757982093042
20
-447.62899072536118
10
147.97636904927944
20
-463.92327100124805
10
139.37695189890013
20
-461.32938082302076
10
148.04263803721028
20
-432.60038889302393
10
153.00460485739609
20
-434.09709463185436
10
145.63836909948037
20
-458.5180722977824
10
160.02645870158003
20
-436.21513558752218
10
163.29557236616492
20
-437.20121658322091
10
162.91080716279154
20
-463.72805416783092
0
LWPOLYLINE
5
128
100
AcDbEntity
8
0
100
AcDbPolyline
90
12
70
1
43
0.0
10
203.87797814619714
20
-450.58984680358174
10
222.47166422433685
20
-457.47047779566122
10
220.59894913768329
20
-462.53115849124214
10
207.76683973031609
20
-457.78261055346178
10
205.23915282816853
20
-464.61323652605927
10
215.40868602334686
20
-468.37649277248971
10
213.63974216076571
20
-473.15675012222238
10
203.47020896558735
20
-469.39349387579193
10
201.03141764410702
20
-475.98389529303057
10
213.68327869798992
20
-480.6657419644755
10
211.87726487767182
20
-485.54617430657208
10
193.46382715301638
20
-478.73224458082802
0
LINE
5
129
100
AcDbEntity
8
0
100
AcDbLine
10
247.45250939018831
20
-467.49554785894935
30
-1.8369701987210296e-15
11
235.51833595328202
21
-495.02779436989294
31
1.8378867193887079e-15
0
LINE
5
130
100
AcDbEntity
8
0
100
AcDbLine
10
235.51833595328202
20
-495.02779436989294
30
1.8378867193887079e-15
11
245.76919281589159
21
-499.47114786183045
31
1.8378867193887075e-15
0
SPLINE
5
131
100
AcDbEntity
8
0
100
AcDbSpline
70
0
71
2
72
6
73
3
74
0
42
0.000000001
43
0.0000000001
44
0.0000000001
40
0
40
0
40
0
40
1
40
1
40
1
10
245.76919281589156
20
-499.47114786183045
30
1.8378867193887075e-15
10
251.42489293349669
20
-501.92267705628979
30
1.8378867193887075e-15
10
256.58279432368425
20
-499.40579815594157
30
1.3038672952022546e-15
0
SPLINE
5
132
100
AcDbEntity
8
0
100
AcDbSpline
70
0
71
2
72
6
73
3
74
0
42
0.000000001
43
0.0000000001
44
0.0000000001
40
0
40
0
40
0
40
1
40
1
40
1
10
256.58279432368425
20
-499.40579815594157
30
1.3038672952022546e-15
10
261.74069571387179
20
-496.88891925559335
30
7.6984787101580176e-16
10
264.2605436497073
20
-491.07560718112927
30
-6.0819131913754891e-18
0
SPLINE
5
133
100
AcDbEntity
8
0
100
AcDbSpline
70
0
71
2
72
6
73
3
74
0
42
0.000000001
43
0.0000000001
44
0.0000000001
40
0
40
0
40
0
40
1
40
1
40
1
10
264.2605436497073
20
-491.07560718112927
30
-6.0819131913754891e-18
10
266.78458645042025
20
-485.2526175152932
30
-7.8330341050266454e-16
10
264.97351314377579
20
-479.77890769872386
30
-1.3101369506011221e-15
0
SPLINE
5
134
100
AcDbEntity
8
0
100
AcDbSpline
70
0
71
2
72
6
73
3
74
0
42
0.000000001
43
0.0000000001
44
0.0000000001
40
0
40
0
40
0
40
1
40
1
40
1
10
264.97351314377579
20
-479.77890769872386
30
-1.3101369506011221e-15
10
263.16243670140443
20
-474.30519912146883
30
-1.8369701987210296e-15
10
256.62597186172155
20
-471.47189218336598
30
-1.8369701987210296e-15
0
LINE
5
135
100
AcDbEntity
8
0
100
AcDbLine
10
256.62597186172155
20
-471.47189218336598
30
-1.8369701987210296e-15
11
247.45250939018831
21
-467.49554785894935
31
-1.8369701987210296e-15
0
LINE
5
136
100
AcDbEntity
8
0
100
AcDbLine
10
251.17379385071101
20
-474.73395632508982
30
-1.2048868588142023e-15
11
254.76927115714258
21
-476.29245790781971
31
-1.2048868588142023e-15
0
SPLINE
5
137
100
AcDbEntity
8
0
100
AcDbSpline
70
0
71
2
72
6
73
3
74
0
42
0.000000001
43
0.0000000001
44
0.0000000001
40
0
40
0
40
0
40
1
40
1
40
1
10
254.76927115714258
20
-476.29245790781971
30
-1.2048868588142023e-15
10
257.82917286000884
20
-477.61880799724577
30
-1.2048868588142023e-15
10
258.9679230322256
20
-480.85150667841168
30
-8.9711431336837149e-16
0
SPLINE
5
138
100
AcDbEntity
8
0
100
AcDbSpline
70
0
71
2
72
6
73
3
74
0
42
0.000000001
43
0.0000000001
44
0.0000000001
40
0
40
0
40
0
40
1
40
1
40
1
10
258.9679230322256
20
-480.85150667841168
30
-8.9711431336837149e-16
10
260.10667429820268
20
-484.08420583368076
30
-5.8934176792254004e-16
10
258.09360946740588
20
-488.7283646819684
30
3.0535700690371803e-17
0
SPLINE
5
139
100
AcDbEntity
8
0
100
AcDbSpline
70
0
71
2
72
6
73
3
74
0
42
0.000000001
43
0.0000000001
44
0.0000000001
40
0
40
0
40
0
40
1
40
1
40
1
10
258.09360946740588
20
-488.7283646819684
30
3.0535700690371803e-17
10
256.45380037571249
20
-492.51141915005337
30
5.3547756506392428e-16
10
253.4636353752943
20
-494.27953786544822
30
8.7978451050482271e-16
0
SPLINE
5
140
100
AcDbEntity
8
0
100
AcDbSpline
70
0
71
2
72
6
73
3
74
0
42
0.000000001
43
0.0000000001
44
0.0000000001
40
0
40
0
40
0
40
1
40
1
40
1
10
253.4636353752943
20
-494.27953786544822
30
8.7978451050482271e-16
10
250.47347146863643
20
-496.04765705494617
30
1.224091455945721e-15
10
247.44914978920252
20
-494.73672954174759
30
1.224091455945721e-15
0
LINE
5
141
100
AcDbEntity
8
0
100
AcDbLine
10
247.44914978920249
20
-494.73672954174759
30
1.224091455945721e-15
11
243.28563680710562
21
-492.9320062687882
31
1.224091455945721e-15
0
LINE
5
142
100
AcDbEntity
8
0
100
AcDbLine
10
243.28563680710562
20
-492.9320062687882
30
1.224091455945721e-15
11
251.17379385071101
21
-474.73395632508982
31
-1.2048868588142023e-15
0
SPLINE
5
143
100
AcDbEntity
8
0
100
AcDbSpline
70
4
71
5
72
41
73
35
74
0
42
0.000000001
43
0.0000000001
44
0.0000000001
40
0
40
0
40
0
40
0
40
0
40
0
40
0.033333333333333333
40
0.066666666666666666
40
0.10000000000000001
40
0.13333333333333333
40
0.16666666666666666
40
0.19999999999999998
40
0.23333333333333331
40
0.26666666666666666
40
0.29999999999999999
40
0.33333333333333331
40
0.36666666666666664
40
0.39999999999999997
40
0.43333333333333329
40
0.46666666666666662
40
0.49999999999999994
40
0.53333333333333333
40
0.56666666666666665
40
0.59999999999999998
40
0.6333333333333333
40
0.66666666666666663
40
0.69999999999999996
40
0.73333333333333328
40
0.76666666666666661
40
0.79999999999999993
40
0.83333333333333326
40
0.86666666666666659
40
0.89999999999999991
40
0.93333333333333324
40
0.96666666666666656
40
1
40
1
40
1
40
1
40
1
40
1
41
1
41
1
41
1
41
1
41
1
41
1
41
1
41
1
41
1
41
1
41
1
41
1
41
1
41
1
41
1
41
1
41
1
41
1
41
1
41
1
41
1
41
1
41
1
41
1
41
1
41
1
41
1
41
1
41
1
41
1
41
1
41
1
41
1
41
1
41
1
10
-441.50395868343941
20
-709.15122131289968
30
0
10
-443.50140304977145
20
-713.24919831578984
30
0
10
-447.32069285484465
20
-721.27557545890772
30
0
10
-452.52283188400577
20
-732.80640922709358
30
0
10
-458.45538016750606
20
-747.22565716275335
30
0
10
-464.51777454709344
20
-764.02145147504302
30
0
10
-469.68703286734046
20
-780.05963485380698
30
0
10
-474.51098203704123
20
-795.8159437128229
30
0
10
-479.57311307218015
20
-811.6727848624912
30
0
10
-485.43982675641359
20
-827.81278226079121
30
0
10
-492.60986648506935
20
-844.12888933621412
30
0
10
-501.45763613715695
20
-860.09003945391578
30
0
10
-512.19493873355464
20
-874.75093462652364
30
0
10
-524.8583867323764
20
-886.95915332870084
30
0
10
-539.28839650101008
20
-895.51306738700191
30
0
10
-555.11095957339285
20
-899.33752661479741
30
0
10
-571.71339404815274
20
-897.65758952087504
30
0
10
-588.22720166612169
20
-890.16573799451578
30
0
10
-603.48808970621201
20
-877.22355097046511
30
0
10
-616.20436253154458
20
-859.7408192341145
30
0
10
-625.15190218259272
20
-839.01341645233242
30
0
10
-629.36310378656833
20
-816.58003337603748
30
0
10
-628.31443104331743
20
-794.07367027558746
30
0
10
-622.13290718216854
20
-773.07758264221638
30
0
10
-611.76671181239556
20
-754.97787966952274
30
0
10
-599.25751467203679
20
-740.81961050555401
30
0
10
-587.75683048761766
20
-731.15139836251774
30
0
10
-580.18633989169552
20
-725.93669306860522
30
0
10
-577.76233104082462
20
-724.38094026907993
30
0
10
-579.12582699196753
20
-724.93541092958867
30
0
10
-577.71166841555225
20
-724.81889867543475
30
0
10
-571.9041268676325
20
-723.1459730987151
30
0
10
-564.45475213202508
20
-720.80377787668169
30
0
10
-558.11769101172661
20
-718.76072673056115
30
0
10
-554.6063608443219
20
-717.61875414084943
30
0
0
SPLINE
5
144
100
AcDbEntity
8
0
100
AcDbSpline
70
4
71
5
72
41
73
35
74
0
42
0.000000001
43
0.0000000001
44
0.0000000001
40
0
40
0
40
0
40
0
40
0
40
0
40
0.033333333333333333
40
0.066666666666666666
40
0.10000000000000001
40
0.13333333333333333
40
0.16666666666666666
40
0.19999999999999998
40
0.23333333333333331
40
0.26666666666666666
40
0.29999999999999999
40
0.33333333333333331
40
0.36666666666666664
40
0.39999999999999997
40
0.43333333333333329
40
0.46666666666666662
40
0.49999999999999994
40
0.53333333333333333
40
0.56666666666666665
40
0.59999999999999998
40
0.6333333333333333
40
0.66666666666666663
40
0.69999999999999996
40
0.73333333333333328
40
0.76666666666666661
40
0.79999999999999993
40
0.83333333333333326
40
0.86666666666666659
40
0.89999999999999991
40
0.93333333333333324
40
0.96666666666666656
40
1
40
1
40
1
40
1
40
1
40
1
41
1
41
1
41
1
41
1
41
1
41
1
41
1
41
1
41
1
41
1
41
1
41
1
41
1
41
1
41
1
41
1
41
1
41
1
41
1
41
1
41
1
41
1
41
1
41
1
41
1
41
1
41
1
41
1
41
1
41
1
41
1
41
1
41
1
41
1
41
1
10
-441.50395868343941
20
-709.15122131289968
30
0
10
-437.73982344779455
20
-701.52027062388493
30
0
10
-430.52778787954071
20
-686.99250586704147
30
0
10
-420.65829357635596
20
-667.40310871458632
30
0
10
-409.04416625263087
20
-645.3531303015709
30
0
10
-395.11351604779117
20
-622.70585983436263
30
0
10
-379.35169676677788
20
-602.75699968895594
30
0
10
-359.52276310162563
20
-583.54502642403293
30
0
10
-334.33904130250795
20
-564.13826413912602
30
0
10
-303.51304571682863
20
-544.62218090328508
30
0
10
-267.46934039384041
20
-525.71400493100452
30
0
10
-227.16824440188805
20
-508.49255598863181
30
0
10
-183.8932418417684
20
-494.09998429705189
30
0
10
-139.04706089513772
20
-483.41656154952403
30
0
10
-93.983508888915281
20
-476.88356919352367
30
0
10
-49.911265949371383
20
-474.59593766616052
30
0
10
-7.7847863852221098
20
-476.32851973900836
30
0
10
31.812118846780201
20
-481.58732546722558
30
0
10
68.757845708599675
20
-489.64328586231022
30
0
10
103.55899664987007
20
-499.57976711153003
30
0
10
137.2860222580031
20
-510.30256234741614
30
0
10
171.10562359572606
20
-520.50115160084704
30
0
10
205.88495119166055
20
-528.60367208680736
30
0
10
241.80698805376846
20
-532.7653698805899
30
0
10
277.87826101108374
20
-530.7631766914277
30
0
10
311.78815848319846
20
-520.17385879294034
30
0
10
340.68321294561946
20
-499.22494821006063
30
0
10
361.80266049695655
20
-467.60125110986968
30
0
10
373.0891424039919
20
-427.11705968953203
30
0
10
374.01268926679916
20
-382.86461740120421
30
0
10
365.44843915441413
20
-342.41672866556434
30
0
10
352.17034208031305
20
-319.36176077359073
30
0
10
339.23747204113914
20
-310.12791730698109
30
0
10
329.38602992674714
20
-307.91731819788481
30
0
10
324.15296024606818
20
-307.79841368569458
30
0
0
SPLINE
5
145
100
AcDbEntity
8
0
100
AcDbSpline
70
4
71
5
72
21
73
15
74
0
42
0.000000001
43
0.0000000001
44
0.0000000001
40
0
40
0
40
0
40
0
40
0
40
0
40
0.10000000000000001
40
0.20000000000000001
40
0.30000000000000004
40
0.40000000000000002
40
0.5
40
0.59999999999999998
40
0.69999999999999996
40
0.79999999999999993
40
0.89999999999999991
40
1
40
1
40
1
40
1
40
1
40
1
41
1
41
1
41
1
41
1
41
1
41
1
41
1
41
1
41
1
41
1
41
1
41
1
41
1
41
1
41
1
10
-554.6063608443219
20
-717.61875414084943
30
0
10
-550.87388065923517
20
-696.52282756032776
30
0
10
-543.81778702021256
20
-656.08117599707475
30
0
10
-534.46013516662117
20
-600.668981130004
30
0
10
-524.15246767422229
20
-536.77032752063428
30
0
10
-513.27378468298684
20
-470.80321326965247
30
0
10
-502.32395517669545
20
-415.43113085052698
30
0
10
-489.14409005756693
20
-367.42916727371693
30
0
10
-471.87313657998919
20
-324.19093395433129
30
0
10
-449.37773209806863
20
-284.20453610403189
30
0
10
-421.74491679566052
20
-247.49939438433384
30
0
10
-396.07485119245337
20
-221.47912367445508
30
0
10
-375.16385591013312
20
-204.34766499473398
30
0
10
-360.53918128204157
20
-194.07068240155607
30
0
10
-353.05584423226571
20
-189.21821273789504
30
0
0
SPLINE
5
146
100
AcDbEntity
8
0
100
AcDbSpline
70
4
71
5
72
56
73
50
74
0
42
0.000000001
43
0.0000000001
44
0.0000000001
40
0
40
0
40
0
40
0
40
0
40
0
40
0.022222222222222223
40
0.044444444444444446
40
0.066666666666666666
40
0.088888888888888892
40
0.11111111111111112
40
0.13333333333333333
40
0.15555555555555556
40
0.17777777777777778
40
0.20000000000000001
40
0.22222222222222224
40
0.24444444444444446
40
0.26666666666666666
40
0.28888888888888886
40
0.31111111111111106
40
0.33333333333333326
40
0.35555555555555546
40
0.37777777777777766
40
0.39999999999999986
40
0.42222222222222205
40
0.44444444444444425
40
0.46666666666666645
40
0.48888888888888865
40
0.51111111111111085
40
0.5333333333333331
40
0.55555555555555536
40
0.57777777777777761
40
0.59999999999999987
40
0.62222222222222212
40
0.64444444444444438
40
0.66666666666666663
40
0.68888888888888888
40
0.71111111111111114
40
0.73333333333333339
40
0.75555555555555565
40
0.7777777777777779
40
0.80000000000000016
40
0.82222222222222241
40
0.84444444444444466
40
0.86666666666666692
40
0.88888888888888917
40
0.91111111111111143
40
0.93333333333333368
40
0.95555555555555594
40
0.97777777777777819
40
1
40
1
40
1
40
1
40
1
40
1
41
1
41
1
41
1
41
1
41
1
41
1
41
1
41
1
41
1
41
1
41
1
41
1
41
1
41
1
41
1
41
1
41
1
41
1
41
1
41
1
41
1
41
1
41
1
41
1
41
1
41
1
41
1
41
1
41
1
41
1
41
1
41
1
41
1
41
1
41
1
41
1
41
1
41
1
41
1
41
1
41
1
41
1
41
1
41
1
41
1
41
1
41
1
41
1
41
1
41
1
10
-278.48194381264904
20
-168.05687408219086
30
0
10
-273.38316624360164
20
-166.38021230295519
30
0
10
-263.02196164399265
20
-163.259096813908
30
0
10
-246.98920538626967
20
-159.2740485165892
30
0
10
-224.65829715337517
20
-155.3260459589342
30
0
10
-195.32822492487185
20
-152.49115621467868
30
0
10
-164.82253894474849
20
-151.50769895414058
30
0
10
-133.41310264869404
20
-152.08690319799499
30
0
10
-101.36792103540067
20
-153.93165897902855
30
0
10
-68.913085823994422
20
-156.77083271385263
30
0
10
-36.202038667706766
20
-160.38747026805436
30
0
10
-3.2665933467890174
20
-164.66210710737101
30
0
10
29.966855141607283
20
-169.56157558672456
30
0
10
63.579761194056594
20
-175.05746836307475
30
0
10
97.59448456319349
20
-181.07401153607756
30
0
10
131.87459431050181
20
-187.4000482783353
30
0
10
166.0849803567242
20
-193.67061198593638
30
0
10
199.51827161451598
20
-199.19129015750866
30
0
10
231.22750240376291
20
-203.12435546705146
30
0
10
259.43122159259838
20
-203.81597229612191
30
0
10
282.95137650645478
20
-200.52489607979109
30
0
10
301.93447943699937
20
-194.07198068173977
30
0
10
317.02370860334833
20
-185.66379818207116
30
0
10
329.12369006957169
20
-176.40992246508034
30
0
10
338.92184310945771
20
-166.56431192217173
30
0
10
346.49460445110162
20
-154.83251024757857
30
0
10
351.6127979222058
20
-139.50412198863251
30
0
10
354.08361201305092
20
-119.64363788617374
30
0
10
354.091824765301
20
-96.310415468769889
30
0
10
352.50408054942335
20
-73.633976544123286
30
0
10
350.33653962183706
20
-56.85158108304492
30
0
10
348.25602729375902
20
-50.475085210236287
30
0
10
346.08158250120147
20
-56.440629935558434
30
0
10
342.24735251223569
20
-72.171851092868437
30
0
10
334.721637803112
20
-92.34799949282106
30
0
10
321.94001528461422
20
-110.74450922187989
30
0
10
303.78788666567442
20
-122.10100692338375
30
0
10
282.41789025988874
20
-123.81394878339208
30
0
10
261.17397370820578
20
-115.37090275777891
30
0
10
243.60590225406699
20
-97.956983869744647
30
0
10
232.54574517185682
20
-73.992225788795864
30
0
10
228.93011923262011
20
-46.72703285731756
30
0
10
231.53228701085371
20
-19.733353326325251
30
0
10
238.03857677655756
20
3.7264390675411665
30
0
10
245.80653628897716
20
21.317333953309038
30
0
10
252.7283386560832
20
32.226089118379207
30
0
10
257.02580799904933
20
36.720529049132892
30
0
10
260.19370751599604
20
39.527266773478836
30
0
10
262.44059807004965
20
41.495589232880491
30
0
10
263.59790373452222
20
42.504214045450432
30
0
0
SPLINE
5
147
100
AcDbEntity
8
0
100
AcDbSpline
70
4
71
5
72
66
73
60
74
0
42
0.000000001
43
0.0000000001
44
0.0000000001
40
0
40
0
40
0
40
0
40
0
40
0
40
0.018181818181818181
40
0.036363636363636362
40
0.054545454545454543
40
0.072727272727272724
40
0.090909090909090912
40
0.1090909090909091
40
0.12727272727272729
40
0.14545454545454548
40
0.16363636363636366
40
0.18181818181818185
40
0.20000000000000004
40
0.21818181818181823
40
0.23636363636363641
40
0.25454545454545457
40
0.27272727272727276
40
0.29090909090909095
40
0.30909090909090914
40
0.32727272727272733
40
0.34545454545454551
40
0.3636363636363637
40
0.38181818181818189
40
0.40000000000000008
40
0.41818181818181827
40
0.43636363636363645
40
0.45454545454545464
40
0.47272727272727283
40
0.49090909090909102
40
0.50909090909090915
40
0.52727272727272734
40
0.54545454545454553
40
0.56363636363636371
40
0.5818181818181819
40
0.60000000000000009
40
0.61818181818181828
40
0.63636363636363646
40
0.65454545454545465
40
0.67272727272727284
40
0.69090909090909103
40
0.70909090909090922
40
0.7272727272727274
40
0.74545454545454559
40
0.76363636363636378
40
0.78181818181818197
40
0.80000000000000016
40
0.81818181818181834
40
0.83636363636363653
40
0.85454545454545472
40
0.87272727272727291
40
0.89090909090909109
40
0.90909090909090928
40
0.92727272727272747
40
0.94545454545454566
40
0.96363636363636385
40
0.98181818181818203
40
1
40
1
40
1
40
1
40
1
40
1
41
1
41
1
41
1
41
1
41
1
41
1
41
1
41
1
41
1
41
1
41
1
41
1
41
1
41
1
41
1
41
1
41
1
41
1
41
1
41
1
41
1
41
1
41
1
41
1
41
1
41
1
41
1
41
1
41
1
41
1
41
1
41
1
41
1
41
1
41
1
41
1
41
1
41
1
41
1
41
1
41
1
41
1
41
1
41
1
41
1
41
1
41
1
41
1
41
1
41
1
41
1
41
1
41
1
41
1
41
1
41
1
41
1
41
1
41
1
41
1
10
263.59790373452216
20
42.504214045450425
30
0
10
258.91349155166995
20
42.956611421280243
30
0
10
249.42819647240464
20
44.123309613407386
30
0
10
234.85084241603644
20
46.65906698169956
30
0
10
214.6749603778255
20
51.567118754816121
30
0
10
187.98201967004366
20
59.949535220756104
30
0
10
159.49919633393603
20
70.129571115893327
30
0
10
128.89721349713869
20
81.540017669515819
30
0
10
95.896863567518665
20
93.530384806314743
30
0
10
60.334036390446471
20
105.40124447950278
30
0
10
22.219418570520226
20
116.43778462236892
30
0
10
-18.187243130186587
20
125.94514538515588
30
0
10
-60.405635465435601
20
133.27070177454436
30
0
10
-103.78567782738111
20
137.82353184071263
30
0
10
-147.55027339047933
20
139.09504788060485
30
0
10
-190.84098549807743
20
136.67928379985483
30
0
10
-232.76247377530737
20
130.29379978219009
30
0
10
-272.42677862003171
20
119.80022927371084
30
0
10
-308.9990118745842
20
105.22637751543058
30
0
10
-341.73946194792273
20
86.785758025723098
30
0
10
-370.05502700538506
20
64.904410358424684
30
0
10
-393.521826151916
20
40.225972345099954
30
0
10
-411.85138971263837
20
13.571925620172529
30
0
10
-424.86745334700174
20
-14.087165402293545
30
0
10
-432.48261059191094
20
-41.66661821105609
30
0
10
-434.6667934919609
20
-67.994585350237202
30
0
10
-431.4394875211143
20
-91.854009083972954
30
0
10
-422.80279812849295
20
-111.98897864838692
30
0
10
-408.88897045212076
20
-127.23821814897541
30
0
10
-390.32068892752301
20
-136.79659127338687
30
0
10
-368.53605506793798
20
-140.45231881088378
30
0
10
-346.08482169571141
20
-138.8153240225777
30
0
10
-327.0541729555336
20
-133.60336274120806
30
0
10
-315.59158838350726
20
-126.9698027138304
30
0
10
-314.53802073513543
20
-120.84270107309965
30
0
10
-323.55682569449533
20
-116.11623408272254
30
0
10
-339.03668442790979
20
-112.39759840665678
30
0
10
-356.45532248572516
20
-108.60371362617255
30
0
10
-372.48542018327885
20
-103.35572077363393
30
0
10
-385.17798217921148
20
-95.419218335380393
30
0
10
-393.38847667048327
20
-84.067668213530624
30
0
10
-396.4343802720341
20
-69.531347546516457
30
0
10
-393.75662147941705
20
-53.248846930221916
30
0
10
-385.17153086037501
20
-37.259800344607342
30
0
10
-370.99410625699738
20
-23.754160581221274
30
0
10
-352.2829803863259
20
-14.485640867966707
30
0
10
-330.71233113332994
20
-10.593746859245602
30
0
10
-308.23708348834612
20
-12.652921327335577
30
0
10
-286.81789483798934
20
-20.650939036750906
30
0
10
-268.12816229015857
20
-33.998577595393186
30
0
10
-253.25080292490597
20
-51.514941853439709
30
0
10
-242.78656604803129
20
-71.647043253731681
30
0
10
-236.98824980047391
20
-92.701225409026321
30
0
10
-235.8834895617349
20
-113.06725647614527
30
0
10
-239.40389889255488
20
-131.45169426237169
30
0
10
-247.50483977452572
20
-147.09038369836611
30
0
10
-257.62714211600849
20
-157.1007591920378
30
0
10
-267.26087084039182
20
-163.14694549390305
30
0
10
-274.59041002310136
20
-166.5284448119242
30
0
10
-278.48194381264904
20
-168.05687408219086
30
0
0
SPLINE
5
148
100
AcDbEntity
8
0
100
AcDbSpline
70
4
71
5
72
76
73
70
74
0
42
0.000000001
43
0.0000000001
44
0.0000000001
40
0
40
0
40
0
40
0
40
0
40
0
40
0.015384615384615385
40
0.030769230769230771
40
0.046153846153846156
40
0.061538461538461542
40
0.076923076923076927
40
0.092307692307692313
40
0.1076923076923077
40
0.12307692307692308
40
0.13846153846153847
40
0.15384615384615385
40
0.16923076923076924
40
0.18461538461538463
40
0.20000000000000001
40
0.2153846153846154
40
0.23076923076923078
40
0.24615384615384617
40
0.26153846153846155
40
0.27692307692307694
40
0.29230769230769232
40
0.30769230769230771
40
0.32307692307692309
40
0.33846153846153848
40
0.35384615384615387
40
0.36923076923076925
40
0.38461538461538464
40
0.40000000000000002
40
0.41538461538461541
40
0.43076923076923079
40
0.44615384615384618
40
0.46153846153846156
40
0.47692307692307695
40
0.49230769230769234
40
0.50769230769230766
40
0.52307692307692299
40
0.53846153846153832
40
0.55384615384615365
40
0.56923076923076898
40
0.58461538461538431
40
0.59999999999999964
40
0.61538461538461497
40
0.6307692307692303
40
0.64615384615384563
40
0.66153846153846096
40
0.67692307692307629
40
0.69230769230769162
40
0.70769230769230695
40
0.72307692307692228
40
0.73846153846153761
40
0.75384615384615294
40
0.76923076923076827
40
0.7846153846153836
40
0.79999999999999893
40
0.81538461538461426
40
0.83076923076922959
40
0.84615384615384492
40
0.86153846153846025
40
0.87692307692307558
40
0.89230769230769091
40
0.90769230769230624
40
0.92307692307692157
40
0.9384615384615369
40
0.95384615384615223
40
0.96923076923076756
40
0.98461538461538289
40
1
40
1
40
1
40
1
40
1
40
1
41
1
41
1
41
1
41
1
41
1
41
1
41
1
41
1
41
1
41
1
41
1
41
1
41
1
41
1
41
1
41
1
41
1
41
1
41
1
41
1
41
1
41
1
41
1
41
1
41
1
41
1
41
1
41
1
41
1
41
1
41
1
41
1
41
1
41
1
41
1
41
1
41
1
41
1
41
1
41
1
41
1
41
1
41
1
41
1
41
1
41
1
41
1
41
1
41
1
41
1
41
1
41
1
41
1
41
1
41
1
41
1
41
1
41
1
41
1
41
1
41
1
41
1
41
1
41
1
41
1
41
1
41
1
41
1
41
1
41
1
10
-353.05584423226571
20
-189.21821273789504
30
0
10
-358.64924217289007
20
-192.47592706379518
30
0
10
-369.58758148629761
20
-198.26924363819177
30
0
10
-385.2497294512039
20
-204.79285919884006
30
0
10
-404.64122162067724
20
-209.15682480446503
30
0
10
-426.37271593915557
20
-207.47512016480596
30
0
10
-445.53392086048626
20
-198.9382975651547
30
0
10
-462.00674516262433
20
-184.11582213806921
30
0
10
-475.59263257875051
20
-163.98339043453376
30
0
10
-486.01487473097359
20
-139.96981211612808
30
0
10
-493.02991391977145
20
-113.72297665069836
30
0
10
-496.51864449045422
20
-86.922242761958003
30
0
10
-496.59288195308653
20
-61.066033026682106
30
0
10
-493.67920247696924
20
-37.285497221752834
30
0
10
-488.65640701558164
20
-16.105755682534507
30
0
10
-482.636606687013
20
2.4771534532143757
30
0
10
-476.62107259261035
20
18.83667100977825
30
0
10
-471.25297603583584
20
33.584064554188359
30
0
10
-466.40068737985132
20
47.426899789755865
30
0
10
-461.28465597408825
20
61.029057072520196
30
0
10
-455.19702892901489
20
74.878983143849084
30
0
10
-448.14222645400275
20
89.13514684795706
30
0
10
-441.30709887105729
20
103.53932153765855
30
0
10
-436.41095450998114
20
117.66899817878452
30
0
10
-435.20799669099904
20
131.12937219408479
30
0
10
-438.94914254662797
20
143.80178251258019
30
0
10
-447.72949938989234
20
155.74981372288607
30
0
10
-459.84979360072396
20
167.07656867273241
30
0
10
-471.06360230576411
20
177.79162493946245
30
0
10
-476.21782232546394
20
187.83436529667387
30
0
10
-471.02545711072253
20
197.11006169300521
30
0
10
-453.81519402925215
20
205.52130618959634
30
0
10
-425.00980888347181
20
212.97592158454006
30
0
10
-386.570994332331
20
219.39361034693877
30
0
10
-341.45593809436059
20
224.71325825848635
30
0
10
-293.07995036305692
20
228.89975009585837
30
0
10
-244.75662845917196
20
231.95161543468504
30
0
10
-199.1968954466916
20
233.90704658892707
30
0
10
-157.859141049095
20
234.8540302088806
30
0
10
-120.91127003305751
20
234.92385324093092
30
0
10
-87.61977619383137
20
234.27301219710697
30
0
10
-56.610822828943135
20
233.06861985030366
30
0
10
-26.183697176775528
20
231.47235473783019
30
0
10
5.4007491329162862
20
229.62514818813273
30
0
10
39.616833409561416
20
227.63128106991164
30
0
10
77.386963674929035
20
225.54327652494129
30
0
10
118.75955890327332
20
223.34477808109938
30
0
10
163.07172743564263
20
220.96177829439483
30
0
10
209.15041591280249
20
218.27609332135131
30
0
10
255.49901500515287
20
215.13797062303672
30
0
10
300.48899515227055
20
211.37897355837777
30
0
10
342.55013691662867
20
206.82479185534737
30
0
10
380.35887810752973
20
201.30789247977344
30
0
10
413.03362247939361
20
194.6806729880731
30
0
10
440.31400267799648
20
186.82743866835963
30
0
10
462.78503568171089
20
177.67964215836668
30
0
10
481.48542839809602
20
167.18495655379567
30
0
10
497.45820987979471
20
155.27139679918281
30
0
10
511.32747853894392
20
141.81476995778044
30
0
10
522.85182622130435
20
126.60110111612242
30
0
10
530.51963799997452
20
109.30100606568817
30
0
10
532.37533254517894
20
89.807293779084631
30
0
10
526.81364021442198
20
68.564461200706432
30
0
10
513.37918661224148
20
46.897855751722645
30
0
10
493.5839090928892
20
27.355356413828645
30
0
10
470.08960154352116
20
13.070628268654636
30
0
10
450.71231511089513
20
8.3045950330905143
30
0
10
436.95504773525965
20
9.5394114501165994
30
0
10
428.27432131204029
20
12.633830023881387
30
0
10
424.05665620828222
20
14.74884241963027
30
0
0
SPLINE
5
149
100
AcDbEntity
8
0
100
AcDbSpline
70
4
71
5
72
26
73
20
74
0
42
0.000000001
43
0.0000000001
44
0.0000000001
40
0.65835885643888747
40
0.65835885643888747
40
0.65835885643888747
40
0.65835885643888747
40
0.65835885643888747
40
0.65835885643888747
40
0.66206896551724237
40
0.66896551724138031
40
0.67586206896551826
40
0.6827586206896562
40
0.68965517241379415
40
0.69655172413793209
40
0.70344827586207004
40
0.71034482758620798
40
0.71724137931034593
40
0.72413793103448387
40
0.73103448275862182
40
0.73793103448275976
40
0.74482758620689771
40
0.75172413793103565
40
0.75269823630022858
40
0.75269823630022858
40
0.75269823630022858
40
0.75269823630022858
40
0.75269823630022858
40
0.75269823630022858
41
1
41
1
41
1
41
1
41
1
41
1
41
1
41
1
41
1
41
1
41
1
41
1
41
1
41
1
41
1
41
1
41
1
41
1
41
1
41
1
10
416.03728151343432
20
40.662250418908243
30
0
10
414.97062597625768
20
42.673720692575756
30
0
10
412.25848637925583
20
48.476712041182786
30
0
10
409.46603260727886
20
58.121929579272908
30
0
10
409.96786716464123
20
70.562020603874558
30
0
10
419.00986796443522
20
81.837626891766192
30
0
10
436.8481932165875
20
87.408061180562868
30
0
10
456.0588469039032
20
89.399957077402007
30
0
10
469.51699732476186
20
92.182867147379127
30
0
10
471.80437212819669
20
99.045053710821591
30
0
10
462.76954797741575
20
108.77786841334898
30
0
10
446.41543122304461
20
116.85425993826142
30
0
10
427.6266550519781
20
118.69538999889929
30
0
10
409.17517874479751
20
112.71974010403689
30
0
10
391.71807658359285
20
100.07832604935112
30
0
10
377.55029691137514
20
86.358284103073402
30
0
10
366.2807527134683
20
75.736752968828839
30
0
10
358.10201804189649
20
68.937332112468013
30
0
10
353.57050508761245
20
65.503772210047146
30
0
10
353.00697140898228
20
65.081859437184391
30
0
0
SPLINE
5
150
100
AcDbEntity
8
0
100
AcDbSpline
70
4
71
5
72
15
73
9
74
0
42
0.000000001
43
0.0000000001
44
0.0000000001
40
0.74323864580488219
40
0.74323864580488219
40
0.74323864580488219
40
0.74323864580488219
40
0.74323864580488219
40
0.74323864580488219
40
0.74999999999999933
40
0.76249999999999929
40
0.77499999999999925
40
0.78038853442001455
40
0.78038853442001455
40
0.78038853442001455
40
0.78038853442001455
40
0.78038853442001455
40
0.78038853442001455
41
1
41
1
41
1
41
1
41
1
41
1
41
1
41
1
41
1
10
353.00697074689873
20
65.081858913230462
30
0
10
355.31129470118412
20
64.843515106072232
30
0
10
361.91165375962134
20
64.025500376612214
30
0
10
372.9336655926146
20
61.991652434925477
30
0
10
385.91378895543249
20
58.118060884625535
30
0
10
398.62679148410484
20
52.235002794494712
30
0
10
408.6276844426917
20
46.04966718934228
30
0
10
414.33535363096604
20
41.941701837263636
30
0
10
416.03728108162341
20
40.662249844513447
30
0
0
SPLINE
5
151
100
AcDbEntity
8
0
100
AcDbSpline
70
4
71
5
72
31
73
25
74
0
42
0.000000001
43
0.0000000001
44
0.0000000001
40
0
40
0
40
0
40
0
40
0
40
0
40
0.050000000000000003
40
0.10000000000000001
40
0.15000000000000002
40
0.20000000000000001
40
0.25
40
0.29999999999999999
40
0.34999999999999998
40
0.39999999999999997
40
0.44999999999999996
40
0.49999999999999994
40
0.54999999999999993
40
0.59999999999999998
40
0.65000000000000002
40
0.70000000000000007
40
0.75000000000000011
40
0.80000000000000016
40
0.8500000000000002
40
0.90000000000000024
40
0.95000000000000029
40
1
40
1
40
1
40
1
40
1
40
1
41
1
41
1
41
1
41
1
41
1
41
1
41
1
41
1
41
1
41
1
41
1
41
1
41
1
41
1
41
1
41
1
41
1
41
1
41
1
41
1
41
1
41
1
41
1
41
1
41
1
10
424.05665620828222
20
14.74884241963027
30
0
10
426.23932100923577
20
11.938021625674205
30
0
10
430.31412724610874
20
6.0899428596113179
30
0
10
435.55482165846183
20
-3.3613811190565639
30
0
10
440.91659162811845
20
-17.144179269064907
30
0
10
445.55253093517285
20
-35.396911963256187
30
0
10
448.8751414718497
20
-53.631081358945856
30
0
10
451.53067270939829
20
-71.06127777486688
30
0
10
453.79266540645312
20
-87.619025553091006
30
0
10
455.44385730977405
20
-104.11432874137867
30
0
10
456.00548478962656
20
-121.7021729537845
30
0
10
454.90230502143964
20
-141.46809021545923
30
0
10
451.6348864498683
20
-164.01800289487798
30
0
10
445.9925696288235
20
-188.93068983762663
30
0
10
438.0693892575203
20
-214.81948535653214
30
0
10
428.13596454065032
20
-239.83912145114246
30
0
10
416.56148767973212
20
-262.03946822480384
30
0
10
403.71550691950455
20
-279.80328081691732
30
0
10
389.88988718384127
20
-292.19832338210762
30
0
10
375.19065111217208
20
-299.51630177155459
30
0
10
359.51924945233986
20
-303.276389563755
30
0
10
346.05550757550731
20
-304.97535945945231
30
0
10
335.35113756569041
20
-306.28188883523683
30
0
10
327.93271839676385
20
-307.27288672708193
30
0
10
324.15296024606818
20
-307.79841368569458
30
0
0
LWPOLYLINE
5
152
100
AcDbEntity
8
0
100
AcDbPolyline
90
4
70
1
43
0.0
10
-539.75891304125582
20
-803.52990597470705
10
-528.20451879529242
20
-804.55751173999215
10
-516.61397546677392
20
-750.7926597886501
10
-528.16836971273733
20
-749.765054023365
0
LWPOLYLINE
5
153
100
AcDbEntity
8
0
100
AcDbPolyline
90
4
70
1
43
0.0
10
-509.95550813627381
20
-665.28136947861242
10
-498.61601208835441
20
-667.72592043517261
10
-487.02546875983586
20
-613.96106848383067
10
-498.36496480775531
20
-611.51651752727037
0
LWPOLYLINE
5
154
100
AcDbEntity
8
0
100
AcDbPolyline
90
4
70
1
43
0.0
10
-469.11281088848915
20
-530.86993364993816
10
-480.45230693640855
20
-528.42538269337797
10
-468.86176360788994
20
-474.6605307420358
10
-457.52226755997071
20
-477.105081698596
0
LWPOLYLINE
5
155
100
AcDbEntity
8
0
100
AcDbPolyline
90
4
70
1
43
0.0
10
-446.50790586890014
20
-401.26848072302425
10
-436.06176627867939
20
-406.31210716256373
10
-412.14802022913818
20
-356.78299703651726
10
-422.59415981935877
20
-351.73937059697772
0
LWPOLYLINE
5
156
100
AcDbEntity
8
0
100
AcDbPolyline
90
4
70
1
43
0.0
10
-362.75111394370293
20
-273.29419102351676
10
-355.01008020023215
20
-281.93342690306343
10
-307.43983957208007
20
-254.32777156616353
10
-315.18087331555103
20
-245.68853568661689
0
LWPOLYLINE
5
157
100
AcDbEntity
8
0
100
AcDbPolyline
90
4
70
1
43
0.0
10
-229.70108397068455
20
-208.76181756430123
10
-228.04384679341965
20
-220.24282644585384
10
-173.28672868736422
20
-215.07968624637272
10
-174.94396586462921
20
-203.59867736482011
0
LWPOLYLINE
5
158
100
AcDbEntity
8
0
100
AcDbPolyline
90
4
70
1
43
0.0
10
-89.380309342118096
20
-197.59627669589224
10
-89.380309342118096
20
-209.19627669589227
10
-34.587292114073506
20
-213.96337886043707
10
-34.587292114073506
20
-202.36337886043708
0
LWPOLYLINE
5
159
100
AcDbEntity
8
0
100
AcDbPolyline
90
4
70
1
43
0.0
10
50.186908498338774
20
-209.69508453034661
10
50.186908498338774
20
-221.3389039853821
10
104.97992572638339
20
-226.10600614992691
10
105.98535091017825
20
-214.54966069819389
0
LWPOLYLINE
5
160
100
AcDbEntity
8
0
100
AcDbPolyline
90
4
70
1
43
0.0
10
191.13666310314562
20
-221.95799528541869
10
190.13123791935072
20
-233.51434073715171
10
244.92425514739529
20
-238.28144290169661
10
245.92968033119021
20
-226.72509744996347
0
SPLINE
5
161
100
AcDbEntity
8
0
100
AcDbSpline
70
4
71
5
72
33
73
27
74
0
42
0.000000001
43
0.0000000001
44
0.0000000001
40
0
40
0
40
0
40
0
40
0
40
0
40
0.040000000000000001
40
0.080000000000000002
40
0.12
40
0.16
40
0.20000000000000001
40
0.24000000000000002
40
0.28000000000000003
40
0.32000000000000001
40
0.35999999999999999
40
0.39999999999999997
40
0.43999999999999995
40
0.47999999999999993
40
0.51999999999999991
40
0.55999999999999994
40
0.59999999999999998
40
0.64000000000000001
40
0.68000000000000005
40
0.72000000000000008
40
0.76000000000000012
40
0.80000000000000016
40
0.84000000000000019
40
0.87206723477334125
40
0.87206723477334125
40
0.87206723477334125
40
0.87206723477334125
40
0.87206723477334125
40
0.87206723477334125
41
1
41
1
41
1
41
1
41
1
41
1
41
1
41
1
41
1
41
1
41
1
41
1
41
1
41
1
41
1
41
1
41
1
41
1
41
1
41
1
41
1
41
1
41
1
41
1
41
1
41
1
41
1
10
312.5695976477034
20
-309.21495500906138
30
0
10
308.6661079972406
20
-310.23078425912161
30
0
10
301.04744161509262
20
-313.06395347380766
30
0
10
290.18438023778208
20
-319.71786394298596
30
0
10
277.07133971722652
20
-332.81002997935695
30
0
10
264.30538047506911
20
-352.99002611152531
30
0
10
256.78104261480377
20
-373.27983281859844
30
0
10
255.92608692101356
20
-390.58156468541119
30
0
10
262.52263275258258
20
-403.88198307069138
30
0
10
276.18818704769888
20
-414.49469358491638
30
0
10
294.54939439404069
20
-423.95937844462816
30
0
10
312.71085979939107
20
-432.74375059518718
30
0
10
322.00598386521966
20
-438.00102410418611
30
0
10
311.71325575113224
20
-434.61109708438971
30
0
10
274.11275516326259
20
-419.81032580144711
30
0
10
206.90800581089607
20
-394.94095950327085
30
0
10
120.85961162164571
20
-372.91389357496939
30
0
10
25.736328867329807
20
-361.35109358505304
30
0
10
-70.406540374856789
20
-363.11192476940988
30
0
10
-160.83368303815331
20
-377.67382492239722
30
0
10
-240.35117372237363
20
-401.95976569152765
30
0
10
-305.26193820799523
20
-431.35459659494785
30
0
10
-351.5772725098476
20
-459.49523177215428
30
0
10
-375.8619298859565
20
-478.15403133583925
30
0
10
-387.55295525075906
20
-488.65455354448329
30
0
10
-392.78676955936339
20
-493.8895582889146
30
0
10
-394.69647111199828
20
-495.91542005205275
30
0
0
SPLINE
5
162
100
AcDbEntity
8
0
100
AcDbSpline
70
4
71
5
72
26
73
20
74
0
42
0.000000001
43
0.0000000001
44
0.0000000001
40
0
40
0
40
0
40
0
40
0
40
0
40
0.066666666666666666
40
0.13333333333333333
40
0.20000000000000001
40
0.26666666666666666
40
0.33333333333333331
40
0.39999999999999997
40
0.46666666666666662
40
0.53333333333333333
40
0.59999999999999998
40
0.66666666666666663
40
0.73333333333333328
40
0.79999999999999993
40
0.86666666666666659
40
0.93333333333333324
40
0.99303349359939252
40
0.99303349359939252
40
0.99303349359939252
40
0.99303349359939252
40
0.99303349359939252
40
0.99303349359939252
41
1
41
1
41
1
41
1
41
1
41
1
41
1
41
1
41
1
41
1
41
1
41
1
41
1
41
1
41
1
41
1
41
1
41
1
41
1
41
1
10
312.5695976477034
20
-309.21495500906138
30
0
10
306.55371001896532
20
-309.85419572305602
30
0
10
294.69413357717536
20
-311.06147578488373
30
0
10
277.42243623237482
20
-312.65937977845221
30
0
10
254.26372730302626
20
-313.87208400489942
30
0
10
219.60637929723197
20
-311.74560728717262
30
0
10
174.05924136943
20
-304.38186980679859
30
0
10
116.28627315184684
20
-292.45562348383692
30
0
10
48.32124036996391
20
-278.5265230589003
30
0
10
-25.770320879937849
20
-266.18708808625729
30
0
10
-100.81164971465988
20
-259.43142372913809
30
0
10
-171.58558442964983
20
-261.91042708071166
30
0
10
-233.7218107146943
20
-276.30210316046924
30
0
10
-284.93218246641072
20
-303.37106917975177
30
0
10
-325.31647115558764
20
-341.8127261077388
30
0
10
-355.61516876839914
20
-388.31108528820539
30
0
10
-374.06655279465502
20
-430.16898226042554
30
0
10
-385.37335192643184
20
-463.0834530948851
30
0
10
-391.84476213972795
20
-485.28378568283858
30
0
10
-394.69647111226561
20
-495.9154200519813
30
0
0
ENDSEC
0
SECTION
2
OBJECTS
0
DICTIONARY
5
C
100
AcDbDictionary
3
ACAD_GROUP
350
D
3
ACAD_MLINESTYLE
350
17
0
DICTIONARY
5
D
100
AcDbDictionary
0
DICTIONARY
5
1A
330
C
100
AcDbDictionary
0
DICTIONARY
5
17
100
AcDbDictionary
0
ENDSEC
0
EOF
