0
SECTION
2
HEADER
9
$INSUNITS
70
4
9
$ACADVER
1
AC1014
9
$HANDSEED
5
FFFF
0
ENDSEC
0
SECTION
2
TABLES
0
TABLE
2
VPORT
5
8
100
AcDbSymbolTable
0
ENDTAB
0
TABLE
2
LTYPE
5
5
100
AcDbSymbolTable
0
LTYPE
5
14
100
AcDbSymbolTableRecord
100
AcDbLinetypeTableRecord
2
BYBLOCK
70
0
0
LTYPE
5
15
100
AcDbSymbolTableRecord
100
AcDbLinetypeTableRecord
2
BYLAYER
70
0
0
ENDTAB
0
TABLE
2
LAYER
5
2
100
AcDbSymbolTable
70
2
0
LAYER
5
50
100
AcDbSymbolTableRecord
100
AcDbLayerTableRecord
2
0
70
0
6
CONTINUOUS
0
ENDTAB
0
TABLE
2
STYLE
5
3
100
AcDbSymbolTable
70
1
0
STYLE
5
11
100
AcDbSymbolTableRecord
100
AcDbTextStyleTableRecord
2
STANDARD
70
0
0
ENDTAB
0
TABLE
2
VIEW
5
6
100
AcDbSymbolTable
70
0
0
ENDTAB
0
TABLE
2
UCS
5
7
100
AcDbSymbolTable
70
0
0
ENDTAB
0
TABLE
2
APPID
5
9
100
AcDbSymbolTable
70
2
0
APPID
5
12
100
AcDbSymbolTableRecord
100
AcDbRegAppTableRecord
2
ACAD
70
0
0
ENDTAB
0
TABLE
2
DIMSTYLE
5
A
100
AcDbSymbolTable
70
1
0
ENDTAB
0
TABLE
2
BLOCK_RECORD
5
1
100
AcDbSymbolTable
70
1
0
BLOCK_RECORD
5
1F
100
AcDbSymbolTableRecord
100
AcDbBlockTableRecord
2
*MODEL_SPACE
0
BLOCK_RECORD
5
1B
100
AcDbSymbolTableRecord
100
AcDbBlockTableRecord
2
*PAPER_SPACE
0
ENDTAB
0
ENDSEC
0
SECTION
2
BLOCKS
0
BLOCK
5
20
100
AcDbEntity
100
AcDbBlockBegin
2
*MODEL_SPACE
0
ENDBLK
5
21
100
AcDbEntity
100
AcDbBlockEnd
0
BLOCK
5
1C
100
AcDbEntity
100
AcDbBlockBegin
2
*PAPER_SPACE
0
ENDBLK
5
1D
100
AcDbEntity
100
AcDbBlockEnd
0
ENDSEC
0
SECTION
2
ENTITIES
0
LWPOLYLINE
5
100
100
AcDbEntity
8
0
100
AcDbPolyline
90
6
70
1
43
0.0
10
-323.41359221284051
20
656.045758931808
10
-299.43971031354886
20
569.29754288860136
10
-362.57892819030019
20
505.16144411488381
10
-449.69202796634386
20
527.77356138437221
10
-473.6659098656358
20
614.52177742757817
10
-410.52669198888407
20
678.65787620129606
0
LINE
5
101
100
AcDbEntity
8
0
100
AcDbLine
10
-437.89977858470422
20
650.85260643887977
30
0
11
-423.89775140231336
21
637.06821571526314
31
0
0
LINE
5
102
100
AcDbEntity
8
0
100
AcDbLine
10
-423.89775140231336
20
637.06821571526314
30
0
11
-423.33651391007578
21
637.63831437102942
31
0
0
LINE
5
103
100
AcDbEntity
8
0
100
AcDbLine
10
-423.33651391007578
20
637.63831437102942
30
0
11
-437.33854109246852
21
651.42270509464413
31
0
0
LINE
5
104
100
AcDbEntity
8
0
100
AcDbLine
10
-360.60324306498967
20
665.69914916177379
30
0
11
-365.53534357541162
21
646.69824983203341
31
0
0
LINE
5
105
100
AcDbEntity
8
0
100
AcDbLine
10
-365.53534357541162
20
646.69824983203341
30
0
11
-366.30968224008774
21
646.89924642998403
31
0
0
LINE
5
106
100
AcDbEntity
8
0
100
AcDbLine
10
-366.30968224008774
20
646.89924642998403
30
0
11
-361.37758172966619
21
665.90014575972521
31
0
0
LINE
5
107
100
AcDbEntity
8
0
100
AcDbLine
10
-310.73682913747456
20
610.17556625254554
30
0
11
-337.87763734475539
21
602.67488715744344
31
0
0
LINE
5
108
100
AcDbEntity
8
0
100
AcDbLine
10
-337.87763734475539
20
602.67488715744344
30
0
11
-337.66453617231718
21
601.90379190372607
31
0
0
LINE
5
109
100
AcDbEntity
8
0
100
AcDbLine
10
-337.66453617231718
20
601.90379190372607
30
0
11
-310.52372796503641
21
609.40447099882829
31
0
0
CIRCLE
5
110
100
AcDbEntity
8
0
100
AcDbCircle
10
-386.55281008959213
20
591.90966015808976
30
0
40
7.8228114900651491
210
0
220
0
230
1
0
LWPOLYLINE
5
111
100
AcDbEntity
8
0
100
AcDbPolyline
90
6
70
1
43
0.0
10
-271.28597654621012
20
653.89444568942986
10
-263.61004533455559
20
639.40065716455945
10
-272.32406878834547
20
625.50621147512959
10
-288.71402345378993
20
626.10555431057014
10
-296.38995466544446
20
640.59934283544055
10
-287.67593121165453
20
654.49378852487041
0
LINE
5
112
100
AcDbEntity
8
0
100
AcDbLine
10
-340.27712591085526
20
555.18528785533965
30
0
11
-339.71893701507327
21
555.75837175550214
31
0
0
LINE
5
113
100
AcDbEntity
8
0
100
AcDbLine
10
-339.71893701507327
20
555.75837175550214
30
0
11
-325.64359011378656
21
542.04885672227886
31
0
0
LINE
5
114
100
AcDbEntity
8
0
100
AcDbLine
10
-326.20177900956668
20
541.47577282211819
30
0
11
-340.27712591085526
21
555.18528785533965
31
0
0
LINE
5
115
100
AcDbEntity
8
0
100
AcDbLine
10
-394.41237929946516
20
532.69570799851317
30
0
11
-395.18902937672721
21
532.88757945936391
31
0
0
LINE
5
116
100
AcDbEntity
8
0
100
AcDbLine
10
-395.18902937672721
20
532.88757945936391
30
0
11
-399.89721518505513
21
513.82996215871174
31
0
0
LINE
5
117
100
AcDbEntity
8
0
100
AcDbLine
10
-399.12056510779252
20
513.63809069786146
30
0
11
-394.41237929946516
21
532.69570799851317
31
0
0
LINE
5
118
100
AcDbEntity
8
0
100
AcDbLine
10
-460.98914679026933
20
568.65158474831594
30
0
11
-433.84833858298856
21
576.15226384341827
31
0
0
LINE
5
119
100
AcDbEntity
8
0
100
AcDbLine
10
-433.84833858298856
20
576.15226384341827
30
0
11
-433.63523741055042
21
575.38116858970079
31
0
0
LINE
5
120
100
AcDbEntity
8
0
100
AcDbLine
10
-433.63523741055042
20
575.38116858970079
30
0
11
-460.77604561783119
21
567.88048949459881
31
0
0
ENDSEC
0
SECTION
2
OBJECTS
0
DICTIONARY
5
C
100
AcDbDictionary
3
ACAD_GROUP
350
D
3
ACAD_MLINESTYLE
350
17
0
DICTIONARY
5
D
100
AcDbDictionary
0
DICTIONARY
5
1A
330
C
100
AcDbDictionary
0
DICTIONARY
5
17
100
AcDbDictionary
0
ENDSEC
0
EOF
