0
SECTION
2
HEADER
9
$INSUNITS
70
4
9
$ACADVER
1
AC1014
9
$HANDSEED
5
FFFF
0
ENDSEC
0
SECTION
2
TABLES
0
TABLE
2
VPORT
5
8
100
AcDbSymbolTable
0
ENDTAB
0
TABLE
2
LTYPE
5
5
100
AcDbSymbolTable
0
LTYPE
5
14
100
AcDbSymbolTableRecord
100
AcDbLinetypeTableRecord
2
BYBLOCK
70
0
0
LTYPE
5
15
100
AcDbSymbolTableRecord
100
AcDbLinetypeTableRecord
2
BYLAYER
70
0
0
ENDTAB
0
TABLE
2
LAYER
5
2
100
AcDbSymbolTable
70
2
0
LAYER
5
50
100
AcDbSymbolTableRecord
100
AcDbLayerTableRecord
2
0
70
0
6
CONTINUOUS
0
ENDTAB
0
TABLE
2
STYLE
5
3
100
AcDbSymbolTable
70
1
0
STYLE
5
11
100
AcDbSymbolTableRecord
100
AcDbTextStyleTableRecord
2
STANDARD
70
0
0
ENDTAB
0
TABLE
2
VIEW
5
6
100
AcDbSymbolTable
70
0
0
ENDTAB
0
TABLE
2
UCS
5
7
100
AcDbSymbolTable
70
0
0
ENDTAB
0
TABLE
2
APPID
5
9
100
AcDbSymbolTable
70
2
0
APPID
5
12
100
AcDbSymbolTableRecord
100
AcDbRegAppTableRecord
2
ACAD
70
0
0
ENDTAB
0
TABLE
2
DIMSTYLE
5
A
100
AcDbSymbolTable
70
1
0
ENDTAB
0
TABLE
2
BLOCK_RECORD
5
1
100
AcDbSymbolTable
70
1
0
BLOCK_RECORD
5
1F
100
AcDbSymbolTableRecord
100
AcDbBlockTableRecord
2
*MODEL_SPACE
0
BLOCK_RECORD
5
1B
100
AcDbSymbolTableRecord
100
AcDbBlockTableRecord
2
*PAPER_SPACE
0
ENDTAB
0
ENDSEC
0
SECTION
2
BLOCKS
0
BLOCK
5
20
100
AcDbEntity
100
AcDbBlockBegin
2
*MODEL_SPACE
0
ENDBLK
5
21
100
AcDbEntity
100
AcDbBlockEnd
0
BLOCK
5
1C
100
AcDbEntity
100
AcDbBlockBegin
2
*PAPER_SPACE
0
ENDBLK
5
1D
100
AcDbEntity
100
AcDbBlockEnd
0
ENDSEC
0
SECTION
2
ENTITIES
0
LINE
5
100
100
AcDbEntity
8
0
100
AcDbLine
10
40
20
-260
30
0
11
240
21
-260
31
0
0
LINE
5
101
100
AcDbEntity
8
0
100
AcDbLine
10
94.97182213657284
20
-66.300000000000011
30
0
11
184.97182213657283
21
-66.300000000000011
31
0
0
LWPOLYLINE
5
102
100
AcDbEntity
8
0
100
AcDbPolyline
90
13
70
1
43
0.0
10
49.928701473625566
20
-298.97938096305131
10
-24.245055262005657
20
-299.00125168849775
42
-0.2788262880928335
10
74.965707853691427
20
-45.922196636997853
10
104.96570785369143
20
-45.922196636997853
10
104.96570785369143
20
-65.922196636997853
10
94.965707853691427
20
-65.922196636997853
10
94.965707853691427
20
-66.72219663699785
10
104.96570785369143
20
-66.72219663699785
10
104.96570785369144
20
-76.49279140368975
42
0.20253226355658438
10
50
20
-259.59999999999997
10
39.999999999999986
20
-259.59999999999997
10
39.999999999999986
20
-260.39999999999998
10
49.993944155160463
20
-260.39999999999998
0
LINE
5
103
100
AcDbEntity
8
0
100
AcDbLine
10
139.97182213657283
20
-66.300000000000011
30
0
11
139.97182213657283
21
-116.98545123079458
31
0
0
LWPOLYLINE
5
104
100
AcDbEntity
8
0
100
AcDbPolyline
90
13
70
1
43
0.0
10
239.94364427314565
20
-260.39999999999998
10
239.94364427314565
20
-259.60000000000002
10
229.94364427314568
20
-259.60000000000002
42
0.20253226355658444
10
174.97793641945421
20
-76.492791403689765
10
174.97793641945421
20
-66.72219663699785
10
184.97793641945421
20
-66.72219663699785
10
184.97793641945421
20
-65.922196636997853
10
174.97793641945421
20
-65.922196636997853
10
174.97793641945421
20
-45.922196636997853
10
204.97793641945421
20
-45.922196636997761
42
-0.27882628809283361
10
304.18869953515133
20
-299.00125168849775
10
230.0149427995201
20
-298.97938096305131
10
229.94970011798517
20
-260.39999999999998
0
LWPOLYLINE
5
105
100
AcDbEntity
8
0
100
AcDbPolyline
90
13
70
1
43
0.0
10
-210
20
189.60000000000005
10
-210
20
190.40000000000003
10
-199.99999999999915
20
190.40000000000006
42
-0.20253226355658441
10
-145.03429214630856
20
373.50720859631025
10
-145.03429214630856
20
383.27780336300214
10
-155.03429214630856
20
383.27780336300214
10
-155.03429214630856
20
384.07780336300215
10
-145.03429214630856
20
384.07780336300215
10
-145.03429214630856
20
404.07780336300215
10
-175.03429214630856
20
404.0778033630022
42
0.2788262880928335
10
-274.24505526200568
20
150.99874831150228
10
-200.07129852637448
20
151.02061903694869
10
-200.00605584483949
20
189.60000000000005
0
LWPOLYLINE
5
106
100
AcDbEntity
8
0
100
AcDbPolyline
90
13
70
1
43
0.0
10
-310
20
189.60000000000005
10
-310
20
190.40000000000003
10
-299.9999999999992
20
190.40000000000006
42
-0.20253226355658441
10
-245.03429214630856
20
373.50720859631025
10
-245.03429214630856
20
383.27780336300214
10
-255.03429214630856
20
383.27780336300214
10
-255.03429214630856
20
384.07780336300215
10
-245.03429214630856
20
384.07780336300215
10
-245.03429214630856
20
404.07780336300215
10
-275.03429214630853
20
404.0778033630022
42
0.2788262880928335
10
-374.24505526200568
20
150.99874831150228
10
-300.07129852637445
20
151.02061903694869
10
-300.00605584483947
20
189.60000000000005
0
LWPOLYLINE
5
107
100
AcDbEntity
8
0
100
AcDbPolyline
90
13
70
1
43
0.0
10
-110
20
-85.399999999999991
10
-110
20
-84.600000000000009
10
-99.999999999999176
20
-84.599999999999994
42
-0.20253226355658441
10
-45.034292146308559
20
98.507208596310178
10
-45.034292146308559
20
108.27780336300208
10
-55.034292146308559
20
108.27780336300208
10
-55.034292146308559
20
109.07780336300213
10
-45.034292146308559
20
109.07780336300213
10
-45.034292146308559
20
129.07780336300215
10
-75.034292146308559
20
129.07780336300218
42
0.27882628809283361
10
-174.24505526200568
20
-124.00125168849776
10
-100.07129852637445
20
-123.9793809630514
10
-100.00605584483952
20
-85.399999999999991
0
LWPOLYLINE
5
108
100
AcDbEntity
8
0
100
AcDbPolyline
90
13
70
1
43
0.0
10
-410
20
-85.399999999999991
10
-410
20
-84.600000000000009
10
-399.99999999999915
20
-84.599999999999994
42
-0.20253226355658441
10
-345.03429214630853
20
98.507208596310178
10
-345.03429214630853
20
108.27780336300208
10
-355.03429214630853
20
108.27780336300208
10
-355.03429214630853
20
109.07780336300213
10
-345.03429214630853
20
109.07780336300213
10
-345.03429214630853
20
129.07780336300215
10
-375.03429214630853
20
129.07780336300209
42
0.27882628809283355
10
-474.24505526200568
20
-124.00125168849776
10
-400.07129852637445
20
-123.9793809630514
10
-400.00605584483947
20
-85.399999999999991
0
LWPOLYLINE
5
109
100
AcDbEntity
8
0
100
AcDbPolyline
90
13
70
1
43
0.0
10
-310
20
-85.399999999999991
10
-310
20
-84.600000000000009
10
-299.99999999999915
20
-84.599999999999994
42
-0.20253226355658441
10
-245.03429214630856
20
98.507208596310178
10
-245.03429214630856
20
108.27780336300208
10
-255.03429214630856
20
108.27780336300208
10
-255.03429214630856
20
109.07780336300213
10
-245.03429214630856
20
109.07780336300213
10
-245.03429214630856
20
129.07780336300215
10
-275.03429214630853
20
129.07780336300218
42
0.27882628809283361
10
-374.24505526200568
20
-124.00125168849776
10
-300.07129852637445
20
-123.9793809630514
10
-300.00605584483947
20
-85.399999999999991
0
LWPOLYLINE
5
110
100
AcDbEntity
8
0
100
AcDbPolyline
90
13
70
1
43
0.0
10
-410
20
189.60000000000005
10
-410
20
190.40000000000003
10
-399.99999999999915
20
190.40000000000006
42
-0.20253226355658441
10
-345.03429214630853
20
373.50720859631025
10
-345.03429214630853
20
383.27780336300214
10
-355.03429214630853
20
383.27780336300214
10
-355.03429214630853
20
384.07780336300215
10
-345.03429214630853
20
384.07780336300215
10
-345.03429214630853
20
404.07780336300215
10
-375.03429214630853
20
404.0778033630022
42
0.2788262880928335
10
-474.24505526200568
20
150.99874831150228
10
-400.07129852637445
20
151.02061903694869
10
-400.00605584483947
20
189.60000000000005
0
LWPOLYLINE
5
111
100
AcDbEntity
8
0
100
AcDbPolyline
90
13
70
1
43
0.0
10
-210
20
-85.399999999999991
10
-210
20
-84.600000000000009
10
-199.99999999999918
20
-84.599999999999994
42
-0.20253226355658441
10
-145.03429214630856
20
98.507208596310178
10
-145.03429214630856
20
108.27780336300208
10
-155.03429214630856
20
108.27780336300208
10
-155.03429214630856
20
109.07780336300213
10
-145.03429214630856
20
109.07780336300213
10
-145.03429214630856
20
129.07780336300215
10
-175.03429214630856
20
129.07780336300218
42
0.27882628809283361
10
-274.24505526200568
20
-124.00125168849776
10
-200.07129852637448
20
-123.9793809630514
10
-200.00605584483949
20
-85.399999999999991
0
LWPOLYLINE
5
112
100
AcDbEntity
8
0
100
AcDbPolyline
90
13
70
1
43
0.0
10
-110
20
189.60000000000005
10
-110
20
190.40000000000003
10
-99.999999999999162
20
190.40000000000006
42
-0.20253226355658441
10
-45.034292146308559
20
373.50720859631025
10
-45.034292146308559
20
383.27780336300214
10
-55.034292146308559
20
383.27780336300214
10
-55.034292146308559
20
384.07780336300215
10
-45.034292146308559
20
384.07780336300215
10
-45.034292146308559
20
404.07780336300215
10
-75.034292146308573
20
404.0778033630022
42
0.2788262880928335
10
-174.24505526200568
20
150.99874831150228
10
-100.07129852637445
20
151.02061903694869
10
-100.00605584483952
20
189.60000000000005
0
CIRCLE
5
113
100
AcDbEntity
8
0
100
AcDbCircle
10
85.591823913165967
20
144.34137811242744
30
0
40
100
210
0
220
0
230
1
0
ENDSEC
0
SECTION
2
OBJECTS
0
DICTIONARY
5
C
100
AcDbDictionary
3
ACAD_GROUP
350
D
3
ACAD_MLINESTYLE
350
17
0
DICTIONARY
5
D
100
AcDbDictionary
0
DICTIONARY
5
1A
330
C
100
AcDbDictionary
0
DICTIONARY
5
17
100
AcDbDictionary
0
ENDSEC
0
EOF
