0
SECTION
2
HEADER
9
$INSUNITS
70
4
9
$ACADVER
1
AC1014
9
$HANDSEED
5
FFFF
0
ENDSEC
0
SECTION
2
TABLES
0
TABLE
2
VPORT
5
8
100
AcDbSymbolTable
0
ENDTAB
0
TABLE
2
LTYPE
5
5
100
AcDbSymbolTable
0
LTYPE
5
14
100
AcDbSymbolTableRecord
100
AcDbLinetypeTableRecord
2
BYBLOCK
70
0
0
LTYPE
5
15
100
AcDbSymbolTableRecord
100
AcDbLinetypeTableRecord
2
BYLAYER
70
0
0
ENDTAB
0
TABLE
2
LAYER
5
2
100
AcDbSymbolTable
70
2
0
LAYER
5
50
100
AcDbSymbolTableRecord
100
AcDbLayerTableRecord
2
0
70
0
6
CONTINUOUS
0
ENDTAB
0
TABLE
2
STYLE
5
3
100
AcDbSymbolTable
70
1
0
STYLE
5
11
100
AcDbSymbolTableRecord
100
AcDbTextStyleTableRecord
2
STANDARD
70
0
0
ENDTAB
0
TABLE
2
VIEW
5
6
100
AcDbSymbolTable
70
0
0
ENDTAB
0
TABLE
2
UCS
5
7
100
AcDbSymbolTable
70
0
0
ENDTAB
0
TABLE
2
APPID
5
9
100
AcDbSymbolTable
70
2
0
APPID
5
12
100
AcDbSymbolTableRecord
100
AcDbRegAppTableRecord
2
ACAD
70
0
0
ENDTAB
0
TABLE
2
DIMSTYLE
5
A
100
AcDbSymbolTable
70
1
0
ENDTAB
0
TABLE
2
BLOCK_RECORD
5
1
100
AcDbSymbolTable
70
1
0
BLOCK_RECORD
5
1F
100
AcDbSymbolTableRecord
100
AcDbBlockTableRecord
2
*MODEL_SPACE
0
BLOCK_RECORD
5
1B
100
AcDbSymbolTableRecord
100
AcDbBlockTableRecord
2
*PAPER_SPACE
0
ENDTAB
0
ENDSEC
0
SECTION
2
BLOCKS
0
BLOCK
5
20
100
AcDbEntity
100
AcDbBlockBegin
2
*MODEL_SPACE
0
ENDBLK
5
21
100
AcDbEntity
100
AcDbBlockEnd
0
BLOCK
5
1C
100
AcDbEntity
100
AcDbBlockBegin
2
*PAPER_SPACE
0
ENDBLK
5
1D
100
AcDbEntity
100
AcDbBlockEnd
0
ENDSEC
0
SECTION
2
ENTITIES
0
CIRCLE
5
100
100
AcDbEntity
8
0
100
AcDbCircle
10
-560
20
-230
30
0
40
40.000000000000014
210
0
220
0
230
1
0
LINE
5
101
100
AcDbEntity
8
0
100
AcDbLine
10
-560
20
-260
30
0
11
-559.60000000000002
21
-260
31
0
0
LINE
5
102
100
AcDbEntity
8
0
100
AcDbLine
10
-560
20
-260
30
0
11
-560.39999999999998
21
-260
31
0
0
LINE
5
103
100
AcDbEntity
8
0
100
AcDbLine
10
-560.39999999999998
20
-260
30
0
11
-560.39999999999998
21
-269.99799994999751
31
0
0
LINE
5
104
100
AcDbEntity
8
0
100
AcDbLine
10
-559.60000000000002
20
-260
30
0
11
-559.60000000000002
21
-269.99799994999751
31
0
0
LINE
5
105
100
AcDbEntity
8
0
100
AcDbLine
10
-529.99999999999989
20
-230.39999999999998
30
0
11
-520.00200005000238
21
-230.39999999999998
31
0
0
LINE
5
106
100
AcDbEntity
8
0
100
AcDbLine
10
-529.99999999999989
20
-230
30
0
11
-529.99999999999989
21
-230.39999999999998
31
0
0
LINE
5
107
100
AcDbEntity
8
0
100
AcDbLine
10
-529.99999999999989
20
-230
30
0
11
-530
21
-229.60000000000002
31
0
0
LINE
5
108
100
AcDbEntity
8
0
100
AcDbLine
10
-530
20
-229.60000000000002
30
0
11
-520.00200005000249
21
-229.60000000000002
31
0
0
LINE
5
109
100
AcDbEntity
8
0
100
AcDbLine
10
-559.60000000000002
20
-200
30
0
11
-559.60000000000002
21
-190.00200005000249
31
0
0
LINE
5
110
100
AcDbEntity
8
0
100
AcDbLine
10
-560
20
-200
30
0
11
-559.60000000000002
21
-200
31
0
0
LINE
5
111
100
AcDbEntity
8
0
100
AcDbLine
10
-560
20
-200
30
0
11
-560.39999999999998
21
-200
31
0
0
LINE
5
112
100
AcDbEntity
8
0
100
AcDbLine
10
-560.39999999999998
20
-200
30
0
11
-560.39999999999998
21
-190.00200005000249
31
0
0
LINE
5
113
100
AcDbEntity
8
0
100
AcDbLine
10
-590
20
-229.59999999999994
30
0
11
-599.99799994999751
21
-229.59999999999994
31
0
0
LINE
5
114
100
AcDbEntity
8
0
100
AcDbLine
10
-590
20
-229.99999999999994
30
0
11
-590
21
-229.59999999999994
31
0
0
LINE
5
115
100
AcDbEntity
8
0
100
AcDbLine
10
-590
20
-229.99999999999994
30
0
11
-590
21
-230.39999999999992
31
0
0
LINE
5
116
100
AcDbEntity
8
0
100
AcDbLine
10
-590
20
-230.39999999999992
30
0
11
-599.99799994999751
21
-230.39999999999992
31
0
0
LWPOLYLINE
5
117
100
AcDbEntity
8
0
100
AcDbPolyline
90
3
70
1
43
0.0
10
-645
20
-275
10
-735
20
-275
10
-689.08961669255859
20
-196.53914542969039
0
LINE
5
118
100
AcDbEntity
8
0
100
AcDbLine
10
-689.08961669255859
20
-265
30
0
11
-688.6896166925585
21
-265
31
0
0
LINE
5
119
100
AcDbEntity
8
0
100
AcDbLine
10
-689.08961669255859
20
-265
30
0
11
-689.48961669255846
21
-265
31
0
0
LINE
5
120
100
AcDbEntity
8
0
100
AcDbLine
10
-689.48961669255846
20
-265
30
0
11
-689.48961669255846
21
-275
31
0
0
LINE
5
121
100
AcDbEntity
8
0
100
AcDbLine
10
-688.6896166925585
20
-265
30
0
11
-688.6896166925585
21
-275
31
0
0
LINE
5
122
100
AcDbEntity
8
0
100
AcDbLine
10
-702.0448083462793
20
-235.76957271484517
30
0
11
-702.0448083462793
21
-235.36957271484516
31
0
0
LINE
5
123
100
AcDbEntity
8
0
100
AcDbLine
10
-702.0448083462793
20
-235.76957271484517
30
0
11
-702.0448083462793
21
-236.16957271484517
31
0
0
LINE
5
124
100
AcDbEntity
8
0
100
AcDbLine
10
-677.0448083462793
20
-235.76957271484517
30
0
11
-677.0448083462793
21
-235.36957271484516
31
0
0
LINE
5
125
100
AcDbEntity
8
0
100
AcDbLine
10
-677.0448083462793
20
-235.76957271484517
30
0
11
-677.0448083462793
21
-236.16957271484517
31
0
0
LINE
5
126
100
AcDbEntity
8
0
100
AcDbLine
10
-702.0448083462793
20
-235.36957271484516
30
0
11
-711.81075337168647
21
-235.36957271484516
31
0
0
LINE
5
127
100
AcDbEntity
8
0
100
AcDbLine
10
-702.0448083462793
20
-236.16957271484517
30
0
11
-712.27886332087201
21
-236.16957271484517
31
0
0
LINE
5
128
100
AcDbEntity
8
0
100
AcDbLine
10
-677.0448083462793
20
-235.36957271484516
30
0
11
-667.26958090035873
21
-235.36957271484516
31
0
0
LINE
5
129
100
AcDbEntity
8
0
100
AcDbLine
10
-677.0448083462793
20
-236.16957271484517
30
0
11
-666.82003579219986
21
-236.16957271484517
31
0
0
ENDSEC
0
SECTION
2
OBJECTS
0
DICTIONARY
5
C
100
AcDbDictionary
3
ACAD_GROUP
350
D
3
ACAD_MLINESTYLE
350
17
0
DICTIONARY
5
D
100
AcDbDictionary
0
DICTIONARY
5
1A
330
C
100
AcDbDictionary
0
DICTIONARY
5
17
100
AcDbDictionary
0
ENDSEC
0
EOF
