0
SECTION
2
HEADER
9
$INSUNITS
70
5
9
$ACADVER
1
AC1014
9
$HANDSEED
5
FFFF
0
ENDSEC
0
SECTION
2
TABLES
0
TABLE
2
VPORT
5
8
100
AcDbSymbolTable
0
ENDTAB
0
TABLE
2
LTYPE
5
5
100
AcDbSymbolTable
0
LTYPE
5
14
100
AcDbSymbolTableRecord
100
AcDbLinetypeTableRecord
2
BYBLOCK
70
0
0
LTYPE
5
15
100
AcDbSymbolTableRecord
100
AcDbLinetypeTableRecord
2
BYLAYER
70
0
0
ENDTAB
0
TABLE
2
LAYER
5
2
100
AcDbSymbolTable
70
2
0
LAYER
5
50
100
AcDbSymbolTableRecord
100
AcDbLayerTableRecord
2
0
70
0
6
CONTINUOUS
0
ENDTAB
0
TABLE
2
STYLE
5
3
100
AcDbSymbolTable
70
1
0
STYLE
5
11
100
AcDbSymbolTableRecord
100
AcDbTextStyleTableRecord
2
STANDARD
70
0
0
ENDTAB
0
TABLE
2
VIEW
5
6
100
AcDbSymbolTable
70
0
0
ENDTAB
0
TABLE
2
UCS
5
7
100
AcDbSymbolTable
70
0
0
ENDTAB
0
TABLE
2
APPID
5
9
100
AcDbSymbolTable
70
2
0
APPID
5
12
100
AcDbSymbolTableRecord
100
AcDbRegAppTableRecord
2
ACAD
70
0
0
ENDTAB
0
TABLE
2
DIMSTYLE
5
A
100
AcDbSymbolTable
70
1
0
ENDTAB
0
TABLE
2
BLOCK_RECORD
5
1
100
AcDbSymbolTable
70
1
0
BLOCK_RECORD
5
1F
100
AcDbSymbolTableRecord
100
AcDbBlockTableRecord
2
*MODEL_SPACE
0
BLOCK_RECORD
5
1B
100
AcDbSymbolTableRecord
100
AcDbBlockTableRecord
2
*PAPER_SPACE
0
ENDTAB
0
ENDSEC
0
SECTION
2
BLOCKS
0
BLOCK
5
20
100
AcDbEntity
100
AcDbBlockBegin
2
*MODEL_SPACE
0
ENDBLK
5
21
100
AcDbEntity
100
AcDbBlockEnd
0
BLOCK
5
1C
100
AcDbEntity
100
AcDbBlockBegin
2
*PAPER_SPACE
0
ENDBLK
5
1D
100
AcDbEntity
100
AcDbBlockEnd
0
ENDSEC
0
SECTION
2
ENTITIES
0
LWPOLYLINE
5
100
100
AcDbEntity
8
0
100
AcDbPolyline
90
4
70
1
43
0.0
10
524.73485066359399
20
61.509696198202676
10
525.38277154664524
20
60.499647422496309
10
529.59130811208877
20
63.199317768543267
10
528.94338722903763
20
64.20936654424969
0
LWPOLYLINE
5
101
100
AcDbEntity
8
0
100
AcDbPolyline
90
4
70
1
43
0.0
10
457.63303923547153
20
37.490600464052818
10
458.69006351234862
20
38.058667078185806
10
456.32311928679457
20
42.462934898506887
10
455.26609500991748
20
41.894868284373956
0
LWPOLYLINE
5
102
100
AcDbEntity
8
0
100
AcDbPolyline
90
4
70
1
43
0.0
10
481.66906733402561
20
36.437251379679765
10
481.66418565461748
20
37.637241450141232
10
476.66422702769466
20
37.616901119273962
10
476.66910870710279
20
36.416911048812608
0
LWPOLYLINE
5
103
100
AcDbEntity
8
0
100
AcDbPolyline
90
4
70
1
43
0.0
10
534.88427904169305
20
69.869661337641759
10
535.83097224221183
20
69.132252370994706
10
538.9035096032411
20
73.076807373156413
10
537.95681640272244
20
73.814216339803437
0
LWPOLYLINE
5
104
100
AcDbEntity
8
0
100
AcDbPolyline
90
4
70
1
43
0.0
10
542.20657205376585
20
80.582621218391878
10
543.27506398551293
20
80.036429867498043
10
545.55086128090397
20
84.488479583111143
10
544.4823693491569
20
85.034670934005007
0
LWPOLYLINE
5
105
100
AcDbEntity
8
0
100
AcDbPolyline
90
4
70
1
43
0.0
10
498.78789911744764
20
60.660353123742539
10
498.50962267987768
20
59.493064717095194
10
503.37332437424175
20
58.333579560553744
10
503.6516008118117
20
59.500867967201089
0
LWPOLYLINE
5
106
100
AcDbEntity
8
0
100
AcDbPolyline
90
4
70
1
43
0.0
10
545.29933049192027
20
36.437251379679765
10
545.2944488125122
20
37.637241450141232
10
540.29449018558932
20
37.616901119273962
10
540.29937186499751
20
36.416911048812608
0
LWPOLYLINE
5
107
100
AcDbEntity
8
0
100
AcDbPolyline
90
4
70
1
43
0.0
10
532.57327786034148
20
36.437251379679765
10
532.56839618093341
20
37.637241450141232
10
527.56843755401053
20
37.616901119273962
10
527.57331923341872
20
36.416911048812608
0
LWPOLYLINE
5
108
100
AcDbEntity
8
0
100
AcDbPolyline
90
4
70
1
43
0.0
10
486.50783393798781
20
64.068621036779405
10
486.21437558449509
20
62.905056601621027
10
491.06256073098814
20
61.682313462068123
10
491.35601908448086
20
62.845877897226501
0
LWPOLYLINE
5
109
100
AcDbEntity
8
0
100
AcDbPolyline
90
4
70
1
43
0.0
10
464.55052168821686
20
58.20808551370007
10
465.37616636360684
20
57.337275046376703
10
469.00454331078771
20
60.777461193835336
10
468.17889863539773
20
61.648271661158788
0
LWPOLYLINE
5
110
100
AcDbEntity
8
0
100
AcDbPolyline
90
4
70
1
43
0.0
10
547.63588682111151
20
92.27956951950479
10
548.76427836849348
20
91.871240588620992
10
550.46564891384264
20
96.572872036046263
10
549.33725736646056
20
96.981200966930061
0
LINE
5
111
100
AcDbEntity
8
0
100
AcDbLine
10
564.46511365041647
20
123.55325938407121
30
0
11
554.57610725287486
21
125.03904283712869
31
0
0
SPLINE
5
112
100
AcDbEntity
8
0
100
AcDbSpline
70
4
71
5
72
36
73
30
74
0
42
0.000000001
43
0.0000000001
44
0.0000000001
40
0
40
0
40
0
40
0
40
0
40
0
40
0.040000000000000001
40
0.080000000000000002
40
0.12
40
0.16
40
0.20000000000000001
40
0.24000000000000002
40
0.28000000000000003
40
0.32000000000000001
40
0.35999999999999999
40
0.39999999999999997
40
0.43999999999999995
40
0.47999999999999993
40
0.51999999999999991
40
0.55999999999999994
40
0.59999999999999998
40
0.64000000000000001
40
0.68000000000000005
40
0.72000000000000008
40
0.76000000000000012
40
0.80000000000000016
40
0.84000000000000019
40
0.88000000000000023
40
0.92000000000000026
40
0.9600000000000003
40
1
40
1
40
1
40
1
40
1
40
1
41
1
41
1
41
1
41
1
41
1
41
1
41
1
41
1
41
1
41
1
41
1
41
1
41
1
41
1
41
1
41
1
41
1
41
1
41
1
41
1
41
1
41
1
41
1
41
1
41
1
41
1
41
1
41
1
41
1
41
1
10
554.57610725287486
20
125.03904283712869
30
0
10
554.30904490553644
20
123.26154204726809
30
0
10
553.73810556948069
20
119.74519720869014
30
0
10
552.7712526487386
20
114.58665053134956
30
0
10
551.26065131487564
20
107.9411312465036
30
0
10
548.99881910456008
20
100.03247841064726
30
0
10
546.35586058075899
20
92.547913943242804
30
0
10
543.32117803326298
20
85.534644728788166
30
0
10
539.88132308733645
20
79.067004515743463
30
0
10
536.02010974027985
20
73.253348245642073
30
0
10
531.71928519823746
20
68.240521151714205
30
0
10
526.95816121476446
20
64.224908938674375
30
0
10
521.72432863494328
20
61.401576390348865
30
0
10
516.02549825777328
20
59.907420332971043
30
0
10
509.9023680754305
20
59.76048288019102
30
0
10
503.43923792433679
20
60.810494886552888
30
0
10
496.78208179298429
20
62.65421142570014
30
0
10
490.12932163904611
20
64.682447346193541
30
0
10
483.70049419674393
20
66.234295193349311
30
0
10
477.71187285596943
20
66.717371382335983
30
0
10
472.34850499729981
20
65.747417501140475
30
0
10
467.73898268240578
20
63.270411377582292
30
0
10
463.92393128363352
20
59.727002178164526
30
0
10
460.87363856314494
20
55.827425619420964
30
0
10
458.51164980456855
20
52.247589021541998
30
0
10
456.73580343080982
20
49.402056516555746
30
0
10
455.69805772727688
20
47.53195990810859
30
0
10
455.0957977603511
20
46.081601831331255
30
0
10
454.76741237583951
20
45.044406477611076
30
0
10
454.62149900241076
20
44.508140692833905
30
0
0
ARC
5
113
100
AcDbEntity
8
0
100
AcDbCircle
10
461.85839430596855
20
42.539042837128676
30
0
40
7.4999999999999813
210
0
220
0
230
1
100
AcDbArc
50
164.77879082512297
51
270
0
LINE
5
114
100
AcDbEntity
8
0
100
AcDbLine
10
461.85839430596855
20
35.039042837128683
30
0
11
556.60024947894135
21
35.039042837128697
31
0
0
LINE
5
115
100
AcDbEntity
8
0
100
AcDbLine
10
556.60024947894135
20
35.039042837128697
30
0
11
556.60024947894135
21
45.039042837128697
31
0
0
LINE
5
116
100
AcDbEntity
8
0
100
AcDbLine
10
556.60024947894135
20
45.039042837128697
30
0
11
465.82410811001648
21
45.039042837128676
31
0
0
SPLINE
5
117
100
AcDbEntity
8
0
100
AcDbSpline
70
0
71
3
72
68
73
64
74
0
42
0.000000001
43
0.0000000001
44
0.0000000001
40
-0.90950520647568922
40
-0.90950520647568922
40
-0.90950520647568922
40
-0.90950520647568922
40
-0.87988812472385458
40
-0.87988812472385458
40
-0.87988812472385458
40
-0.82786759487845363
40
-0.82786759487845363
40
-0.82786759487845363
40
-0.78754259504606272
40
-0.78754259504606272
40
-0.78754259504606272
40
-0.757925013815685
40
-0.757925013815685
40
-0.757925013815685
40
-0.73050684978897851
40
-0.73050684978897851
40
-0.73050684978897851
40
-0.70012070330040421
40
-0.70012070330040421
40
-0.70012070330040421
40
-0.67194479587005485
40
-0.67194479587005485
40
-0.67194479587005485
40
-0.64217155594358966
40
-0.64217155594358966
40
-0.64217155594358966
40
-0.60818243377360859
40
-0.60818243377360859
40
-0.60818243377360859
40
-0.5679933213061612
40
-0.5679933213061612
40
-0.5679933213061612
40
-0.51262644283723713
40
-0.51262644283723713
40
-0.51262644283723713
40
-0.47250278571004461
40
-0.47250278571004461
40
-0.47250278571004461
40
-0.4359965763135063
40
-0.4359965763135063
40
-0.4359965763135063
40
-0.40212346109843583
40
-0.40212346109843583
40
-0.40212346109843583
40
-0.36691901482710965
40
-0.36691901482710965
40
-0.36691901482710965
40
-0.32471361581558361
40
-0.32471361581558361
40
-0.32471361581558361
40
-0.2796945235366225
40
-0.2796945235366225
40
-0.2796945235366225
40
-0.22833050252828704
40
-0.22833050252828704
40
-0.22833050252828704
40
-0.16652303905856813
40
-0.16652303905856813
40
-0.16652303905856813
40
-0.091614596933013659
40
-0.091614596933013659
40
-0.091614596933013659
40
0
40
0
40
0
40
0
10
465.82410811001648
20
45.039042837128676
30
0
10
466.17619719854974
20
45.618562503935436
30
0
10
466.59389816850967
20
46.283995089941058
30
0
10
467.05436278143333
20
46.994105424620372
30
0
10
467.86313973454634
20
48.24136928971825
30
0
10
468.79809882146196
20
49.619018805961986
30
0
10
469.78686549342274
20
50.887270114555079
30
0
10
470.5533324248359
20
51.870386471855454
30
0
10
471.35505339940636
20
52.785392496290612
30
0
10
472.13638618823126
20
53.533176374502887
30
0
10
472.71025320465196
20
54.082402657150723
30
0
10
473.27010661876557
20
54.540514617245663
30
0
10
473.80199460473642
20
54.90430561120462
30
0
10
474.29438430832994
20
55.241081294074178
30
0
10
474.76116200527213
20
55.498970294414306
30
0
10
475.23172762871968
20
55.702981055689079
30
0
10
475.75323140091388
20
55.929075730420138
30
0
10
476.28314170808028
20
56.093991286766553
30
0
10
476.91633905986561
20
56.210930538733692
30
0
10
477.50347866230766
20
56.319363818999719
30
0
10
478.18290110501124
20
56.383670962680426
30
0
10
478.99455142308045
20
56.381574038391435
30
0
10
479.85221535869647
20
56.379358236464981
30
0
10
480.85608696988669
20
56.3002777083084
30
0
10
481.99968013788884
20
56.129721102227322
30
0
10
483.30520577083911
20
55.935013729589841
30
0
10
484.79015290595913
20
55.620416352721591
30
0
10
486.41426517094766
20
55.211475571589602
30
0
10
488.33463340378876
20
54.727939487213931
30
0
10
490.44681587654804
20
54.113940271465211
30
0
10
492.6958804094661
20
53.467729680955586
30
0
10
495.79432362001728
20
52.57747207053788
30
0
10
499.15438948085551
20
51.627150777004275
30
0
10
502.69928377674847
20
50.942920558526453
30
0
10
505.26822259384977
20
50.447067813321084
30
0
10
507.93769255632316
20
50.094108761464071
30
0
10
510.65635469213726
20
50.003435074146267
30
0
10
513.12990910652798
20
49.920936297788799
30
0
10
515.64271640576976
20
50.057876346408293
30
0
10
518.12180374460399
20
50.463067441015824
30
0
10
520.42208121642807
20
50.839033197489655
30
0
10
522.69090149901467
20
51.445849805631468
30
0
10
524.8653031045128
20
52.270924784618472
30
0
10
527.12516624396778
20
53.1284280754478
30
0
10
529.28074288749485
20
54.219211968682998
30
0
10
531.2977887219522
20
55.489537255073586
30
0
10
533.71595555268982
20
57.01248652043995
30
0
10
535.9358237619922
20
58.789369406599604
30
0
10
537.97257595638007
20
60.733985589258268
30
0
10
540.14511163039379
20
62.808242850760834
30
0
10
542.11332590107281
20
65.072983208651536
30
0
10
543.92327950288723
20
67.471201049804847
30
0
10
545.98832546720041
20
70.207420403412968
30
0
10
547.84962430577673
20
73.119947137893107
30
0
10
549.55332364631317
20
76.169232362899322
30
0
10
551.60342277575046
20
79.838504772914504
30
0
10
553.42459254872119
20
83.706126611485331
30
0
10
555.05740088351604
20
87.735054242737363
30
0
10
557.03630637134654
20
92.617970889875792
30
0
10
558.73767102382863
20
97.737847862342477
30
0
10
560.19468990676774
20
103.06655444768114
30
0
10
561.97665458119673
20
109.58367444293944
30
0
10
563.39246407275346
20
116.41396966186912
30
0
10
564.46511365041647
20
123.55325938407121
30
0
0
LWPOLYLINE
5
118
100
AcDbEntity
8
0
100
AcDbPolyline
90
4
70
1
43
0.0
10
468.94301470244659
20
36.437251379679765
10
468.93813302303846
20
37.637241450141232
10
463.93817439611564
20
37.616901119273962
10
463.94305607552377
20
36.416911048812608
0
LWPOLYLINE
5
119
100
AcDbEntity
8
0
100
AcDbPolyline
90
4
70
1
43
0.0
10
494.39511996560452
20
36.437251379679765
10
494.39023828619639
20
37.637241450141232
10
489.39027965927357
20
37.616901119273962
10
489.3951613386817
20
36.416911048812608
0
LWPOLYLINE
5
120
100
AcDbEntity
8
0
100
AcDbPolyline
90
4
70
1
43
0.0
10
457.54564847452053
20
48.018524576905179
10
458.56769888267996
20
47.38970587236399
10
461.18777681826822
20
51.648249239695573
10
460.16572641010868
20
52.277067944236762
0
LWPOLYLINE
5
121
100
AcDbEntity
8
0
100
AcDbPolyline
90
4
70
1
43
0.0
10
519.84722522876245
20
36.437251379679765
10
519.84234354935438
20
37.637241450141232
10
514.84238492243151
20
37.616901119273962
10
514.84726660183969
20
36.416911048812608
0
LWPOLYLINE
5
122
100
AcDbEntity
8
0
100
AcDbPolyline
90
4
70
1
43
0.0
10
474.35716101254343
20
64.626905092411448
10
474.48389249222322
20
63.433615885195536
10
479.45593085562319
20
63.961663717194995
10
479.32919937594335
20
65.154952924410964
0
LWPOLYLINE
5
123
100
AcDbEntity
8
0
100
AcDbPolyline
90
4
70
1
43
0.0
10
507.12117259718343
20
36.437251379679765
10
507.1162909177753
20
37.637241450141232
10
502.11633229085248
20
37.616901119273962
10
502.12121397026061
20
36.416911048812608
0
LWPOLYLINE
5
124
100
AcDbEntity
8
0
100
AcDbPolyline
90
4
70
1
43
0.0
10
511.75269372901039
20
58.482054987096888
10
511.84325382369934
20
57.285477004159873
10
516.82899541927077
20
57.662810732030437
10
516.73843532458181
20
58.859388714967452
0
LWPOLYLINE
5
125
100
AcDbEntity
8
0
100
AcDbPolyline
90
4
70
1
43
0.0
10
551.68263036089547
20
104.48187978074895
10
552.84467851156489
20
104.18247354246112
10
554.09220450443092
20
109.02434083691723
10
552.9301563537615
20
109.32374707520506
0
LWPOLYLINE
5
126
100
AcDbEntity
8
0
100
AcDbPolyline
90
4
70
1
43
0.0
10
554.62344889763631
20
116.9729656987834
10
555.80521820125091
20
116.76458788558307
10
556.67345908958555
20
121.6886266506441
10
555.49168978597095
20
121.89700446384443
0
ENDSEC
0
SECTION
2
OBJECTS
0
DICTIONARY
5
C
100
AcDbDictionary
3
ACAD_GROUP
350
D
3
ACAD_MLINESTYLE
350
17
0
DICTIONARY
5
D
100
AcDbDictionary
0
DICTIONARY
5
1A
330
C
100
AcDbDictionary
0
DICTIONARY
5
17
100
AcDbDictionary
0
ENDSEC
0
EOF
