0
SECTION
2
HEADER
9
$INSUNITS
70
5
9
$ACADVER
1
AC1014
9
$HANDSEED
5
FFFF
0
ENDSEC
0
SECTION
2
TABLES
0
TABLE
2
VPORT
5
8
100
AcDbSymbolTable
0
ENDTAB
0
TABLE
2
LTYPE
5
5
100
AcDbSymbolTable
0
LTYPE
5
14
100
AcDbSymbolTableRecord
100
AcDbLinetypeTableRecord
2
BYBLOCK
70
0
0
LTYPE
5
15
100
AcDbSymbolTableRecord
100
AcDbLinetypeTableRecord
2
BYLAYER
70
0
0
ENDTAB
0
TABLE
2
LAYER
5
2
100
AcDbSymbolTable
70
2
0
LAYER
5
50
100
AcDbSymbolTableRecord
100
AcDbLayerTableRecord
2
0
70
0
6
CONTINUOUS
0
ENDTAB
0
TABLE
2
STYLE
5
3
100
AcDbSymbolTable
70
1
0
STYLE
5
11
100
AcDbSymbolTableRecord
100
AcDbTextStyleTableRecord
2
STANDARD
70
0
0
ENDTAB
0
TABLE
2
VIEW
5
6
100
AcDbSymbolTable
70
0
0
ENDTAB
0
TABLE
2
UCS
5
7
100
AcDbSymbolTable
70
0
0
ENDTAB
0
TABLE
2
APPID
5
9
100
AcDbSymbolTable
70
2
0
APPID
5
12
100
AcDbSymbolTableRecord
100
AcDbRegAppTableRecord
2
ACAD
70
0
0
ENDTAB
0
TABLE
2
DIMSTYLE
5
A
100
AcDbSymbolTable
70
1
0
ENDTAB
0
TABLE
2
BLOCK_RECORD
5
1
100
AcDbSymbolTable
70
1
0
BLOCK_RECORD
5
1F
100
AcDbSymbolTableRecord
100
AcDbBlockTableRecord
2
*MODEL_SPACE
0
BLOCK_RECORD
5
1B
100
AcDbSymbolTableRecord
100
AcDbBlockTableRecord
2
*PAPER_SPACE
0
ENDTAB
0
ENDSEC
0
SECTION
2
BLOCKS
0
BLOCK
5
20
100
AcDbEntity
100
AcDbBlockBegin
2
*MODEL_SPACE
0
ENDBLK
5
21
100
AcDbEntity
100
AcDbBlockEnd
0
BLOCK
5
1C
100
AcDbEntity
100
AcDbBlockBegin
2
*PAPER_SPACE
0
ENDBLK
5
1D
100
AcDbEntity
100
AcDbBlockEnd
0
ENDSEC
0
SECTION
2
ENTITIES
0
LWPOLYLINE
5
100
100
AcDbEntity
8
0
100
AcDbPolyline
90
4
70
1
43
0.0
10
-206.63484397948321
20
94.664681754670653
10
-207.58153718000204
20
93.927272788023572
10
-204.50899981897265
20
89.982717785861894
10
-203.56230661845399
20
90.720126752508918
0
LWPOLYLINE
5
101
100
AcDbEntity
8
0
100
AcDbPolyline
90
4
70
1
43
0.0
10
-222.62347267234014
20
126.15969267552441
10
-222.61859099293207
20
127.35968274598588
10
-227.61854961985483
20
127.38002307685304
10
-227.62343129926302
20
126.18003300639174
0
LINE
5
102
100
AcDbEntity
8
0
100
AcDbLine
10
-187.88970896881972
20
38.757891288536968
30
0
11
-178.000702571278
21
40.243674741594418
31
2.7470542493936745e-31
0
SPLINE
5
103
100
AcDbEntity
8
0
100
AcDbSpline
70
0
71
3
72
68
73
64
74
0
42
0.000000001
43
0.0000000001
44
0.0000000001
40
0
40
0
40
0
40
0
40
0.091614596933013659
40
0.091614596933013659
40
0.091614596933013659
40
0.16652303905856813
40
0.16652303905856813
40
0.16652303905856813
40
0.22833050252828704
40
0.22833050252828704
40
0.22833050252828704
40
0.2796945235366225
40
0.2796945235366225
40
0.2796945235366225
40
0.32471361581558361
40
0.32471361581558361
40
0.32471361581558361
40
0.36691901482710965
40
0.36691901482710965
40
0.36691901482710965
40
0.40212346109843583
40
0.40212346109843583
40
0.40212346109843583
40
0.4359965763135063
40
0.4359965763135063
40
0.4359965763135063
40
0.47250278571004461
40
0.47250278571004461
40
0.47250278571004461
40
0.51262644283723713
40
0.51262644283723713
40
0.51262644283723713
40
0.5679933213061612
40
0.5679933213061612
40
0.5679933213061612
40
0.60818243377360859
40
0.60818243377360859
40
0.60818243377360859
40
0.64217155594358966
40
0.64217155594358966
40
0.64217155594358966
40
0.67194479587005485
40
0.67194479587005485
40
0.67194479587005485
40
0.70012070330040421
40
0.70012070330040421
40
0.70012070330040421
40
0.73050684978897851
40
0.73050684978897851
40
0.73050684978897851
40
0.757925013815685
40
0.757925013815685
40
0.757925013815685
40
0.78754259504606272
40
0.78754259504606272
40
0.78754259504606272
40
0.82786759487845363
40
0.82786759487845363
40
0.82786759487845363
40
0.87988812472385458
40
0.87988812472385458
40
0.87988812472385458
40
0.90950520647568922
40
0.90950520647568922
40
0.90950520647568922
40
0.90950520647568922
10
-178.000702571278
20
40.243674741594418
30
0
10
-179.07335214894113
20
47.382964463796526
30
0
10
-180.48916164049774
20
54.213259682726203
30
0
10
-182.27112631492685
20
60.730379677984502
30
0
10
-183.72814519786596
20
66.059086263323138
30
0
10
-185.42950985034793
20
71.178963235789837
30
0
10
-187.40841533817843
20
76.061879882928309
30
0
10
-189.04122367297344
20
80.090807514180341
30
0
10
-190.86239344594418
20
83.958429352751097
30
0
10
-192.91249257538141
20
87.62770176276635
30
0
10
-194.61619191591774
20
90.676986987772551
30
0
10
-196.47749075449423
20
93.58951372225269
30
0
10
-198.54253671880741
20
96.325733075860825
30
0
10
-200.35249032062183
20
98.72395091701415
30
0
10
-202.3207045913008
20
100.9886912749048
30
0
10
-204.49324026531451
20
103.0629485364073
30
0
10
-206.52999245970244
20
105.00756471906607
30
0
10
-208.74986066900476
20
106.78444760522575
30
0
10
-211.16802749974244
20
108.30739687059207
30
0
10
-213.18507333419967
20
109.57772215698265
30
0
10
-215.34064997772674
20
110.66850605021784
30
0
10
-217.60051311718166
20
111.52600934104714
30
0
10
-219.77491472267985
20
112.3510843200342
30
0
10
-222.0437350052664
20
112.957900928176
30
0
10
-224.34401247709064
20
113.33386668464988
30
0
10
-226.82309981592476
20
113.73905777925739
30
0
10
-229.33590711516655
20
113.87599782787692
30
0
10
-231.80946152955727
20
113.7934990515194
30
0
10
-234.52812366537142
20
113.7028253642016
30
0
10
-237.19759362784475
20
113.34986631234455
30
0
10
-239.76653244494611
20
112.85401356713919
30
0
10
-243.31142674083907
20
112.16978334866138
30
0
10
-246.67149260167719
20
111.21946205512774
30
0
10
-249.76993581222837
20
110.32920444471
30
0
10
-252.01900034514648
20
109.68299385420039
30
0
10
-254.13118281790571
20
109.06899463845173
30
0
10
-256.05155105074692
20
108.58545855407607
30
0
10
-257.67566331573533
20
108.17651777294412
30
0
10
-259.16061045085536
20
107.86192039607579
30
0
10
-260.46613608380568
20
107.66721302343836
30
0
10
-261.60972925180789
20
107.4966564173572
30
0
10
-262.61360086299811
20
107.41757588920063
30
0
10
-263.47126479861407
20
107.41536008727422
30
0
10
-264.28291511668334
20
107.41326316298517
30
0
10
-264.96233755938687
20
107.47757030666594
30
0
10
-265.54947716182897
20
107.58600358693192
30
0
10
-266.18267451361424
20
107.70294283889913
30
0
10
-266.71258482078071
20
107.86785839524541
30
0
10
-267.23408859297484
20
108.09395306997658
30
0
10
-267.7046542164224
20
108.29796383125137
30
0
10
-268.17143191336453
20
108.55585283159144
30
0
10
-268.66382161695816
20
108.89262851446102
30
0
10
-269.19570960292896
20
109.25641950841998
30
0
10
-269.75556301704245
20
109.71453146851491
30
0
10
-270.32943003346332
20
110.26375775116276
30
0
10
-271.11076282228811
20
111.01154162937502
30
0
10
-271.91248379685868
20
111.92654765381013
30
0
10
-272.67895072827179
20
112.90966401111058
30
0
10
-273.66771740023256
20
114.17791531970363
30
0
10
-274.60267648714824
20
115.55556483594745
30
0
10
-275.41145344026125
20
116.80282870104526
30
0
10
-275.87191805318486
20
117.51293903572457
30
0
10
-276.28961902314478
20
118.17837162173021
30
0
10
-276.64170811167804
20
118.757891288537
30
0
0
LINE
5
104
100
AcDbEntity
8
0
100
AcDbLine
10
-276.64170811167804
20
118.757891288537
30
0
11
-185.86556674275315
21
118.757891288537
31
-1.4230576649412116e-75
0
LINE
5
105
100
AcDbEntity
8
0
100
AcDbLine
10
-185.86556674275315
20
118.757891288537
30
-1.4230576649412116e-75
11
-185.86556674275317
21
128.75789128853694
31
0
0
LINE
5
106
100
AcDbEntity
8
0
100
AcDbLine
10
-185.86556674275317
20
128.75789128853694
30
0
11
-280.60742191572604
21
128.757891288537
31
1.0509738482436126e-44
0
ARC
5
107
100
AcDbEntity
8
0
100
AcDbCircle
10
-280.60742191572592
20
121.25789128853694
30
2.627434620609032e-46
40
7.5000000000000568
210
-4.2039457293933849e-33
220
-1.4299904421737559e-45
230
1
100
AcDbArc
50
90.000000000000867
51
195.22120917487686
0
SPLINE
5
108
100
AcDbEntity
8
0
100
AcDbSpline
70
4
71
5
72
36
73
30
74
0
42
0.000000001
43
0.0000000001
44
0.0000000001
40
0
40
0
40
0
40
0
40
0
40
0
40
0.040000000000000001
40
0.080000000000000002
40
0.12
40
0.16
40
0.20000000000000001
40
0.24000000000000002
40
0.28000000000000003
40
0.32000000000000001
40
0.35999999999999999
40
0.39999999999999997
40
0.43999999999999995
40
0.47999999999999993
40
0.51999999999999991
40
0.55999999999999994
40
0.59999999999999998
40
0.64000000000000001
40
0.68000000000000005
40
0.72000000000000008
40
0.76000000000000012
40
0.80000000000000016
40
0.84000000000000019
40
0.88000000000000023
40
0.92000000000000026
40
0.9600000000000003
40
1
40
1
40
1
40
1
40
1
40
1
41
1
41
1
41
1
41
1
41
1
41
1
41
1
41
1
41
1
41
1
41
1
41
1
41
1
41
1
41
1
41
1
41
1
41
1
41
1
41
1
41
1
41
1
41
1
41
1
41
1
41
1
41
1
41
1
41
1
41
1
10
-187.88970896881972
20
38.757891288536968
30
0
10
-188.15677131615803
20
40.535392078397592
30
0
10
-188.72771065221377
20
44.0517369169755
30
0
10
-189.69456357295587
20
49.21028359431611
30
0
10
-191.20516490681882
20
55.855802879162042
30
0
10
-193.46699711713438
20
63.764455715018386
30
0
10
-196.10995564093548
20
71.249020182422811
30
0
10
-199.14463818843149
20
78.262289396877492
30
0
10
-202.58449313435807
20
84.729929609922181
30
0
10
-206.44570648141467
20
90.543585880023556
30
0
10
-210.74653102345707
20
95.556412973951467
30
0
10
-215.50765500693007
20
99.572025186991254
30
0
10
-220.74148758675125
20
102.39535773531685
30
0
10
-226.44031796392125
20
103.88951379269463
30
0
10
-232.56344814626408
20
104.03645124547461
30
0
10
-239.02657829735767
20
102.98643923911277
30
0
10
-245.68373442871024
20
101.14272269996553
30
0
10
-252.33649458264841
20
99.114486779472088
30
0
10
-258.76532202495054
20
97.562638932316304
30
0
10
-264.75394336572509
20
97.079562743329632
30
0
10
-270.11731122439465
20
98.049516624525126
30
0
10
-274.72683353928875
20
100.52652274808329
30
0
10
-278.54188493806106
20
104.06993194750103
30
0
10
-281.59217765854959
20
107.96950850624461
30
0
10
-283.95416641712603
20
111.54934510412363
30
0
10
-285.73001279088459
20
114.39487760910987
30
0
10
-286.76775849441771
20
116.26497421755698
30
0
10
-287.37001846134336
20
117.71533229433436
30
0
10
-287.69840384585501
20
118.75252764805458
30
0
10
-287.84431721928382
20
119.28879343283171
30
0
0
LWPOLYLINE
5
109
100
AcDbEntity
8
0
100
AcDbPolyline
90
4
70
1
43
0.0
10
-197.17136740918232
20
126.15969267552441
10
-197.16648572977419
20
127.35968274598588
10
-202.16644435669701
20
127.38002307685306
10
-202.1713260361052
20
126.18003300639171
0
LWPOLYLINE
5
110
100
AcDbEntity
8
0
100
AcDbPolyline
90
4
70
1
43
0.0
10
-193.70153785320099
20
71.925693537044623
10
-194.82992940058296
20
71.517364606160896
10
-193.1285588552339
20
66.815733158735583
10
-192.00016730785183
20
67.224062089619423
0
LWPOLYLINE
5
111
100
AcDbEntity
8
0
100
AcDbPolyline
90
4
70
1
43
0.0
10
-267.98192372947125
20
100.36331824047002
10
-268.10865520915098
20
99.170029033254167
10
-263.13661684575112
20
98.64198120125468
10
-263.00988536607127
20
99.835270408470649
0
LWPOLYLINE
5
112
100
AcDbEntity
8
0
100
AcDbPolyline
90
4
70
1
43
0.0
10
-209.89742004076112
20
126.15969267552447
10
-209.89253836135305
20
127.35968274598588
10
-214.89249698827581
20
127.38002307685298
10
-214.89737866768399
20
126.18003300639174
0
LWPOLYLINE
5
113
100
AcDbEntity
8
0
100
AcDbPolyline
90
4
70
1
43
0.0
10
-230.62256239799518
20
106.51145712150577
10
-230.71312249268414
20
105.31487913856876
10
-225.72738089711271
20
104.93754541069819
10
-225.63682080242376
20
106.13412339363521
0
LWPOLYLINE
5
114
100
AcDbEntity
8
0
100
AcDbPolyline
90
4
70
1
43
0.0
10
-273.52768319865601
20
126.15969267552441
10
-273.52280151924793
20
127.35968274598582
10
-278.52276014617081
20
127.38002307685298
10
-278.52764182557888
20
126.18003300639168
0
LWPOLYLINE
5
115
100
AcDbEntity
8
0
100
AcDbPolyline
90
4
70
1
43
0.0
10
-260.80163056707698
20
126.15969267552441
10
-260.79674888766891
20
127.35968274598582
10
-265.79670751459167
20
127.38002307685295
10
-265.80158919399986
20
126.18003300639165
0
LWPOLYLINE
5
116
100
AcDbEntity
8
0
100
AcDbPolyline
90
4
70
1
43
0.0
10
-248.07557793549813
20
126.15969267552441
10
-248.07069625609
20
127.35968274598582
10
-253.07065488301282
20
127.38002307685304
10
-253.07553656242095
20
126.18003300639168
0
LWPOLYLINE
5
117
100
AcDbEntity
8
0
100
AcDbPolyline
90
4
70
1
43
0.0
10
-283.8981173390145
20
116.40722825330158
10
-284.92016774717393
20
115.77840954876046
10
-282.30008981158579
20
111.51986618142888
10
-281.27803940342625
20
112.14868488597
0
LWPOLYLINE
5
118
100
AcDbEntity
8
0
100
AcDbPolyline
90
4
70
1
43
0.0
10
-283.77575270934591
20
125.73826704747978
10
-284.832776986223
20
126.30633366161283
10
-287.19972121177699
20
121.90206584129174
10
-286.1426969348999
20
121.33399922715876
0
LWPOLYLINE
5
119
100
AcDbEntity
8
0
100
AcDbPolyline
90
4
70
1
43
0.0
10
-277.08964985808763
20
106.45965907928891
10
-277.91529453347761
20
105.58884861196557
10
-274.28691758629674
20
102.14866246450688
10
-273.46127291090676
20
103.01947293183028
0
LWPOLYLINE
5
120
100
AcDbEntity
8
0
100
AcDbPolyline
90
4
70
1
43
0.0
10
-189.62113771012957
20
59.614460583204533
10
-190.78318586079894
20
59.315054344916717
10
-189.53565986793296
20
54.473187050460609
10
-188.37361171726354
20
54.772593288748425
0
LWPOLYLINE
5
121
100
AcDbEntity
8
0
100
AcDbPolyline
90
4
70
1
43
0.0
10
-256.25144063719949
20
100.89187752404456
10
-255.95798228370666
20
99.728313088886239
10
-251.1097971372136
20
100.95105622843914
10
-251.40325549070636
20
102.11462066359752
0
LWPOLYLINE
5
122
100
AcDbEntity
8
0
100
AcDbPolyline
90
4
70
1
43
0.0
10
-217.08304467504865
20
103.2972867031699
10
-217.73096555809985
20
102.28723792746342
10
-213.52242899265644
20
99.587567581416465
10
-212.87450810960519
20
100.59761635712289
0
LWPOLYLINE
5
123
100
AcDbEntity
8
0
100
AcDbPolyline
90
4
70
1
43
0.0
10
-243.95619354181684
20
104.30386940857045
10
-243.67791710424689
20
103.1365810019231
10
-238.81421540988282
20
104.2960661584645
10
-239.09249184745278
20
105.46335456511196
0
LWPOLYLINE
5
124
100
AcDbEntity
8
0
100
AcDbPolyline
90
4
70
1
43
0.0
10
-199.19075223618159
20
83.760504258167629
10
-200.25924416792861
20
83.214312907273808
10
-197.98344687253757
20
78.762263191660651
10
-196.91495494079049
20
79.308454542554585
0
LWPOLYLINE
5
125
100
AcDbEntity
8
0
100
AcDbPolyline
90
4
70
1
43
0.0
10
-235.34952530391922
20
126.15969267552441
10
-235.34464362451104
20
127.35968274598588
10
-240.34460225143391
20
127.38002307685304
10
-240.3494839308421
20
126.18003300639168
0
LWPOLYLINE
5
126
100
AcDbEntity
8
0
100
AcDbPolyline
90
4
70
1
43
0.0
10
-186.66059802044356
20
47.032346240082575
10
-187.84236732405816
20
46.82396842688226
10
-186.97412643572352
20
41.899929661821147
10
-185.79235713210892
20
42.108307475021576
0
ENDSEC
0
SECTION
2
OBJECTS
0
DICTIONARY
5
C
100
AcDbDictionary
3
ACAD_GROUP
350
D
3
ACAD_MLINESTYLE
350
17
0
DICTIONARY
5
D
100
AcDbDictionary
0
DICTIONARY
5
1A
330
C
100
AcDbDictionary
0
DICTIONARY
5
17
100
AcDbDictionary
0
ENDSEC
0
EOF
