  0
SECTION
  2
HEADER
  9
$ACADVER
  1
AC1024
  9
$ACADMAINTVER
 70
     6
  9
$DWGCODEPAGE
  3
ANSI_1252
  9
$INSBASE
 10
0.0
 20
0.0
 30
0.0
  9
$EXTMIN
 10
1.000000000000000E+20
 20
1.000000000000000E+20
 30
1.000000000000000E+20
  9
$EXTMAX
 10
-1.000000000000000E+20
 20
-1.000000000000000E+20
 30
-1.000000000000000E+20
  9
$LIMMIN
 10
0.0
 20
0.0
  9
$LIMMAX
 10
12.0
 20
9.0
  9
$ORTHOMODE
 70
     0
  9
$REGENMODE
 70
     1
  9
$FILLMODE
 70
     1
  9
$QTEXTMODE
 70
     0
  9
$MIRRTEXT
 70
     1
  9
$LTSCALE
 40
1.0
  9
$ATTMODE
 70
     1
  9
$TEXTSIZE
 40
0.2
  9
$TRACEWID
 40
0.05
  9
$TEXTSTYLE
  7
Standard
  9
$CLAYER
  8
0
  9
$CELTYPE
  6
ByLayer
  9
$CECOLOR
 62
   256
  9
$CELTSCALE
 40
1.0
  9
$DISPSILH
 70
     0
  9
$DIMSCALE
 40
1.0
  9
$DIMASZ
 40
0.18
  9
$DIMEXO
 40
0.0625
  9
$DIMDLI
 40
0.38
  9
$DIMRND
 40
0.0
  9
$DIMDLE
 40
0.0
  9
$DIMEXE
 40
0.18
  9
$DIMTP
 40
0.0
  9
$DIMTM
 40
0.0
  9
$DIMTXT
 40
0.18
  9
$DIMCEN
 40
0.09
  9
$DIMTSZ
 40
0.0
  9
$DIMTOL
 70
     0
  9
$DIMLIM
 70
     0
  9
$DIMTIH
 70
     1
  9
$DIMTOH
 70
     1
  9
$DIMSE1
 70
     0
  9
$DIMSE2
 70
     0
  9
$DIMTAD
 70
     0
  9
$DIMZIN
 70
     0
  9
$DIMBLK
  1

  9
$DIMASO
 70
     1
  9
$DIMSHO
 70
     1
  9
$DIMPOST
  1

  9
$DIMAPOST
  1

  9
$DIMALT
 70
     0
  9
$DIMALTD
 70
     2
  9
$DIMALTF
 40
25.4
  9
$DIMLFAC
 40
1.0
  9
$DIMTOFL
 70
     0
  9
$DIMTVP
 40
0.0
  9
$DIMTIX
 70
     0
  9
$DIMSOXD
 70
     0
  9
$DIMSAH
 70
     0
  9
$DIMBLK1
  1

  9
$DIMBLK2
  1

  9
$DIMSTYLE
  2
Standard
  9
$DIMCLRD
 70
     0
  9
$DIMCLRE
 70
     0
  9
$DIMCLRT
 70
     0
  9
$DIMTFAC
 40
1.0
  9
$DIMGAP
 40
0.09
  9
$DIMJUST
 70
     0
  9
$DIMSD1
 70
     0
  9
$DIMSD2
 70
     0
  9
$DIMTOLJ
 70
     1
  9
$DIMTZIN
 70
     0
  9
$DIMALTZ
 70
     0
  9
$DIMALTTZ
 70
     0
  9
$DIMUPT
 70
     0
  9
$DIMDEC
 70
     4
  9
$DIMTDEC
 70
     4
  9
$DIMALTU
 70
     2
  9
$DIMALTTD
 70
     2
  9
$DIMTXSTY
  7
Standard
  9
$DIMAUNIT
 70
     0
  9
$DIMADEC
 70
     0
  9
$DIMALTRND
 40
0.0
  9
$DIMAZIN
 70
     0
  9
$DIMDSEP
 70
    46
  9
$DIMATFIT
 70
     3
  9
$DIMFRAC
 70
     0
  9
$DIMLDRBLK
  1

  9
$DIMLUNIT
 70
     2
  9
$DIMLWD
 70
    -2
  9
$DIMLWE
 70
    -2
  9
$DIMTMOVE
 70
     0
  9
$DIMFXL
 40
1.0
  9
$DIMFXLON
 70
     0
  9
$DIMJOGANG
 40
0.7853981633974483
  9
$DIMTFILL
 70
     0
  9
$DIMTFILLCLR
 70
     0
  9
$DIMARCSYM
 70
     0
  9
$DIMLTYPE
  6

  9
$DIMLTEX1
  6

  9
$DIMLTEX2
  6

  9
$DIMTXTDIRECTION
 70
     0
  9
$LUNITS
 70
     2
  9
$LUPREC
 70
     4
  9
$SKETCHINC
 40
0.1
  9
$FILLETRAD
 40
0.5
  9
$AUNITS
 70
     0
  9
$AUPREC
 70
     0
  9
$MENU
  1
.
  9
$ELEVATION
 40
0.0
  9
$PELEVATION
 40
0.0
  9
$THICKNESS
 40
0.0
  9
$LIMCHECK
 70
     0
  9
$CHAMFERA
 40
0.5
  9
$CHAMFERB
 40
0.5
  9
$CHAMFERC
 40
1.0
  9
$CHAMFERD
 40
0.0
  9
$SKPOLY
 70
     0
  9
$TDCREATE
 40
2459686.796879421
  9
$TDUCREATE
 40
2459686.671879421
  9
$TDUPDATE
 40
2459686.796879595
  9
$TDUUPDATE
 40
2459686.671879595
  9
$TDINDWG
 40
0.0000000116
  9
$TDUSRTIMER
 40
0.0000000116
  9
$USRTIMER
 70
     1
  9
$ANGBASE
 50
0.0
  9
$ANGDIR
 70
     0
  9
$PDMODE
 70
     0
  9
$PDSIZE
 40
0.0
  9
$PLINEWID
 40
0.0
  9
$SPLFRAME
 70
     0
  9
$SPLINETYPE
 70
     6
  9
$SPLINESEGS
 70
     8
  9
$HANDSEED
  5
147
  9
$SURFTAB1
 70
     6
  9
$SURFTAB2
 70
     6
  9
$SURFTYPE
 70
     6
  9
$SURFU
 70
     6
  9
$SURFV
 70
     6
  9
$UCSBASE
  2

  9
$UCSNAME
  2

  9
$UCSORG
 10
0.0
 20
0.0
 30
0.0
  9
$UCSXDIR
 10
1.0
 20
0.0
 30
0.0
  9
$UCSYDIR
 10
0.0
 20
1.0
 30
0.0
  9
$UCSORTHOREF
  2

  9
$UCSORTHOVIEW
 70
     0
  9
$UCSORGTOP
 10
0.0
 20
0.0
 30
0.0
  9
$UCSORGBOTTOM
 10
0.0
 20
0.0
 30
0.0
  9
$UCSORGLEFT
 10
0.0
 20
0.0
 30
0.0
  9
$UCSORGRIGHT
 10
0.0
 20
0.0
 30
0.0
  9
$UCSORGFRONT
 10
0.0
 20
0.0
 30
0.0
  9
$UCSORGBACK
 10
0.0
 20
0.0
 30
0.0
  9
$PUCSBASE
  2

  9
$PUCSNAME
  2

  9
$PUCSORG
 10
0.0
 20
0.0
 30
0.0
  9
$PUCSXDIR
 10
1.0
 20
0.0
 30
0.0
  9
$PUCSYDIR
 10
0.0
 20
1.0
 30
0.0
  9
$PUCSORTHOREF
  2

  9
$PUCSORTHOVIEW
 70
     0
  9
$PUCSORGTOP
 10
0.0
 20
0.0
 30
0.0
  9
$PUCSORGBOTTOM
 10
0.0
 20
0.0
 30
0.0
  9
$PUCSORGLEFT
 10
0.0
 20
0.0
 30
0.0
  9
$PUCSORGRIGHT
 10
0.0
 20
0.0
 30
0.0
  9
$PUCSORGFRONT
 10
0.0
 20
0.0
 30
0.0
  9
$PUCSORGBACK
 10
0.0
 20
0.0
 30
0.0
  9
$USERI1
 70
     0
  9
$USERI2
 70
     0
  9
$USERI3
 70
     0
  9
$USERI4
 70
     0
  9
$USERI5
 70
     0
  9
$USERR1
 40
0.0
  9
$USERR2
 40
0.0
  9
$USERR3
 40
0.0
  9
$USERR4
 40
0.0
  9
$USERR5
 40
0.0
  9
$WORLDVIEW
 70
     1
  9
$SHADEDGE
 70
     3
  9
$SHADEDIF
 70
    70
  9
$TILEMODE
 70
     1
  9
$MAXACTVP
 70
    64
  9
$PINSBASE
 10
0.0
 20
0.0
 30
0.0
  9
$PLIMCHECK
 70
     0
  9
$PEXTMIN
 10
1.000000000000000E+20
 20
1.000000000000000E+20
 30
1.000000000000000E+20
  9
$PEXTMAX
 10
-1.000000000000000E+20
 20
-1.000000000000000E+20
 30
-1.000000000000000E+20
  9
$PLIMMIN
 10
0.0
 20
0.0
  9
$PLIMMAX
 10
12.0
 20
9.0
  9
$UNITMODE
 70
     0
  9
$VISRETAIN
 70
     1
  9
$PLINEGEN
 70
     0
  9
$PSLTSCALE
 70
     1
  9
$TREEDEPTH
 70
  3020
  9
$CMLSTYLE
  2
Standard
  9
$CMLJUST
 70
     0
  9
$CMLSCALE
 40
1.0
  9
$PROXYGRAPHICS
 70
     1
  9
$MEASUREMENT
 70
     0
  9
$CELWEIGHT
370
    -1
  9
$ENDCAPS
280
     0
  9
$JOINSTYLE
280
     0
  9
$LWDISPLAY
290
     1
  9
$INSUNITS
 70
     0
  9
$HYPERLINKBASE
  1

  9
$STYLESHEET
  1

  9
$XEDIT
290
     1
  9
$CEPSNTYPE
380
     0
  9
$PSTYLEMODE
290
     1
  9
$FINGERPRINTGUID
  2
{2405B5B3-F146-4DA5-8875-79DE35D83FD1}
  9
$VERSIONGUID
  2
{FAEB1C32-E019-11D5-929B-00C0DF256EC4}
  9
$EXTNAMES
290
     1
  9
$PSVPSCALE
 40
0.0
  9
$OLESTARTUP
290
     0
  9
$SORTENTS
280
   127
  9
$INDEXCTL
280
     0
  9
$HIDETEXT
280
     1
  9
$XCLIPFRAME
280
     2
  9
$HALOGAP
280
     0
  9
$OBSCOLOR
 70
   257
  9
$OBSLTYPE
280
     0
  9
$INTERSECTIONDISPLAY
280
     0
  9
$INTERSECTIONCOLOR
 70
   257
  9
$DIMASSOC
280
     2
  9
$PROJECTNAME
  1

  9
$CAMERADISPLAY
290
     0
  9
$LENSLENGTH
 40
50.0
  9
$CAMERAHEIGHT
 40
0.0
  9
$STEPSPERSEC
 40
2.0
  9
$STEPSIZE
 40
6.0
  9
$3DDWFPREC
 40
2.0
  9
$PSOLWIDTH
 40
0.25
  9
$PSOLHEIGHT
 40
4.0
  9
$LOFTANG1
 40
1.570796326794897
  9
$LOFTANG2
 40
1.570796326794897
  9
$LOFTMAG1
 40
0.0
  9
$LOFTMAG2
 40
0.0
  9
$LOFTPARAM
 70
     7
  9
$LOFTNORMALS
280
     1
  9
$LATITUDE
 40
37.795
  9
$LONGITUDE
 40
-122.394
  9
$NORTHDIRECTION
 40
0.0
  9
$TIMEZONE
 70
 -8000
  9
$LIGHTGLYPHDISPLAY
280
     1
  9
$TILEMODELIGHTSYNCH
280
     1
  9
$CMATERIAL
347
3C
  9
$SOLIDHIST
280
     1
  9
$SHOWHIST
280
     1
  9
$DWFFRAME
280
     2
  9
$DGNFRAME
280
     2
  9
$REALWORLDSCALE
290
     1
  9
$INTERFERECOLOR
 62
   256
  9
$CSHADOW
280
     0
  9
$SHADOWPLANELOCATION
 40
0.0
  0
ENDSEC
  0
SECTION
  2
CLASSES
  0
CLASS
  1
ACDBDICTIONARYWDFLT
  2
AcDbDictionaryWithDefault
  3
ObjectDBX Classes
 90
        0
 91
        4
280
     0
281
     0
  0
CLASS
  1
VISUALSTYLE
  2
AcDbVisualStyle
  3
ObjectDBX Classes
 90
     4095
 91
        4
280
     0
281
     0
  0
CLASS
  1
MATERIAL
  2
AcDbMaterial
  3
ObjectDBX Classes
 90
     1153
 91
        4
280
     0
281
     0
  0
CLASS
  1
SUN
  2
AcDbSun
  3
SCENEOE
 90
     1024
 91
        4
280
     0
281
     0
  0
ENDSEC
  0
SECTION
  2
TABLES
  0
TABLE
  2
VPORT
  5
8
330
0
100
AcDbSymbolTable
 70
     1
  0
VPORT
  5
29
330
8
100
AcDbSymbolTableRecord
100
AcDbViewportTableRecord
  2
*Active
 70
     0
 10
0.0
 20
0.0
 11
1.0
 21
1.0
 12
0.0
 22
0.0
 13
0.0
 23
0.0
 14
0.5
 24
0.5
 15
0.5
 25
0.5
 16
0.0
 26
0.0
 36
1.0
 17
540.0
 27
-540.0
 37
0.0
 40
1080.0
 41
1.0
 42
50.0
 43
0.0
 44
0.0
 50
0.0
 51
0.0
 71
     0
 72
   100
 73
     1
 74
     3
 75
     0
 76
     0
 77
     0
 78
     0
281
     0
 65
     1
110
0.0
120
0.0
130
0.0
111
1.0
121
0.0
131
0.0
112
0.0
122
1.0
132
0.0
 79
     0
146
0.0
 60
     3
 61
     5
292
     1
282
     1
141
0.0
142
0.0
 63
   250
361
3F
  0
ENDTAB
  0
TABLE
  2
LTYPE
  5
5
330
0
100
AcDbSymbolTable
 70
     1
  0
LTYPE
  5
14
330
5
100
AcDbSymbolTableRecord
100
AcDbLinetypeTableRecord
  2
ByBlock
 70
     0
  3

 72
    65
 73
     0
 40
0.0
  0
LTYPE
  5
15
330
5
100
AcDbSymbolTableRecord
100
AcDbLinetypeTableRecord
  2
ByLayer
 70
     0
  3

 72
    65
 73
     0
 40
0.0
  0
LTYPE
  5
16
330
5
100
AcDbSymbolTableRecord
100
AcDbLinetypeTableRecord
  2
Continuous
 70
     0
  3
Solid line
 72
    65
 73
     0
 40
0.0
  0
ENDTAB
  0
TABLE
  2
LAYER
  5
2
330
0
100
AcDbSymbolTable
 70
     2
  0
LAYER
  5
10
330
2
100
AcDbSymbolTableRecord
100
AcDbLayerTableRecord
  2
0
 70
     0
 62
     7
  6
Continuous
370
    -3
390
F
347
3E
  0
LAYER
  5
40
330
2
100
AcDbSymbolTableRecord
100
AcDbLayerTableRecord
  2
Layer 1
 70
     0
 62
     7
  6
Continuous
370
    -3
390
F
347
3E
  0
ENDTAB
  0
TABLE
  2
STYLE
  5
3
330
0
100
AcDbSymbolTable
 70
     1
  0
STYLE
  5
11
330
3
100
AcDbSymbolTableRecord
100
AcDbTextStyleTableRecord
  2
Standard
 70
     0
 40
0.0
 41
1.0
 50
0.0
 71
     0
 42
0.2
  3
txt
  4

  0
ENDTAB
  0
TABLE
  2
VIEW
  5
6
330
0
100
AcDbSymbolTable
 70
     0
  0
ENDTAB
  0
TABLE
  2
UCS
  5
7
330
0
100
AcDbSymbolTable
 70
     0
  0
ENDTAB
  0
TABLE
  2
APPID
  5
9
330
0
100
AcDbSymbolTable
 70
     1
  0
APPID
  5
12
330
9
100
AcDbSymbolTableRecord
100
AcDbRegAppTableRecord
  2
ACAD
 70
     0
  0
ENDTAB
  0
TABLE
  2
DIMSTYLE
  5
A
330
0
100
AcDbSymbolTable
 70
     1
100
AcDbDimStyleTable
  0
DIMSTYLE
105
27
330
A
100
AcDbSymbolTableRecord
100
AcDbDimStyleTableRecord
  2
Standard
 70
     0
178
     0
340
11
  0
ENDTAB
  0
TABLE
  2
BLOCK_RECORD
  5
1
330
0
100
AcDbSymbolTable
 70
     8
  0
BLOCK_RECORD
  5
1F
330
1
100
AcDbSymbolTableRecord
100
AcDbBlockTableRecord
  2
*Model_Space
340
22
 70
     0
280
     1
281
     0
  0
BLOCK_RECORD
  5
1B
330
1
100
AcDbSymbolTableRecord
100
AcDbBlockTableRecord
  2
*Paper_Space
340
1E
 70
     0
280
     1
281
     0
  0
BLOCK_RECORD
  5
23
330
1
100
AcDbSymbolTableRecord
100
AcDbBlockTableRecord
  2
*Paper_Space0
340
26
 70
     0
280
     1
281
     0
  0
BLOCK_RECORD
  5
49
330
1
100
AcDbSymbolTableRecord
100
AcDbBlockTableRecord
  2
block 2
340
0
102
{BLKREFS
331
4A
102
}
 70
     0
280
     1
281
     0
  0
BLOCK_RECORD
  5
6D
330
1
100
AcDbSymbolTableRecord
100
AcDbBlockTableRecord
  2
block 3
340
0
102
{BLKREFS
331
6E
102
}
 70
     0
280
     1
281
     0
  0
BLOCK_RECORD
  5
91
330
1
100
AcDbSymbolTableRecord
100
AcDbBlockTableRecord
  2
block 4
340
0
102
{BLKREFS
331
92
102
}
 70
     0
280
     1
281
     0
  0
BLOCK_RECORD
  5
B5
330
1
100
AcDbSymbolTableRecord
100
AcDbBlockTableRecord
  2
block 5
340
0
102
{BLKREFS
331
B6
102
}
 70
     0
280
     1
281
     0
  0
BLOCK_RECORD
  5
D9
330
1
100
AcDbSymbolTableRecord
100
AcDbBlockTableRecord
  2
block 6
340
0
102
{BLKREFS
331
DA
102
}
 70
     0
280
     1
281
     0
  0
BLOCK_RECORD
  5
FD
330
1
100
AcDbSymbolTableRecord
100
AcDbBlockTableRecord
  2
block 7
340
0
102
{BLKREFS
331
FE
102
}
 70
     0
280
     1
281
     0
  0
BLOCK_RECORD
  5
121
330
1
100
AcDbSymbolTableRecord
100
AcDbBlockTableRecord
  2
block 8
340
0
102
{BLKREFS
331
122
102
}
 70
     0
280
     1
281
     0
  0
ENDTAB
  0
ENDSEC
  0
SECTION
  2
BLOCKS
  0
BLOCK
  5
20
330
1F
100
AcDbEntity
  8
0
100
AcDbBlockBegin
  2
*Model_Space
 70
     0
 10
0.0
 20
0.0
 30
0.0
  3
*Model_Space
  1

  0
ENDBLK
  5
21
330
1F
100
AcDbEntity
  8
0
100
AcDbBlockEnd
  0
BLOCK
  5
1C
330
1B
100
AcDbEntity
 67
     1
  8
0
100
AcDbBlockBegin
  2
*Paper_Space
 70
     0
 10
0.0
 20
0.0
 30
0.0
  3
*Paper_Space
  1

  0
ENDBLK
  5
1D
330
1B
100
AcDbEntity
 67
     1
  8
0
100
AcDbBlockEnd
  0
BLOCK
  5
24
330
23
100
AcDbEntity
  8
0
100
AcDbBlockBegin
  2
*Paper_Space0
 70
     0
 10
0.0
 20
0.0
 30
0.0
  3
*Paper_Space0
  1

  0
ENDBLK
  5
25
330
23
100
AcDbEntity
  8
0
100
AcDbBlockEnd
  0
BLOCK
  5
4B
330
49
100
AcDbEntity
  8
0
100
AcDbBlockBegin
  2
block 2
 70
     0
 10
0.0
 20
0.0
 30
0.0
  3
block 2
  1

  0
SPLINE
  5
4D
330
49
100
AcDbEntity
  8
Layer 1
370
     0
100
AcDbSpline
210
0.0
220
0.0
230
1.0
 70
    11
 71
     3
 72
    17
 73
    13
 74
     0
 42
0.0000000001
 43
0.0000000001
 12
1.0
 22
0.0
 32
0.0
 13
1.0
 23
0.0
 33
0.0
 40
0.0
 40
0.0
 40
0.0
 40
0.0
 40
1.0
 40
1.0
 40
1.0
 40
2.0
 40
2.0
 40
2.0
 40
3.0
 40
3.0
 40
3.0
 40
4.0
 40
4.0
 40
4.0
 40
4.0
 10
551.5
 20
-397.0
 30
0.0
 10
548.7399033574347
 20
-397.0
 30
0.0
 10
546.2300057269676
 20
-395.933493449782
 30
0.0
 10
544.3558808790895
 20
-394.1920524017469
 30
0.0
 10
544.3558808790895
 20
-394.1920524017469
 30
0.0
 10
551.8620617080669
 20
-412.2068924046107
 30
0.0
 10
551.8620617080669
 20
-412.2068924046107
 30
0.0
 10
551.8620617080669
 20
-412.2068924046107
 30
0.0
 10
559.0043618011314
 20
-393.840995060491
 30
0.0
 10
559.0043618011314
 20
-393.840995060491
 30
0.0
 10
557.0981709499611
 20
-395.7893542844868
 30
0.0
 10
554.4410523301594
 20
-397.0
 30
0.0
 10
551.5
 20
-397.0
 30
0.0
  0
HATCH
  5
4E
330
49
100
AcDbEntity
  8
Layer 1
 62
   250
420
  4013373
100
AcDbHatch
 10
0.0
 20
0.0
 30
0.0
210
0.0
220
0.0
230
1.0
  2
SOLID
 70
     1
 71
     0
 91
        1
 92
        1
 93
        1
 72
     4
 94
        3
 73
     0
 74
     1
 95
       17
 96
       13
 40
0.0
 40
0.0
 40
0.0
 40
0.0
 40
1.0
 40
1.0
 40
1.0
 40
2.0
 40
2.0
 40
2.0
 40
3.0
 40
3.0
 40
3.0
 40
4.0
 40
4.0
 40
4.0
 40
4.0
 10
551.5
 20
-397.0
 10
548.7399033574347
 20
-397.0
 10
546.2300057269676
 20
-395.933493449782
 10
544.3558808790895
 20
-394.1920524017469
 10
544.3558808790895
 20
-394.1920524017469
 10
551.8620617080669
 20
-412.2068924046107
 10
551.8620617080669
 20
-412.2068924046107
 10
551.8620617080669
 20
-412.2068924046107
 10
559.0043618011314
 20
-393.840995060491
 10
559.0043618011314
 20
-393.840995060491
 10
557.0981709499611
 20
-395.7893542844868
 10
554.4410523301594
 20
-397.0
 10
551.5
 20
-397.0
 97
        0
 97
        0
 75
     2
 76
     1
 98
        0
  0
SPLINE
  5
4F
330
49
100
AcDbEntity
  8
Layer 1
370
     0
100
AcDbSpline
210
0.0
220
0.0
230
1.0
 70
    11
 71
     3
 72
    14
 73
    10
 74
     0
 42
0.0000000001
 43
0.0000000001
 12
1.0
 22
0.0
 32
0.0
 13
1.0
 23
0.0
 33
0.0
 40
0.0
 40
0.0
 40
0.0
 40
0.0
 40
1.0
 40
1.0
 40
1.0
 40
2.0
 40
2.0
 40
2.0
 40
3.0
 40
3.0
 40
3.0
 40
3.0
 10
561.9914009592667
 20
-386.1600372252851
 30
0.0
 10
561.9914009592667
 20
-386.1600372252851
 30
0.0
 10
559.0043618011314
 20
-393.840995060491
 30
0.0
 10
559.0043618011314
 20
-393.840995060491
 30
0.0
 10
560.8566883814165
 20
-391.9477178037087
 30
0.0
 10
562.0
 20
-389.3579332808358
 30
0.0
 10
562.0
 20
-386.5
 30
0.0
 10
562.0
 20
-386.3859725105594
 30
0.0
 10
561.9950089483864
 20
-386.2731777507342
 30
0.0
 10
561.9914009592667
 20
-386.1600372252851
 30
0.0
  0
HATCH
  5
50
330
49
100
AcDbEntity
  8
Layer 1
 62
   250
420
  4013373
100
AcDbHatch
 10
0.0
 20
0.0
 30
0.0
210
0.0
220
0.0
230
1.0
  2
SOLID
 70
     1
 71
     0
 91
        1
 92
        1
 93
        1
 72
     4
 94
        3
 73
     0
 74
     1
 95
       14
 96
       10
 40
0.0
 40
0.0
 40
0.0
 40
0.0
 40
1.0
 40
1.0
 40
1.0
 40
2.0
 40
2.0
 40
2.0
 40
3.0
 40
3.0
 40
3.0
 40
3.0
 10
561.9914009592667
 20
-386.1600372252851
 10
561.9914009592667
 20
-386.1600372252851
 10
559.0043618011314
 20
-393.840995060491
 10
559.0043618011314
 20
-393.840995060491
 10
560.8566883814165
 20
-391.9477178037087
 10
562.0
 20
-389.3579332808358
 10
562.0
 20
-386.5
 10
562.0
 20
-386.3859725105594
 10
561.9950089483864
 20
-386.2731777507342
 10
561.9914009592667
 20
-386.1600372252851
 97
        0
 97
        0
 75
     2
 76
     1
 98
        0
  0
SPLINE
  5
51
330
49
100
AcDbEntity
  8
Layer 1
370
     0
100
AcDbSpline
210
0.0
220
0.0
230
1.0
 70
    11
 71
     3
 72
    23
 73
    19
 74
     0
 42
0.0000000001
 43
0.0000000001
 12
1.0
 22
0.0
 32
0.0
 13
1.0
 23
0.0
 33
0.0
 40
0.0
 40
0.0
 40
0.0
 40
0.0
 40
1.0
 40
1.0
 40
1.0
 40
2.0
 40
2.0
 40
2.0
 40
3.0
 40
3.0
 40
3.0
 40
4.0
 40
4.0
 40
4.0
 40
5.0
 40
5.0
 40
5.0
 40
6.0
 40
6.0
 40
6.0
 40
6.0
 10
551.5
 20
-376.0
 30
0.0
 10
545.8155079103726
 20
-376.0
 30
0.0
 10
541.1892089627036
 20
-380.517999140955
 30
0.0
 10
541.0086291073094
 20
-386.1586391295014
 30
0.0
 10
541.0086291073094
 20
-386.1586391295014
 30
0.0
 10
544.3558808790895
 20
-394.1920524017469
 30
0.0
 10
544.3558808790895
 20
-394.1920524017469
 30
0.0
 10
546.2300057269676
 20
-395.933493449782
 30
0.0
 10
548.7399033574347
 20
-397.0
 30
0.0
 10
551.5
 20
-397.0
 30
0.0
 10
554.4410523301594
 20
-397.0
 30
0.0
 10
557.0981709499611
 20
-395.7893542844868
 30
0.0
 10
559.0043618011314
 20
-393.840995060491
 30
0.0
 10
559.0043618011314
 20
-393.840995060491
 30
0.0
 10
561.9914009592667
 20
-386.1600372252851
 30
0.0
 10
561.9914009592667
 20
-386.1600372252851
 30
0.0
 10
561.8115427016965
 20
-380.518750805355
 30
0.0
 10
557.1849581215538
 20
-376.0
 30
0.0
 10
551.5
 20
-376.0
 30
0.0
  0
HATCH
  5
52
330
49
100
AcDbEntity
  8
Layer 1
 62
   250
420
  4013373
100
AcDbHatch
 10
0.0
 20
0.0
 30
0.0
210
0.0
220
0.0
230
1.0
  2
SOLID
 70
     1
 71
     0
 91
        1
 92
        1
 93
        1
 72
     4
 94
        3
 73
     0
 74
     1
 95
       23
 96
       19
 40
0.0
 40
0.0
 40
0.0
 40
0.0
 40
1.0
 40
1.0
 40
1.0
 40
2.0
 40
2.0
 40
2.0
 40
3.0
 40
3.0
 40
3.0
 40
4.0
 40
4.0
 40
4.0
 40
5.0
 40
5.0
 40
5.0
 40
6.0
 40
6.0
 40
6.0
 40
6.0
 10
551.5
 20
-376.0
 10
545.8155079103726
 20
-376.0
 10
541.1892089627036
 20
-380.517999140955
 10
541.0086291073094
 20
-386.1586391295014
 10
541.0086291073094
 20
-386.1586391295014
 10
544.3558808790895
 20
-394.1920524017469
 10
544.3558808790895
 20
-394.1920524017469
 10
546.2300057269676
 20
-395.933493449782
 10
548.7399033574347
 20
-397.0
 10
551.5
 20
-397.0
 10
554.4410523301594
 20
-397.0
 10
557.0981709499611
 20
-395.7893542844868
 10
559.0043618011314
 20
-393.840995060491
 10
559.0043618011314
 20
-393.840995060491
 10
561.9914009592667
 20
-386.1600372252851
 10
561.9914009592667
 20
-386.1600372252851
 10
561.8115427016965
 20
-380.518750805355
 10
557.1849581215538
 20
-376.0
 10
551.5
 20
-376.0
 97
        0
 97
        0
 75
     2
 76
     1
 98
        0
  0
SPLINE
  5
53
330
49
100
AcDbEntity
  8
Layer 1
370
     0
100
AcDbSpline
210
0.0
220
0.0
230
1.0
 70
    11
 71
     3
 72
    14
 73
    10
 74
     0
 42
0.0000000001
 43
0.0000000001
 12
1.0
 22
0.0
 32
0.0
 13
1.0
 23
0.0
 33
0.0
 40
0.0
 40
0.0
 40
0.0
 40
0.0
 40
1.0
 40
1.0
 40
1.0
 40
2.0
 40
2.0
 40
2.0
 40
3.0
 40
3.0
 40
3.0
 40
3.0
 10
541.0
 20
-386.5
 30
0.0
 10
541.0
 20
-389.53888896843
 30
0.0
 10
542.2924418354924
 20
-392.2747218841723
 30
0.0
 10
544.3558808790895
 20
-394.1920524017469
 30
0.0
 10
544.3558808790895
 20
-394.1920524017469
 30
0.0
 10
541.0086291073094
 20
-386.1586391295014
 30
0.0
 10
541.0086291073094
 20
-386.1586391295014
 30
0.0
 10
541.0049910516136
 20
-386.2722456868778
 30
0.0
 10
541.0
 20
-386.3855064786312
 30
0.0
 10
541.0
 20
-386.5
 30
0.0
  0
HATCH
  5
54
330
49
100
AcDbEntity
  8
Layer 1
 62
   250
420
  4013373
100
AcDbHatch
 10
0.0
 20
0.0
 30
0.0
210
0.0
220
0.0
230
1.0
  2
SOLID
 70
     1
 71
     0
 91
        1
 92
        1
 93
        1
 72
     4
 94
        3
 73
     0
 74
     1
 95
       14
 96
       10
 40
0.0
 40
0.0
 40
0.0
 40
0.0
 40
1.0
 40
1.0
 40
1.0
 40
2.0
 40
2.0
 40
2.0
 40
3.0
 40
3.0
 40
3.0
 40
3.0
 10
541.0
 20
-386.5
 10
541.0
 20
-389.53888896843
 10
542.2924418354924
 20
-392.2747218841723
 10
544.3558808790895
 20
-394.1920524017469
 10
544.3558808790895
 20
-394.1920524017469
 10
541.0086291073094
 20
-386.1586391295014
 10
541.0086291073094
 20
-386.1586391295014
 10
541.0049910516136
 20
-386.2722456868778
 10
541.0
 20
-386.3855064786312
 10
541.0
 20
-386.5
 97
        0
 97
        0
 75
     2
 76
     1
 98
        0
  0
POLYLINE
  5
55
330
49
100
AcDbEntity
  8
Layer 1
370
     0
100
AcDb2dPolyline
 66
     1
 10
0.0
 20
0.0
 30
0.0
  0
VERTEX
  5
56
330
55
100
AcDbEntity
  8
Layer 1
370
     0
100
AcDbVertex
100
AcDb2dVertex
 10
561.9914009592667
 20
-386.1600372252851
 30
0.0
  0
VERTEX
  5
57
330
55
100
AcDbEntity
  8
Layer 1
370
     0
100
AcDbVertex
100
AcDb2dVertex
 10
562.0
 20
-386.1379232586442
 30
0.0
  0
SEQEND
  5
58
330
55
100
AcDbEntity
  8
Layer 1
370
     0
  0
POLYLINE
  5
59
330
49
100
AcDbEntity
  8
Layer 1
370
     0
100
AcDb2dPolyline
 66
     1
 10
0.0
 20
0.0
 30
0.0
  0
VERTEX
  5
5A
330
59
100
AcDbEntity
  8
Layer 1
370
     0
100
AcDbVertex
100
AcDb2dVertex
 10
561.9914009592667
 20
-386.1600372252851
 30
0.0
  0
VERTEX
  5
5B
330
59
100
AcDbEntity
  8
Layer 1
370
     0
100
AcDbVertex
100
AcDb2dVertex
 10
559.0043618011314
 20
-393.840995060491
 30
0.0
  0
SEQEND
  5
5C
330
59
100
AcDbEntity
  8
Layer 1
370
     0
  0
POLYLINE
  5
5D
330
49
100
AcDbEntity
  8
Layer 1
370
     0
100
AcDb2dPolyline
 66
     1
 10
0.0
 20
0.0
 30
0.0
  0
VERTEX
  5
5E
330
5D
100
AcDbEntity
  8
Layer 1
370
     0
100
AcDbVertex
100
AcDb2dVertex
 10
559.0043618011314
 20
-393.840995060491
 30
0.0
  0
VERTEX
  5
5F
330
5D
100
AcDbEntity
  8
Layer 1
370
     0
100
AcDbVertex
100
AcDb2dVertex
 10
551.8620617080669
 20
-412.2068924046107
 30
0.0
  0
SEQEND
  5
60
330
5D
100
AcDbEntity
  8
Layer 1
370
     0
  0
POLYLINE
  5
61
330
49
100
AcDbEntity
  8
Layer 1
370
     0
100
AcDb2dPolyline
 66
     1
 10
0.0
 20
0.0
 30
0.0
  0
VERTEX
  5
62
330
61
100
AcDbEntity
  8
Layer 1
370
     0
100
AcDbVertex
100
AcDb2dVertex
 10
541.0086291073094
 20
-386.1586391295014
 30
0.0
  0
VERTEX
  5
63
330
61
100
AcDbEntity
  8
Layer 1
370
     0
100
AcDbVertex
100
AcDb2dVertex
 10
544.3558808790895
 20
-394.1920524017469
 30
0.0
  0
SEQEND
  5
64
330
61
100
AcDbEntity
  8
Layer 1
370
     0
  0
POLYLINE
  5
65
330
49
100
AcDbEntity
  8
Layer 1
370
     0
100
AcDb2dPolyline
 66
     1
 10
0.0
 20
0.0
 30
0.0
  0
VERTEX
  5
66
330
65
100
AcDbEntity
  8
Layer 1
370
     0
100
AcDbVertex
100
AcDb2dVertex
 10
551.8620617080669
 20
-412.2068924046107
 30
0.0
  0
VERTEX
  5
67
330
65
100
AcDbEntity
  8
Layer 1
370
     0
100
AcDbVertex
100
AcDb2dVertex
 10
544.3558808790895
 20
-394.1920524017469
 30
0.0
  0
SEQEND
  5
68
330
65
100
AcDbEntity
  8
Layer 1
370
     0
  0
POLYLINE
  5
69
330
49
100
AcDbEntity
  8
Layer 1
370
     0
100
AcDb2dPolyline
 66
     1
 10
0.0
 20
0.0
 30
0.0
  0
VERTEX
  5
6A
330
69
100
AcDbEntity
  8
Layer 1
370
     0
100
AcDbVertex
100
AcDb2dVertex
 10
541.0086291073094
 20
-386.1586391295014
 30
0.0
  0
VERTEX
  5
6B
330
69
100
AcDbEntity
  8
Layer 1
370
     0
100
AcDbVertex
100
AcDb2dVertex
 10
541.0
 20
-386.1379232586442
 30
0.0
  0
SEQEND
  5
6C
330
69
100
AcDbEntity
  8
Layer 1
370
     0
  0
ENDBLK
  5
4C
330
49
100
AcDbEntity
  8
0
100
AcDbBlockEnd
  0
BLOCK
  5
6F
330
6D
100
AcDbEntity
  8
0
100
AcDbBlockBegin
  2
block 3
 70
     0
 10
0.0
 20
0.0
 30
0.0
  3
block 3
  1

  0
SPLINE
  5
71
330
6D
100
AcDbEntity
  8
Layer 1
370
     0
100
AcDbSpline
210
0.0
220
0.0
230
1.0
 70
    11
 71
     3
 72
    17
 73
    13
 74
     0
 42
0.0000000001
 43
0.0000000001
 12
1.0
 22
0.0
 32
0.0
 13
1.0
 23
0.0
 33
0.0
 40
0.0
 40
0.0
 40
0.0
 40
0.0
 40
1.0
 40
1.0
 40
1.0
 40
2.0
 40
2.0
 40
2.0
 40
3.0
 40
3.0
 40
3.0
 40
4.0
 40
4.0
 40
4.0
 40
4.0
 10
489.0706792957444
 20
-577.3664600334178
 30
0.0
 10
489.9188929785141
 20
-578.9967418601009
 30
0.0
 10
489.9396152989348
 20
-580.8697691435482
 30
0.0
 10
489.2899408507574
 20
-582.6144144516893
 30
0.0
 10
489.2899408507574
 20
-582.6144144516893
 30
0.0
 10
499.6619473744104
 20
-571.5842168016752
 30
0.0
 10
499.6619473744104
 20
-571.5842168016752
 30
0.0
 10
499.6619473744104
 20
-571.5842168016752
 30
0.0
 10
484.5411992947102
 20
-574.0906745310804
 30
0.0
 10
484.5411992947102
 20
-574.0906745310804
 30
0.0
 10
486.4982420138758
 20
-574.5031464871663
 30
0.0
 10
488.1668555709803
 20
-575.6292947141901
 30
0.0
 10
489.0706792957444
 20
-577.3664600334178
 30
0.0
  0
HATCH
  5
72
330
6D
100
AcDbEntity
  8
Layer 1
 62
   250
420
  4013373
100
AcDbHatch
 10
0.0
 20
0.0
 30
0.0
210
0.0
220
0.0
230
1.0
  2
SOLID
 70
     1
 71
     0
 91
        1
 92
        1
 93
        1
 72
     4
 94
        3
 73
     0
 74
     1
 95
       17
 96
       13
 40
0.0
 40
0.0
 40
0.0
 40
0.0
 40
1.0
 40
1.0
 40
1.0
 40
2.0
 40
2.0
 40
2.0
 40
3.0
 40
3.0
 40
3.0
 40
4.0
 40
4.0
 40
4.0
 40
4.0
 10
489.0706792957444
 20
-577.3664600334178
 10
489.9188929785141
 20
-578.9967418601009
 10
489.9396152989348
 20
-580.8697691435482
 10
489.2899408507574
 20
-582.6144144516893
 10
489.2899408507574
 20
-582.6144144516893
 10
499.6619473744104
 20
-571.5842168016752
 10
499.6619473744104
 20
-571.5842168016752
 10
499.6619473744104
 20
-571.5842168016752
 10
484.5411992947102
 20
-574.0906745310804
 10
484.5411992947102
 20
-574.0906745310804
 10
486.4982420138758
 20
-574.5031464871663
 10
488.1668555709803
 20
-575.6292947141901
 10
489.0706792957444
 20
-577.3664600334178
 97
        0
 97
        0
 75
     2
 76
     1
 98
        0
  0
SPLINE
  5
73
330
6D
100
AcDbEntity
  8
Layer 1
370
     0
100
AcDbSpline
210
0.0
220
0.0
230
1.0
 70
    11
 71
     3
 72
    14
 73
    10
 74
     0
 42
0.0000000001
 43
0.0000000001
 12
1.0
 22
0.0
 32
0.0
 13
1.0
 23
0.0
 33
0.0
 40
0.0
 40
0.0
 40
0.0
 40
0.0
 40
1.0
 40
1.0
 40
1.0
 40
2.0
 40
2.0
 40
2.0
 40
3.0
 40
3.0
 40
3.0
 40
3.0
 10
478.2174237399686
 20
-575.1389231457451
 30
0.0
 10
478.2174237399686
 20
-575.1389231457451
 30
0.0
 10
484.5411992947102
 20
-574.0906745310804
 30
0.0
 10
484.5411992947102
 20
-574.0906745310804
 30
0.0
 10
482.6394761796219
 20
-573.689848454118
 30
0.0
 10
480.4654442965393
 20
-573.9628536761829
 30
0.0
 10
478.4540452329875
 20
-575.0093580764897
 30
0.0
 10
478.3737932596396
 20
-575.0511121196141
 30
0.0
 10
478.2959426904254
 20
-575.0953627879098
 30
0.0
 10
478.2174237399686
 20
-575.1389231457451
 30
0.0
  0
HATCH
  5
74
330
6D
100
AcDbEntity
  8
Layer 1
 62
   250
420
  4013373
100
AcDbHatch
 10
0.0
 20
0.0
 30
0.0
210
0.0
220
0.0
230
1.0
  2
SOLID
 70
     1
 71
     0
 91
        1
 92
        1
 93
        1
 72
     4
 94
        3
 73
     0
 74
     1
 95
       14
 96
       10
 40
0.0
 40
0.0
 40
0.0
 40
0.0
 40
1.0
 40
1.0
 40
1.0
 40
2.0
 40
2.0
 40
2.0
 40
3.0
 40
3.0
 40
3.0
 40
3.0
 10
478.2174237399686
 20
-575.1389231457451
 10
478.2174237399686
 20
-575.1389231457451
 10
484.5411992947102
 20
-574.0906745310804
 10
484.5411992947102
 20
-574.0906745310804
 10
482.6394761796219
 20
-573.689848454118
 10
480.4654442965393
 20
-573.9628536761829
 10
478.4540452329875
 20
-575.0093580764897
 10
478.3737932596396
 20
-575.0511121196141
 10
478.2959426904254
 20
-575.0953627879098
 10
478.2174237399686
 20
-575.1389231457451
 97
        0
 97
        0
 75
     2
 76
     1
 98
        0
  0
SPLINE
  5
75
330
6D
100
AcDbEntity
  8
Layer 1
370
     0
100
AcDbSpline
210
0.0
220
0.0
230
1.0
 70
    11
 71
     3
 72
    23
 73
    19
 74
     0
 42
0.0000000001
 43
0.0000000001
 12
1.0
 22
0.0
 32
0.0
 13
1.0
 23
0.0
 33
0.0
 40
0.0
 40
0.0
 40
0.0
 40
0.0
 40
1.0
 40
1.0
 40
1.0
 40
2.0
 40
2.0
 40
2.0
 40
3.0
 40
3.0
 40
3.0
 40
4.0
 40
4.0
 40
4.0
 40
5.0
 40
5.0
 40
5.0
 40
6.0
 40
6.0
 40
6.0
 40
6.0
 10
474.2909849558364
 20
-585.0561400388269
 30
0.0
 10
476.0379034860325
 20
-588.413748611194
 30
0.0
 10
480.6393705310011
 20
-589.4919442047194
 30
0.0
 10
484.6647191182938
 20
-587.533143015522
 30
0.0
 10
484.6647191182938
 20
-587.533143015522
 30
0.0
 10
489.2899408507574
 20
-582.6144144516893
 30
0.0
 10
489.2899408507574
 20
-582.6144144516893
 30
0.0
 10
489.9396152989348
 20
-580.8697691435482
 30
0.0
 10
489.9188929785141
 20
-578.9967418601009
 30
0.0
 10
489.0706792957444
 20
-577.3664600334178
 30
0.0
 10
488.1668555709803
 20
-575.6292947141901
 30
0.0
 10
486.4982420138758
 20
-574.5031464871663
 30
0.0
 10
484.5411992947102
 20
-574.0906745310804
 30
0.0
 10
484.5411992947102
 20
-574.0906745310804
 30
0.0
 10
478.2174237399686
 20
-575.1389231457451
 30
0.0
 10
478.2174237399686
 20
-575.1389231457451
 30
0.0
 10
474.3023875288136
 20
-577.3108578284573
 30
0.0
 10
472.5439232079543
 20
-581.6982561995101
 30
0.0
 10
474.2909849558364
 20
-585.0561400388269
 30
0.0
  0
HATCH
  5
76
330
6D
100
AcDbEntity
  8
Layer 1
 62
   250
420
  4013373
100
AcDbHatch
 10
0.0
 20
0.0
 30
0.0
210
0.0
220
0.0
230
1.0
  2
SOLID
 70
     1
 71
     0
 91
        1
 92
        1
 93
        1
 72
     4
 94
        3
 73
     0
 74
     1
 95
       23
 96
       19
 40
0.0
 40
0.0
 40
0.0
 40
0.0
 40
1.0
 40
1.0
 40
1.0
 40
2.0
 40
2.0
 40
2.0
 40
3.0
 40
3.0
 40
3.0
 40
4.0
 40
4.0
 40
4.0
 40
5.0
 40
5.0
 40
5.0
 40
6.0
 40
6.0
 40
6.0
 40
6.0
 10
474.2909849558364
 20
-585.0561400388269
 10
476.0379034860325
 20
-588.413748611194
 10
480.6393705310011
 20
-589.4919442047194
 10
484.6647191182938
 20
-587.533143015522
 10
484.6647191182938
 20
-587.533143015522
 10
489.2899408507574
 20
-582.6144144516893
 10
489.2899408507574
 20
-582.6144144516893
 10
489.9396152989348
 20
-580.8697691435482
 10
489.9188929785141
 20
-578.9967418601009
 10
489.0706792957444
 20
-577.3664600334178
 10
488.1668555709803
 20
-575.6292947141901
 10
486.4982420138758
 20
-574.5031464871663
 10
484.5411992947102
 20
-574.0906745310804
 10
484.5411992947102
 20
-574.0906745310804
 10
478.2174237399686
 20
-575.1389231457451
 10
478.2174237399686
 20
-575.1389231457451
 10
474.3023875288136
 20
-577.3108578284573
 10
472.5439232079543
 20
-581.6982561995101
 10
474.2909849558364
 20
-585.0561400388269
 97
        0
 97
        0
 75
     2
 76
     1
 98
        0
  0
SPLINE
  5
77
330
6D
100
AcDbEntity
  8
Layer 1
370
     0
100
AcDbSpline
210
0.0
220
0.0
230
1.0
 70
    11
 71
     3
 72
    14
 73
    10
 74
     0
 42
0.0000000001
 43
0.0000000001
 12
1.0
 22
0.0
 32
0.0
 13
1.0
 23
0.0
 33
0.0
 40
0.0
 40
0.0
 40
0.0
 40
0.0
 40
1.0
 40
1.0
 40
1.0
 40
2.0
 40
2.0
 40
2.0
 40
3.0
 40
3.0
 40
3.0
 40
3.0
 10
484.9076190185933
 20
-587.413241995755
 30
0.0
 10
487.0463737846076
 20
-586.3004761034117
 30
0.0
 10
488.5746549994074
 20
-584.5352866667363
 30
0.0
 10
489.2899408507574
 20
-582.6144144516893
 30
0.0
 10
489.2899408507574
 20
-582.6144144516893
 30
0.0
 10
484.6647191182938
 20
-587.533143015522
 30
0.0
 10
484.6647191182938
 20
-587.533143015522
 30
0.0
 10
484.7457928637177
 20
-587.4936919654174
 30
0.0
 10
484.8270390543212
 20
-587.4551666882326
 30
0.0
 10
484.9076190185933
 20
-587.413241995755
 30
0.0
  0
HATCH
  5
78
330
6D
100
AcDbEntity
  8
Layer 1
 62
   250
420
  4013373
100
AcDbHatch
 10
0.0
 20
0.0
 30
0.0
210
0.0
220
0.0
230
1.0
  2
SOLID
 70
     1
 71
     0
 91
        1
 92
        1
 93
        1
 72
     4
 94
        3
 73
     0
 74
     1
 95
       14
 96
       10
 40
0.0
 40
0.0
 40
0.0
 40
0.0
 40
1.0
 40
1.0
 40
1.0
 40
2.0
 40
2.0
 40
2.0
 40
3.0
 40
3.0
 40
3.0
 40
3.0
 10
484.9076190185933
 20
-587.413241995755
 10
487.0463737846076
 20
-586.3004761034117
 10
488.5746549994074
 20
-584.5352866667363
 10
489.2899408507574
 20
-582.6144144516893
 10
489.2899408507574
 20
-582.6144144516893
 10
484.6647191182938
 20
-587.533143015522
 10
484.6647191182938
 20
-587.533143015522
 10
484.7457928637177
 20
-587.4936919654174
 10
484.8270390543212
 20
-587.4551666882326
 10
484.9076190185933
 20
-587.413241995755
 97
        0
 97
        0
 75
     2
 76
     1
 98
        0
  0
POLYLINE
  5
79
330
6D
100
AcDbEntity
  8
Layer 1
370
     0
100
AcDb2dPolyline
 66
     1
 10
0.0
 20
0.0
 30
0.0
  0
VERTEX
  5
7A
330
79
100
AcDbEntity
  8
Layer 1
370
     0
100
AcDbVertex
100
AcDb2dVertex
 10
478.2174237399686
 20
-575.1389231457451
 30
0.0
  0
VERTEX
  5
7B
330
79
100
AcDbEntity
  8
Layer 1
370
     0
100
AcDbVertex
100
AcDb2dVertex
 10
478.1992174441857
 20
-575.1419416135577
 30
0.0
  0
SEQEND
  5
7C
330
79
100
AcDbEntity
  8
Layer 1
370
     0
  0
POLYLINE
  5
7D
330
6D
100
AcDbEntity
  8
Layer 1
370
     0
100
AcDb2dPolyline
 66
     1
 10
0.0
 20
0.0
 30
0.0
  0
VERTEX
  5
7E
330
7D
100
AcDbEntity
  8
Layer 1
370
     0
100
AcDbVertex
100
AcDb2dVertex
 10
478.2174237399686
 20
-575.1389231457451
 30
0.0
  0
VERTEX
  5
7F
330
7D
100
AcDbEntity
  8
Layer 1
370
     0
100
AcDbVertex
100
AcDb2dVertex
 10
484.5411992947102
 20
-574.0906745310804
 30
0.0
  0
SEQEND
  5
80
330
7D
100
AcDbEntity
  8
Layer 1
370
     0
  0
POLYLINE
  5
81
330
6D
100
AcDbEntity
  8
Layer 1
370
     0
100
AcDb2dPolyline
 66
     1
 10
0.0
 20
0.0
 30
0.0
  0
VERTEX
  5
82
330
81
100
AcDbEntity
  8
Layer 1
370
     0
100
AcDbVertex
100
AcDb2dVertex
 10
484.5411992947102
 20
-574.0906745310804
 30
0.0
  0
VERTEX
  5
83
330
81
100
AcDbEntity
  8
Layer 1
370
     0
100
AcDbVertex
100
AcDb2dVertex
 10
499.6619473744104
 20
-571.5842168016752
 30
0.0
  0
SEQEND
  5
84
330
81
100
AcDbEntity
  8
Layer 1
370
     0
  0
POLYLINE
  5
85
330
6D
100
AcDbEntity
  8
Layer 1
370
     0
100
AcDb2dPolyline
 66
     1
 10
0.0
 20
0.0
 30
0.0
  0
VERTEX
  5
86
330
85
100
AcDbEntity
  8
Layer 1
370
     0
100
AcDbVertex
100
AcDb2dVertex
 10
484.6647191182938
 20
-587.533143015522
 30
0.0
  0
VERTEX
  5
87
330
85
100
AcDbEntity
  8
Layer 1
370
     0
100
AcDbVertex
100
AcDb2dVertex
 10
489.2899408507574
 20
-582.6144144516893
 30
0.0
  0
SEQEND
  5
88
330
85
100
AcDbEntity
  8
Layer 1
370
     0
  0
POLYLINE
  5
89
330
6D
100
AcDbEntity
  8
Layer 1
370
     0
100
AcDb2dPolyline
 66
     1
 10
0.0
 20
0.0
 30
0.0
  0
VERTEX
  5
8A
330
89
100
AcDbEntity
  8
Layer 1
370
     0
100
AcDbVertex
100
AcDb2dVertex
 10
499.6619473744104
 20
-571.5842168016752
 30
0.0
  0
VERTEX
  5
8B
330
89
100
AcDbEntity
  8
Layer 1
370
     0
100
AcDbVertex
100
AcDb2dVertex
 10
489.2899408507574
 20
-582.6144144516893
 30
0.0
  0
SEQEND
  5
8C
330
89
100
AcDbEntity
  8
Layer 1
370
     0
  0
POLYLINE
  5
8D
330
6D
100
AcDbEntity
  8
Layer 1
370
     0
100
AcDb2dPolyline
 66
     1
 10
0.0
 20
0.0
 30
0.0
  0
VERTEX
  5
8E
330
8D
100
AcDbEntity
  8
Layer 1
370
     0
100
AcDbVertex
100
AcDb2dVertex
 10
484.6647191182938
 20
-587.533143015522
 30
0.0
  0
VERTEX
  5
8F
330
8D
100
AcDbEntity
  8
Layer 1
370
     0
100
AcDbVertex
100
AcDb2dVertex
 10
484.6527912297915
 20
-587.5458255328231
 30
0.0
  0
SEQEND
  5
90
330
8D
100
AcDbEntity
  8
Layer 1
370
     0
  0
ENDBLK
  5
70
330
6D
100
AcDbEntity
  8
0
100
AcDbBlockEnd
  0
BLOCK
  5
93
330
91
100
AcDbEntity
  8
0
100
AcDbBlockBegin
  2
block 4
 70
     0
 10
0.0
 20
0.0
 30
0.0
  3
block 4
  1

  0
SPLINE
  5
95
330
91
100
AcDbEntity
  8
Layer 1
370
     0
100
AcDbSpline
210
0.0
220
0.0
230
1.0
 70
    11
 71
     3
 72
    17
 73
    13
 74
     0
 42
0.0000000001
 43
0.0000000001
 12
1.0
 22
0.0
 32
0.0
 13
1.0
 23
0.0
 33
0.0
 40
0.0
 40
0.0
 40
0.0
 40
0.0
 40
1.0
 40
1.0
 40
1.0
 40
2.0
 40
2.0
 40
2.0
 40
3.0
 40
3.0
 40
3.0
 40
4.0
 40
4.0
 40
4.0
 40
4.0
 10
551.5
 20
-397.0
 30
0.0
 10
548.7399033574347
 20
-397.0
 30
0.0
 10
546.2300057269676
 20
-395.933493449782
 30
0.0
 10
544.3558808790895
 20
-394.1920524017469
 30
0.0
 10
544.3558808790895
 20
-394.1920524017469
 30
0.0
 10
551.8620617080669
 20
-412.2068924046107
 30
0.0
 10
551.8620617080669
 20
-412.2068924046107
 30
0.0
 10
551.8620617080669
 20
-412.2068924046107
 30
0.0
 10
559.0043618011314
 20
-393.840995060491
 30
0.0
 10
559.0043618011314
 20
-393.840995060491
 30
0.0
 10
557.0981709499611
 20
-395.7893542844868
 30
0.0
 10
554.4410523301594
 20
-397.0
 30
0.0
 10
551.5
 20
-397.0
 30
0.0
  0
HATCH
  5
96
330
91
100
AcDbEntity
  8
Layer 1
 62
   250
420
  4013373
100
AcDbHatch
 10
0.0
 20
0.0
 30
0.0
210
0.0
220
0.0
230
1.0
  2
SOLID
 70
     1
 71
     0
 91
        1
 92
        1
 93
        1
 72
     4
 94
        3
 73
     0
 74
     1
 95
       17
 96
       13
 40
0.0
 40
0.0
 40
0.0
 40
0.0
 40
1.0
 40
1.0
 40
1.0
 40
2.0
 40
2.0
 40
2.0
 40
3.0
 40
3.0
 40
3.0
 40
4.0
 40
4.0
 40
4.0
 40
4.0
 10
551.5
 20
-397.0
 10
548.7399033574347
 20
-397.0
 10
546.2300057269676
 20
-395.933493449782
 10
544.3558808790895
 20
-394.1920524017469
 10
544.3558808790895
 20
-394.1920524017469
 10
551.8620617080669
 20
-412.2068924046107
 10
551.8620617080669
 20
-412.2068924046107
 10
551.8620617080669
 20
-412.2068924046107
 10
559.0043618011314
 20
-393.840995060491
 10
559.0043618011314
 20
-393.840995060491
 10
557.0981709499611
 20
-395.7893542844868
 10
554.4410523301594
 20
-397.0
 10
551.5
 20
-397.0
 97
        0
 97
        0
 75
     2
 76
     1
 98
        0
  0
SPLINE
  5
97
330
91
100
AcDbEntity
  8
Layer 1
370
     0
100
AcDbSpline
210
0.0
220
0.0
230
1.0
 70
    11
 71
     3
 72
    14
 73
    10
 74
     0
 42
0.0000000001
 43
0.0000000001
 12
1.0
 22
0.0
 32
0.0
 13
1.0
 23
0.0
 33
0.0
 40
0.0
 40
0.0
 40
0.0
 40
0.0
 40
1.0
 40
1.0
 40
1.0
 40
2.0
 40
2.0
 40
2.0
 40
3.0
 40
3.0
 40
3.0
 40
3.0
 10
561.9914009592667
 20
-386.1600372252851
 30
0.0
 10
561.9914009592667
 20
-386.1600372252851
 30
0.0
 10
559.0043618011314
 20
-393.840995060491
 30
0.0
 10
559.0043618011314
 20
-393.840995060491
 30
0.0
 10
560.8566883814165
 20
-391.9477178037087
 30
0.0
 10
562.0
 20
-389.3579332808358
 30
0.0
 10
562.0
 20
-386.5
 30
0.0
 10
562.0
 20
-386.3859725105594
 30
0.0
 10
561.9950089483864
 20
-386.2731777507342
 30
0.0
 10
561.9914009592667
 20
-386.1600372252851
 30
0.0
  0
HATCH
  5
98
330
91
100
AcDbEntity
  8
Layer 1
 62
   250
420
  4013373
100
AcDbHatch
 10
0.0
 20
0.0
 30
0.0
210
0.0
220
0.0
230
1.0
  2
SOLID
 70
     1
 71
     0
 91
        1
 92
        1
 93
        1
 72
     4
 94
        3
 73
     0
 74
     1
 95
       14
 96
       10
 40
0.0
 40
0.0
 40
0.0
 40
0.0
 40
1.0
 40
1.0
 40
1.0
 40
2.0
 40
2.0
 40
2.0
 40
3.0
 40
3.0
 40
3.0
 40
3.0
 10
561.9914009592667
 20
-386.1600372252851
 10
561.9914009592667
 20
-386.1600372252851
 10
559.0043618011314
 20
-393.840995060491
 10
559.0043618011314
 20
-393.840995060491
 10
560.8566883814165
 20
-391.9477178037087
 10
562.0
 20
-389.3579332808358
 10
562.0
 20
-386.5
 10
562.0
 20
-386.3859725105594
 10
561.9950089483864
 20
-386.2731777507342
 10
561.9914009592667
 20
-386.1600372252851
 97
        0
 97
        0
 75
     2
 76
     1
 98
        0
  0
SPLINE
  5
99
330
91
100
AcDbEntity
  8
Layer 1
370
     0
100
AcDbSpline
210
0.0
220
0.0
230
1.0
 70
    11
 71
     3
 72
    23
 73
    19
 74
     0
 42
0.0000000001
 43
0.0000000001
 12
1.0
 22
0.0
 32
0.0
 13
1.0
 23
0.0
 33
0.0
 40
0.0
 40
0.0
 40
0.0
 40
0.0
 40
1.0
 40
1.0
 40
1.0
 40
2.0
 40
2.0
 40
2.0
 40
3.0
 40
3.0
 40
3.0
 40
4.0
 40
4.0
 40
4.0
 40
5.0
 40
5.0
 40
5.0
 40
6.0
 40
6.0
 40
6.0
 40
6.0
 10
551.5
 20
-376.0
 30
0.0
 10
545.8155079103726
 20
-376.0
 30
0.0
 10
541.1892089627036
 20
-380.517999140955
 30
0.0
 10
541.0086291073094
 20
-386.1586391295014
 30
0.0
 10
541.0086291073094
 20
-386.1586391295014
 30
0.0
 10
544.3558808790895
 20
-394.1920524017469
 30
0.0
 10
544.3558808790895
 20
-394.1920524017469
 30
0.0
 10
546.2300057269676
 20
-395.933493449782
 30
0.0
 10
548.7399033574347
 20
-397.0
 30
0.0
 10
551.5
 20
-397.0
 30
0.0
 10
554.4410523301594
 20
-397.0
 30
0.0
 10
557.0981709499611
 20
-395.7893542844868
 30
0.0
 10
559.0043618011314
 20
-393.840995060491
 30
0.0
 10
559.0043618011314
 20
-393.840995060491
 30
0.0
 10
561.9914009592667
 20
-386.1600372252851
 30
0.0
 10
561.9914009592667
 20
-386.1600372252851
 30
0.0
 10
561.8115427016965
 20
-380.518750805355
 30
0.0
 10
557.1849581215538
 20
-376.0
 30
0.0
 10
551.5
 20
-376.0
 30
0.0
  0
HATCH
  5
9A
330
91
100
AcDbEntity
  8
Layer 1
 62
   250
420
  4013373
100
AcDbHatch
 10
0.0
 20
0.0
 30
0.0
210
0.0
220
0.0
230
1.0
  2
SOLID
 70
     1
 71
     0
 91
        1
 92
        1
 93
        1
 72
     4
 94
        3
 73
     0
 74
     1
 95
       23
 96
       19
 40
0.0
 40
0.0
 40
0.0
 40
0.0
 40
1.0
 40
1.0
 40
1.0
 40
2.0
 40
2.0
 40
2.0
 40
3.0
 40
3.0
 40
3.0
 40
4.0
 40
4.0
 40
4.0
 40
5.0
 40
5.0
 40
5.0
 40
6.0
 40
6.0
 40
6.0
 40
6.0
 10
551.5
 20
-376.0
 10
545.8155079103726
 20
-376.0
 10
541.1892089627036
 20
-380.517999140955
 10
541.0086291073094
 20
-386.1586391295014
 10
541.0086291073094
 20
-386.1586391295014
 10
544.3558808790895
 20
-394.1920524017469
 10
544.3558808790895
 20
-394.1920524017469
 10
546.2300057269676
 20
-395.933493449782
 10
548.7399033574347
 20
-397.0
 10
551.5
 20
-397.0
 10
554.4410523301594
 20
-397.0
 10
557.0981709499611
 20
-395.7893542844868
 10
559.0043618011314
 20
-393.840995060491
 10
559.0043618011314
 20
-393.840995060491
 10
561.9914009592667
 20
-386.1600372252851
 10
561.9914009592667
 20
-386.1600372252851
 10
561.8115427016965
 20
-380.518750805355
 10
557.1849581215538
 20
-376.0
 10
551.5
 20
-376.0
 97
        0
 97
        0
 75
     2
 76
     1
 98
        0
  0
SPLINE
  5
9B
330
91
100
AcDbEntity
  8
Layer 1
370
     0
100
AcDbSpline
210
0.0
220
0.0
230
1.0
 70
    11
 71
     3
 72
    14
 73
    10
 74
     0
 42
0.0000000001
 43
0.0000000001
 12
1.0
 22
0.0
 32
0.0
 13
1.0
 23
0.0
 33
0.0
 40
0.0
 40
0.0
 40
0.0
 40
0.0
 40
1.0
 40
1.0
 40
1.0
 40
2.0
 40
2.0
 40
2.0
 40
3.0
 40
3.0
 40
3.0
 40
3.0
 10
541.0
 20
-386.5
 30
0.0
 10
541.0
 20
-389.53888896843
 30
0.0
 10
542.2924418354924
 20
-392.2747218841723
 30
0.0
 10
544.3558808790895
 20
-394.1920524017469
 30
0.0
 10
544.3558808790895
 20
-394.1920524017469
 30
0.0
 10
541.0086291073094
 20
-386.1586391295014
 30
0.0
 10
541.0086291073094
 20
-386.1586391295014
 30
0.0
 10
541.0049910516136
 20
-386.2722456868778
 30
0.0
 10
541.0
 20
-386.3855064786312
 30
0.0
 10
541.0
 20
-386.5
 30
0.0
  0
HATCH
  5
9C
330
91
100
AcDbEntity
  8
Layer 1
 62
   250
420
  4013373
100
AcDbHatch
 10
0.0
 20
0.0
 30
0.0
210
0.0
220
0.0
230
1.0
  2
SOLID
 70
     1
 71
     0
 91
        1
 92
        1
 93
        1
 72
     4
 94
        3
 73
     0
 74
     1
 95
       14
 96
       10
 40
0.0
 40
0.0
 40
0.0
 40
0.0
 40
1.0
 40
1.0
 40
1.0
 40
2.0
 40
2.0
 40
2.0
 40
3.0
 40
3.0
 40
3.0
 40
3.0
 10
541.0
 20
-386.5
 10
541.0
 20
-389.53888896843
 10
542.2924418354924
 20
-392.2747218841723
 10
544.3558808790895
 20
-394.1920524017469
 10
544.3558808790895
 20
-394.1920524017469
 10
541.0086291073094
 20
-386.1586391295014
 10
541.0086291073094
 20
-386.1586391295014
 10
541.0049910516136
 20
-386.2722456868778
 10
541.0
 20
-386.3855064786312
 10
541.0
 20
-386.5
 97
        0
 97
        0
 75
     2
 76
     1
 98
        0
  0
POLYLINE
  5
9D
330
91
100
AcDbEntity
  8
Layer 1
370
     0
100
AcDb2dPolyline
 66
     1
 10
0.0
 20
0.0
 30
0.0
  0
VERTEX
  5
9E
330
9D
100
AcDbEntity
  8
Layer 1
370
     0
100
AcDbVertex
100
AcDb2dVertex
 10
561.9914009592667
 20
-386.1600372252851
 30
0.0
  0
VERTEX
  5
9F
330
9D
100
AcDbEntity
  8
Layer 1
370
     0
100
AcDbVertex
100
AcDb2dVertex
 10
562.0
 20
-386.1379232586442
 30
0.0
  0
SEQEND
  5
A0
330
9D
100
AcDbEntity
  8
Layer 1
370
     0
  0
POLYLINE
  5
A1
330
91
100
AcDbEntity
  8
Layer 1
370
     0
100
AcDb2dPolyline
 66
     1
 10
0.0
 20
0.0
 30
0.0
  0
VERTEX
  5
A2
330
A1
100
AcDbEntity
  8
Layer 1
370
     0
100
AcDbVertex
100
AcDb2dVertex
 10
561.9914009592667
 20
-386.1600372252851
 30
0.0
  0
VERTEX
  5
A3
330
A1
100
AcDbEntity
  8
Layer 1
370
     0
100
AcDbVertex
100
AcDb2dVertex
 10
559.0043618011314
 20
-393.840995060491
 30
0.0
  0
SEQEND
  5
A4
330
A1
100
AcDbEntity
  8
Layer 1
370
     0
  0
POLYLINE
  5
A5
330
91
100
AcDbEntity
  8
Layer 1
370
     0
100
AcDb2dPolyline
 66
     1
 10
0.0
 20
0.0
 30
0.0
  0
VERTEX
  5
A6
330
A5
100
AcDbEntity
  8
Layer 1
370
     0
100
AcDbVertex
100
AcDb2dVertex
 10
559.0043618011314
 20
-393.840995060491
 30
0.0
  0
VERTEX
  5
A7
330
A5
100
AcDbEntity
  8
Layer 1
370
     0
100
AcDbVertex
100
AcDb2dVertex
 10
551.8620617080669
 20
-412.2068924046107
 30
0.0
  0
SEQEND
  5
A8
330
A5
100
AcDbEntity
  8
Layer 1
370
     0
  0
POLYLINE
  5
A9
330
91
100
AcDbEntity
  8
Layer 1
370
     0
100
AcDb2dPolyline
 66
     1
 10
0.0
 20
0.0
 30
0.0
  0
VERTEX
  5
AA
330
A9
100
AcDbEntity
  8
Layer 1
370
     0
100
AcDbVertex
100
AcDb2dVertex
 10
541.0086291073094
 20
-386.1586391295014
 30
0.0
  0
VERTEX
  5
AB
330
A9
100
AcDbEntity
  8
Layer 1
370
     0
100
AcDbVertex
100
AcDb2dVertex
 10
544.3558808790895
 20
-394.1920524017469
 30
0.0
  0
SEQEND
  5
AC
330
A9
100
AcDbEntity
  8
Layer 1
370
     0
  0
POLYLINE
  5
AD
330
91
100
AcDbEntity
  8
Layer 1
370
     0
100
AcDb2dPolyline
 66
     1
 10
0.0
 20
0.0
 30
0.0
  0
VERTEX
  5
AE
330
AD
100
AcDbEntity
  8
Layer 1
370
     0
100
AcDbVertex
100
AcDb2dVertex
 10
551.8620617080669
 20
-412.2068924046107
 30
0.0
  0
VERTEX
  5
AF
330
AD
100
AcDbEntity
  8
Layer 1
370
     0
100
AcDbVertex
100
AcDb2dVertex
 10
544.3558808790895
 20
-394.1920524017469
 30
0.0
  0
SEQEND
  5
B0
330
AD
100
AcDbEntity
  8
Layer 1
370
     0
  0
POLYLINE
  5
B1
330
91
100
AcDbEntity
  8
Layer 1
370
     0
100
AcDb2dPolyline
 66
     1
 10
0.0
 20
0.0
 30
0.0
  0
VERTEX
  5
B2
330
B1
100
AcDbEntity
  8
Layer 1
370
     0
100
AcDbVertex
100
AcDb2dVertex
 10
541.0086291073094
 20
-386.1586391295014
 30
0.0
  0
VERTEX
  5
B3
330
B1
100
AcDbEntity
  8
Layer 1
370
     0
100
AcDbVertex
100
AcDb2dVertex
 10
541.0
 20
-386.1379232586442
 30
0.0
  0
SEQEND
  5
B4
330
B1
100
AcDbEntity
  8
Layer 1
370
     0
  0
ENDBLK
  5
94
330
91
100
AcDbEntity
  8
0
100
AcDbBlockEnd
  0
BLOCK
  5
B7
330
B5
100
AcDbEntity
  8
0
100
AcDbBlockBegin
  2
block 5
 70
     0
 10
0.0
 20
0.0
 30
0.0
  3
block 5
  1

  0
SPLINE
  5
B9
330
B5
100
AcDbEntity
  8
Layer 1
370
     0
100
AcDbSpline
210
0.0
220
0.0
230
1.0
 70
    11
 71
     3
 72
    17
 73
    13
 74
     0
 42
0.0000000001
 43
0.0000000001
 12
1.0
 22
0.0
 32
0.0
 13
1.0
 23
0.0
 33
0.0
 40
0.0
 40
0.0
 40
0.0
 40
0.0
 40
1.0
 40
1.0
 40
1.0
 40
2.0
 40
2.0
 40
2.0
 40
3.0
 40
3.0
 40
3.0
 40
4.0
 40
4.0
 40
4.0
 40
4.0
 10
473.1196790540544
 20
-468.5641226041444
 30
0.0
 10
470.3423318074729
 20
-468.5641226041444
 30
0.0
 10
467.8167473168151
 20
-467.4815566259658
 30
0.0
 10
465.930909188638
 20
-465.7138930038163
 30
0.0
 10
465.930909188638
 20
-465.7138930038163
 30
0.0
 10
473.4840036477963
 20
-483.9999999999991
 30
0.0
 10
473.4840036477963
 20
-483.9999999999991
 30
0.0
 10
473.4840036477963
 20
-483.9999999999991
 30
0.0
 10
480.6709431164436
 20
-465.3575494502247
 30
0.0
 10
480.6709431164436
 20
-465.3575494502247
 30
0.0
 10
478.7528385724518
 20
-467.3352470168602
 30
0.0
 10
476.0791129612762
 20
-468.5641226041444
 30
0.0
 10
473.1196790540544
 20
-468.5641226041444
 30
0.0
  0
HATCH
  5
BA
330
B5
100
AcDbEntity
  8
Layer 1
 62
   250
420
  4013373
100
AcDbHatch
 10
0.0
 20
0.0
 30
0.0
210
0.0
220
0.0
230
1.0
  2
SOLID
 70
     1
 71
     0
 91
        1
 92
        1
 93
        1
 72
     4
 94
        3
 73
     0
 74
     1
 95
       17
 96
       13
 40
0.0
 40
0.0
 40
0.0
 40
0.0
 40
1.0
 40
1.0
 40
1.0
 40
2.0
 40
2.0
 40
2.0
 40
3.0
 40
3.0
 40
3.0
 40
4.0
 40
4.0
 40
4.0
 40
4.0
 10
473.1196790540544
 20
-468.5641226041444
 10
470.3423318074729
 20
-468.5641226041444
 10
467.8167473168151
 20
-467.4815566259658
 10
465.930909188638
 20
-465.7138930038163
 10
465.930909188638
 20
-465.7138930038163
 10
473.4840036477963
 20
-483.9999999999991
 10
473.4840036477963
 20
-483.9999999999991
 10
473.4840036477963
 20
-483.9999999999991
 10
480.6709431164436
 20
-465.3575494502247
 10
480.6709431164436
 20
-465.3575494502247
 10
478.7528385724518
 20
-467.3352470168602
 10
476.0791129612762
 20
-468.5641226041444
 10
473.1196790540544
 20
-468.5641226041444
 97
        0
 97
        0
 75
     2
 76
     1
 98
        0
  0
SPLINE
  5
BB
330
B5
100
AcDbEntity
  8
Layer 1
370
     0
100
AcDbSpline
210
0.0
220
0.0
230
1.0
 70
    11
 71
     3
 72
    14
 73
    10
 74
     0
 42
0.0000000001
 43
0.0000000001
 12
1.0
 22
0.0
 32
0.0
 13
1.0
 23
0.0
 33
0.0
 40
0.0
 40
0.0
 40
0.0
 40
0.0
 40
1.0
 40
1.0
 40
1.0
 40
2.0
 40
2.0
 40
2.0
 40
3.0
 40
3.0
 40
3.0
 40
3.0
 10
483.6766512693175
 20
-457.5609319512414
 30
0.0
 10
483.6766512693175
 20
-457.5609319512414
 30
0.0
 10
480.6709431164436
 20
-465.3575494502247
 30
0.0
 10
480.6709431164436
 20
-465.3575494502247
 30
0.0
 10
482.5348467378544
 20
-463.4357632736355
 30
0.0
 10
483.6853040540536
 20
-460.8069818426175
 30
0.0
 10
483.6853040540536
 20
-457.9060138765954
 30
0.0
 10
483.6853040540536
 20
-457.7902693641772
 30
0.0
 10
483.680281808367
 20
-457.6757761437857
 30
0.0
 10
483.6766512693175
 20
-457.5609319512414
 30
0.0
  0
HATCH
  5
BC
330
B5
100
AcDbEntity
  8
Layer 1
 62
   250
420
  4013373
100
AcDbHatch
 10
0.0
 20
0.0
 30
0.0
210
0.0
220
0.0
230
1.0
  2
SOLID
 70
     1
 71
     0
 91
        1
 92
        1
 93
        1
 72
     4
 94
        3
 73
     0
 74
     1
 95
       14
 96
       10
 40
0.0
 40
0.0
 40
0.0
 40
0.0
 40
1.0
 40
1.0
 40
1.0
 40
2.0
 40
2.0
 40
2.0
 40
3.0
 40
3.0
 40
3.0
 40
3.0
 10
483.6766512693175
 20
-457.5609319512414
 10
483.6766512693175
 20
-457.5609319512414
 10
480.6709431164436
 20
-465.3575494502247
 10
480.6709431164436
 20
-465.3575494502247
 10
482.5348467378544
 20
-463.4357632736355
 10
483.6853040540536
 20
-460.8069818426175
 10
483.6853040540536
 20
-457.9060138765954
 10
483.6853040540536
 20
-457.7902693641772
 10
483.680281808367
 20
-457.6757761437857
 10
483.6766512693175
 20
-457.5609319512414
 97
        0
 97
        0
 75
     2
 76
     1
 98
        0
  0
SPLINE
  5
BD
330
B5
100
AcDbEntity
  8
Layer 1
370
     0
100
AcDbSpline
210
0.0
220
0.0
230
1.0
 70
    11
 71
     3
 72
    23
 73
    19
 74
     0
 42
0.0000000001
 43
0.0000000001
 12
1.0
 22
0.0
 32
0.0
 13
1.0
 23
0.0
 33
0.0
 40
0.0
 40
0.0
 40
0.0
 40
0.0
 40
1.0
 40
1.0
 40
1.0
 40
2.0
 40
2.0
 40
2.0
 40
3.0
 40
3.0
 40
3.0
 40
4.0
 40
4.0
 40
4.0
 40
5.0
 40
5.0
 40
5.0
 40
6.0
 40
6.0
 40
6.0
 40
6.0
 10
473.1196790540544
 20
-447.2479051490463
 30
0.0
 10
467.3996588888667
 20
-447.2479051490463
 30
0.0
 10
462.7444455727746
 20
-451.8339362038341
 30
0.0
 10
462.5627370932843
 20
-457.5595128029663
 30
0.0
 10
462.5627370932843
 20
-457.5595128029663
 30
0.0
 10
465.930909188638
 20
-465.7138930038163
 30
0.0
 10
465.930909188638
 20
-465.7138930038163
 30
0.0
 10
467.8167473168151
 20
-467.4815566259658
 30
0.0
 10
470.3423318074729
 20
-468.5641226041444
 30
0.0
 10
473.1196790540544
 20
-468.5641226041444
 30
0.0
 10
476.0791129612762
 20
-468.5641226041444
 30
0.0
 10
478.7528385724518
 20
-467.3352470168602
 30
0.0
 10
480.6709431164436
 20
-465.3575494502247
 30
0.0
 10
480.6709431164436
 20
-465.3575494502247
 30
0.0
 10
483.6766512693175
 20
-457.5609319512414
 30
0.0
 10
483.6766512693175
 20
-457.5609319512414
 30
0.0
 10
483.4956688976354
 20
-451.8346991867766
 30
0.0
 10
478.840168163867
 20
-447.2479051490463
 30
0.0
 10
473.1196790540544
 20
-447.2479051490463
 30
0.0
  0
HATCH
  5
BE
330
B5
100
AcDbEntity
  8
Layer 1
 62
   250
420
  4013373
100
AcDbHatch
 10
0.0
 20
0.0
 30
0.0
210
0.0
220
0.0
230
1.0
  2
SOLID
 70
     1
 71
     0
 91
        1
 92
        1
 93
        1
 72
     4
 94
        3
 73
     0
 74
     1
 95
       23
 96
       19
 40
0.0
 40
0.0
 40
0.0
 40
0.0
 40
1.0
 40
1.0
 40
1.0
 40
2.0
 40
2.0
 40
2.0
 40
3.0
 40
3.0
 40
3.0
 40
4.0
 40
4.0
 40
4.0
 40
5.0
 40
5.0
 40
5.0
 40
6.0
 40
6.0
 40
6.0
 40
6.0
 10
473.1196790540544
 20
-447.2479051490463
 10
467.3996588888667
 20
-447.2479051490463
 10
462.7444455727746
 20
-451.8339362038341
 10
462.5627370932843
 20
-457.5595128029663
 10
462.5627370932843
 20
-457.5595128029663
 10
465.930909188638
 20
-465.7138930038163
 10
465.930909188638
 20
-465.7138930038163
 10
467.8167473168151
 20
-467.4815566259658
 10
470.3423318074729
 20
-468.5641226041444
 10
473.1196790540544
 20
-468.5641226041444
 10
476.0791129612762
 20
-468.5641226041444
 10
478.7528385724518
 20
-467.3352470168602
 10
480.6709431164436
 20
-465.3575494502247
 10
480.6709431164436
 20
-465.3575494502247
 10
483.6766512693175
 20
-457.5609319512414
 10
483.6766512693175
 20
-457.5609319512414
 10
483.4956688976354
 20
-451.8346991867766
 10
478.840168163867
 20
-447.2479051490463
 10
473.1196790540544
 20
-447.2479051490463
 97
        0
 97
        0
 75
     2
 76
     1
 98
        0
  0
SPLINE
  5
BF
330
B5
100
AcDbEntity
  8
Layer 1
370
     0
100
AcDbSpline
210
0.0
220
0.0
230
1.0
 70
    11
 71
     3
 72
    14
 73
    10
 74
     0
 42
0.0000000001
 43
0.0000000001
 12
1.0
 22
0.0
 32
0.0
 13
1.0
 23
0.0
 33
0.0
 40
0.0
 40
0.0
 40
0.0
 40
0.0
 40
1.0
 40
1.0
 40
1.0
 40
2.0
 40
2.0
 40
2.0
 40
3.0
 40
3.0
 40
3.0
 40
3.0
 10
462.5540540540542
 20
-457.9060138765954
 30
0.0
 10
462.5540540540542
 20
-460.9906623562601
 30
0.0
 10
463.8545736510187
 20
-463.7676913730584
 30
0.0
 10
465.930909188638
 20
-465.7138930038163
 30
0.0
 10
465.930909188638
 20
-465.7138930038163
 30
0.0
 10
462.5627370932843
 20
-457.5595128029663
 30
0.0
 10
462.5627370932843
 20
-457.5595128029663
 30
0.0
 10
462.5590762997399
 20
-457.6748300449353
 30
0.0
 10
462.5540540540542
 20
-457.7897963147534
 30
0.0
 10
462.5540540540542
 20
-457.9060138765954
 30
0.0
  0
HATCH
  5
C0
330
B5
100
AcDbEntity
  8
Layer 1
 62
   250
420
  4013373
100
AcDbHatch
 10
0.0
 20
0.0
 30
0.0
210
0.0
220
0.0
230
1.0
  2
SOLID
 70
     1
 71
     0
 91
        1
 92
        1
 93
        1
 72
     4
 94
        3
 73
     0
 74
     1
 95
       14
 96
       10
 40
0.0
 40
0.0
 40
0.0
 40
0.0
 40
1.0
 40
1.0
 40
1.0
 40
2.0
 40
2.0
 40
2.0
 40
3.0
 40
3.0
 40
3.0
 40
3.0
 10
462.5540540540542
 20
-457.9060138765954
 10
462.5540540540542
 20
-460.9906623562601
 10
463.8545736510187
 20
-463.7676913730584
 10
465.930909188638
 20
-465.7138930038163
 10
465.930909188638
 20
-465.7138930038163
 10
462.5627370932843
 20
-457.5595128029663
 10
462.5627370932843
 20
-457.5595128029663
 10
462.5590762997399
 20
-457.6748300449353
 10
462.5540540540542
 20
-457.7897963147534
 10
462.5540540540542
 20
-457.9060138765954
 97
        0
 97
        0
 75
     2
 76
     1
 98
        0
  0
POLYLINE
  5
C1
330
B5
100
AcDbEntity
  8
Layer 1
370
     0
100
AcDb2dPolyline
 66
     1
 10
0.0
 20
0.0
 30
0.0
  0
VERTEX
  5
C2
330
C1
100
AcDbEntity
  8
Layer 1
370
     0
100
AcDbVertex
100
AcDb2dVertex
 10
483.6766512693175
 20
-457.5609319512414
 30
0.0
  0
VERTEX
  5
C3
330
C1
100
AcDbEntity
  8
Layer 1
370
     0
100
AcDbVertex
100
AcDb2dVertex
 10
483.6853040540536
 20
-457.5384849930633
 30
0.0
  0
SEQEND
  5
C4
330
C1
100
AcDbEntity
  8
Layer 1
370
     0
  0
POLYLINE
  5
C5
330
B5
100
AcDbEntity
  8
Layer 1
370
     0
100
AcDb2dPolyline
 66
     1
 10
0.0
 20
0.0
 30
0.0
  0
VERTEX
  5
C6
330
C5
100
AcDbEntity
  8
Layer 1
370
     0
100
AcDbVertex
100
AcDb2dVertex
 10
483.6766512693175
 20
-457.5609319512414
 30
0.0
  0
VERTEX
  5
C7
330
C5
100
AcDbEntity
  8
Layer 1
370
     0
100
AcDbVertex
100
AcDb2dVertex
 10
480.6709431164436
 20
-465.3575494502247
 30
0.0
  0
SEQEND
  5
C8
330
C5
100
AcDbEntity
  8
Layer 1
370
     0
  0
POLYLINE
  5
C9
330
B5
100
AcDbEntity
  8
Layer 1
370
     0
100
AcDb2dPolyline
 66
     1
 10
0.0
 20
0.0
 30
0.0
  0
VERTEX
  5
CA
330
C9
100
AcDbEntity
  8
Layer 1
370
     0
100
AcDbVertex
100
AcDb2dVertex
 10
480.6709431164436
 20
-465.3575494502247
 30
0.0
  0
VERTEX
  5
CB
330
C9
100
AcDbEntity
  8
Layer 1
370
     0
100
AcDbVertex
100
AcDb2dVertex
 10
473.4840036477963
 20
-483.9999999999991
 30
0.0
  0
SEQEND
  5
CC
330
C9
100
AcDbEntity
  8
Layer 1
370
     0
  0
POLYLINE
  5
CD
330
B5
100
AcDbEntity
  8
Layer 1
370
     0
100
AcDb2dPolyline
 66
     1
 10
0.0
 20
0.0
 30
0.0
  0
VERTEX
  5
CE
330
CD
100
AcDbEntity
  8
Layer 1
370
     0
100
AcDbVertex
100
AcDb2dVertex
 10
462.5627370932843
 20
-457.5595128029663
 30
0.0
  0
VERTEX
  5
CF
330
CD
100
AcDbEntity
  8
Layer 1
370
     0
100
AcDbVertex
100
AcDb2dVertex
 10
465.930909188638
 20
-465.7138930038163
 30
0.0
  0
SEQEND
  5
D0
330
CD
100
AcDbEntity
  8
Layer 1
370
     0
  0
POLYLINE
  5
D1
330
B5
100
AcDbEntity
  8
Layer 1
370
     0
100
AcDb2dPolyline
 66
     1
 10
0.0
 20
0.0
 30
0.0
  0
VERTEX
  5
D2
330
D1
100
AcDbEntity
  8
Layer 1
370
     0
100
AcDbVertex
100
AcDb2dVertex
 10
473.4840036477963
 20
-483.9999999999991
 30
0.0
  0
VERTEX
  5
D3
330
D1
100
AcDbEntity
  8
Layer 1
370
     0
100
AcDbVertex
100
AcDb2dVertex
 10
465.930909188638
 20
-465.7138930038163
 30
0.0
  0
SEQEND
  5
D4
330
D1
100
AcDbEntity
  8
Layer 1
370
     0
  0
POLYLINE
  5
D5
330
B5
100
AcDbEntity
  8
Layer 1
370
     0
100
AcDb2dPolyline
 66
     1
 10
0.0
 20
0.0
 30
0.0
  0
VERTEX
  5
D6
330
D5
100
AcDbEntity
  8
Layer 1
370
     0
100
AcDbVertex
100
AcDb2dVertex
 10
462.5627370932843
 20
-457.5595128029663
 30
0.0
  0
VERTEX
  5
D7
330
D5
100
AcDbEntity
  8
Layer 1
370
     0
100
AcDbVertex
100
AcDb2dVertex
 10
462.5540540540542
 20
-457.5384849930633
 30
0.0
  0
SEQEND
  5
D8
330
D5
100
AcDbEntity
  8
Layer 1
370
     0
  0
ENDBLK
  5
B8
330
B5
100
AcDbEntity
  8
0
100
AcDbBlockEnd
  0
BLOCK
  5
DB
330
D9
100
AcDbEntity
  8
0
100
AcDbBlockBegin
  2
block 6
 70
     0
 10
0.0
 20
0.0
 30
0.0
  3
block 6
  1

  0
SPLINE
  5
DD
330
D9
100
AcDbEntity
  8
Layer 1
370
     0
100
AcDbSpline
210
0.0
220
0.0
230
1.0
 70
    11
 71
     3
 72
    17
 73
    13
 74
     0
 42
0.0000000001
 43
0.0000000001
 12
1.0
 22
0.0
 32
0.0
 13
1.0
 23
0.0
 33
0.0
 40
0.0
 40
0.0
 40
0.0
 40
0.0
 40
1.0
 40
1.0
 40
1.0
 40
2.0
 40
2.0
 40
2.0
 40
3.0
 40
3.0
 40
3.0
 40
4.0
 40
4.0
 40
4.0
 40
4.0
 10
635.1573968973062
 20
-501.5405785055555
 30
0.0
 10
633.0713046165638
 20
-499.7332731986089
 30
0.0
 10
631.8726599483834
 20
-497.2837276700393
 30
0.0
 10
631.5964805861477
 20
-494.7403665417132
 30
0.0
 10
631.5964805861477
 20
-494.7403665417132
 30
0.0
 10
625.4736043813173
 20
-513.2710869256152
 30
0.0
 10
625.4736043813173
 20
-513.2710869256152
 30
0.0
 10
625.4736043813173
 20
-513.2710869256152
 30
0.0
 10
642.8977336984299
 20
-504.0668295729174
 30
0.0
 10
642.8977336984299
 20
-504.0668295729174
 30
0.0
 10
640.1812454892861
 20
-504.2912377644134
 30
0.0
 10
637.3802562235323
 20
-503.4663732050367
 30
0.0
 10
635.1573968973062
 20
-501.5405785055555
 30
0.0
  0
HATCH
  5
DE
330
D9
100
AcDbEntity
  8
Layer 1
 62
   250
420
  4013373
100
AcDbHatch
 10
0.0
 20
0.0
 30
0.0
210
0.0
220
0.0
230
1.0
  2
SOLID
 70
     1
 71
     0
 91
        1
 92
        1
 93
        1
 72
     4
 94
        3
 73
     0
 74
     1
 95
       17
 96
       13
 40
0.0
 40
0.0
 40
0.0
 40
0.0
 40
1.0
 40
1.0
 40
1.0
 40
2.0
 40
2.0
 40
2.0
 40
3.0
 40
3.0
 40
3.0
 40
4.0
 40
4.0
 40
4.0
 40
4.0
 10
635.1573968973062
 20
-501.5405785055555
 10
633.0713046165638
 20
-499.7332731986089
 10
631.8726599483834
 20
-497.2837276700393
 10
631.5964805861477
 20
-494.7403665417132
 10
631.5964805861477
 20
-494.7403665417132
 10
625.4736043813173
 20
-513.2710869256152
 10
625.4736043813173
 20
-513.2710869256152
 10
625.4736043813173
 20
-513.2710869256152
 10
642.8977336984299
 20
-504.0668295729174
 10
642.8977336984299
 20
-504.0668295729174
 10
640.1812454892861
 20
-504.2912377644134
 10
637.3802562235323
 20
-503.4663732050367
 10
635.1573968973062
 20
-501.5405785055555
 97
        0
 97
        0
 75
     2
 76
     1
 98
        0
  0
SPLINE
  5
DF
330
D9
100
AcDbEntity
  8
Layer 1
370
     0
100
AcDbSpline
210
0.0
220
0.0
230
1.0
 70
    11
 71
     3
 72
    14
 73
    10
 74
     0
 42
0.0000000001
 43
0.0000000001
 12
1.0
 22
0.0
 32
0.0
 13
1.0
 23
0.0
 33
0.0
 40
0.0
 40
0.0
 40
0.0
 40
0.0
 40
1.0
 40
1.0
 40
1.0
 40
2.0
 40
2.0
 40
2.0
 40
3.0
 40
3.0
 40
3.0
 40
3.0
 10
650.1848246204991
 20
-500.2174371413857
 30
0.0
 10
650.1848246204991
 20
-500.2174371413857
 30
0.0
 10
642.8977336984299
 20
-504.0668295729174
 30
0.0
 10
642.8977336984299
 20
-504.0668295729174
 30
0.0
 10
645.5374435194153
 20
-503.8487823485357
 30
0.0
 10
648.0973483956022
 20
-502.6400506343107
 30
0.0
 10
649.9687169215085
 20
-500.4800130240001
 30
0.0
 10
650.043381874766
 20
-500.3938305831953
 30
0.0
 10
650.1134673822089
 20
-500.3053117146592
 30
0.0
 10
650.1848246204991
 20
-500.2174371413857
 30
0.0
  0
HATCH
  5
E0
330
D9
100
AcDbEntity
  8
Layer 1
 62
   250
420
  4013373
100
AcDbHatch
 10
0.0
 20
0.0
 30
0.0
210
0.0
220
0.0
230
1.0
  2
SOLID
 70
     1
 71
     0
 91
        1
 92
        1
 93
        1
 72
     4
 94
        3
 73
     0
 74
     1
 95
       14
 96
       10
 40
0.0
 40
0.0
 40
0.0
 40
0.0
 40
1.0
 40
1.0
 40
1.0
 40
2.0
 40
2.0
 40
2.0
 40
3.0
 40
3.0
 40
3.0
 40
3.0
 10
650.1848246204991
 20
-500.2174371413857
 10
650.1848246204991
 20
-500.2174371413857
 10
642.8977336984299
 20
-504.0668295729174
 10
642.8977336984299
 20
-504.0668295729174
 10
645.5374435194153
 20
-503.8487823485357
 10
648.0973483956022
 20
-502.6400506343107
 10
649.9687169215085
 20
-500.4800130240001
 10
650.043381874766
 20
-500.3938305831953
 10
650.1134673822089
 20
-500.3053117146592
 10
650.1848246204991
 20
-500.2174371413857
 97
        0
 97
        0
 75
     2
 76
     1
 98
        0
  0
SPLINE
  5
E1
330
D9
100
AcDbEntity
  8
Layer 1
370
     0
100
AcDbSpline
210
0.0
220
0.0
230
1.0
 70
    11
 71
     3
 72
    23
 73
    19
 74
     0
 42
0.0000000001
 43
0.0000000001
 12
1.0
 22
0.0
 32
0.0
 13
1.0
 23
0.0
 33
0.0
 40
0.0
 40
0.0
 40
0.0
 40
0.0
 40
1.0
 40
1.0
 40
1.0
 40
2.0
 40
2.0
 40
2.0
 40
3.0
 40
3.0
 40
3.0
 40
4.0
 40
4.0
 40
4.0
 40
5.0
 40
5.0
 40
5.0
 40
6.0
 40
6.0
 40
6.0
 40
6.0
 10
648.908151439955
 20
-485.6686929997977
 30
0.0
 10
644.6117891730537
 20
-481.9464998843669
 30
0.0
 10
638.1568375338156
 20
-482.3319314943674
 30
0.0
 10
634.3268756892721
 20
-486.4769068662972
 30
0.0
 10
634.3268756892721
 20
-486.4769068662972
 30
0.0
 10
631.5964805861477
 20
-494.7403665417132
 30
0.0
 10
631.5964805861477
 20
-494.7403665417132
 30
0.0
 10
631.8726599483834
 20
-497.2837276700393
 30
0.0
 10
633.0713046165638
 20
-499.7332731986089
 30
0.0
 10
635.1573968973062
 20
-501.5405785055555
 30
0.0
 10
637.3802562235323
 20
-503.4663732050367
 30
0.0
 10
640.1812454892861
 20
-504.2912377644134
 30
0.0
 10
642.8977336984299
 20
-504.0668295729174
 30
0.0
 10
642.8977336984299
 20
-504.0668295729174
 30
0.0
 10
650.1848246204991
 20
-500.2174371413857
 30
0.0
 10
650.1848246204991
 20
-500.2174371413857
 30
0.0
 10
653.7427891535372
 20
-495.8359590978307
 30
0.0
 10
653.2048659356842
 20
-489.3911912719268
 30
0.0
 10
648.908151439955
 20
-485.6686929997977
 30
0.0
  0
HATCH
  5
E2
330
D9
100
AcDbEntity
  8
Layer 1
 62
   250
420
  4013373
100
AcDbHatch
 10
0.0
 20
0.0
 30
0.0
210
0.0
220
0.0
230
1.0
  2
SOLID
 70
     1
 71
     0
 91
        1
 92
        1
 93
        1
 72
     4
 94
        3
 73
     0
 74
     1
 95
       23
 96
       19
 40
0.0
 40
0.0
 40
0.0
 40
0.0
 40
1.0
 40
1.0
 40
1.0
 40
2.0
 40
2.0
 40
2.0
 40
3.0
 40
3.0
 40
3.0
 40
4.0
 40
4.0
 40
4.0
 40
5.0
 40
5.0
 40
5.0
 40
6.0
 40
6.0
 40
6.0
 40
6.0
 10
648.908151439955
 20
-485.6686929997977
 10
644.6117891730537
 20
-481.9464998843669
 10
638.1568375338156
 20
-482.3319314943674
 10
634.3268756892721
 20
-486.4769068662972
 10
634.3268756892721
 20
-486.4769068662972
 10
631.5964805861477
 20
-494.7403665417132
 10
631.5964805861477
 20
-494.7403665417132
 10
631.8726599483834
 20
-497.2837276700393
 10
633.0713046165638
 20
-499.7332731986089
 10
635.1573968973062
 20
-501.5405785055555
 10
637.3802562235323
 20
-503.4663732050367
 10
640.1812454892861
 20
-504.2912377644134
 10
642.8977336984299
 20
-504.0668295729174
 10
642.8977336984299
 20
-504.0668295729174
 10
650.1848246204991
 20
-500.2174371413857
 10
650.1848246204991
 20
-500.2174371413857
 10
653.7427891535372
 20
-495.8359590978307
 10
653.2048659356842
 20
-489.3911912719268
 10
648.908151439955
 20
-485.6686929997977
 97
        0
 97
        0
 75
     2
 76
     1
 98
        0
  0
SPLINE
  5
E3
330
D9
100
AcDbEntity
  8
Layer 1
370
     0
100
AcDbSpline
210
0.0
220
0.0
230
1.0
 70
    11
 71
     3
 72
    14
 73
    10
 74
     0
 42
0.0000000001
 43
0.0000000001
 12
1.0
 22
0.0
 32
0.0
 13
1.0
 23
0.0
 33
0.0
 40
0.0
 40
0.0
 40
0.0
 40
0.0
 40
1.0
 40
1.0
 40
1.0
 40
2.0
 40
2.0
 40
2.0
 40
3.0
 40
3.0
 40
3.0
 40
3.0
 10
634.0968314157526
 20
-486.7292584813531
 30
0.0
 10
632.1069734973116
 20
-489.0260631371448
 30
0.0
 10
631.2923888278692
 20
-491.9401049105763
 30
0.0
 10
631.5964805861477
 20
-494.7403665417132
 30
0.0
 10
631.5964805861477
 20
-494.7403665417132
 30
0.0
 10
634.3268756892721
 20
-486.4769068662972
 30
0.0
 10
634.3268756892721
 20
-486.4769068662972
 30
0.0
 10
634.2497367041105
 20
-486.5603889739396
 30
0.0
 10
634.1718015257065
 20
-486.6427238117194
 30
0.0
 10
634.0968314157526
 20
-486.7292584813531
 30
0.0
  0
HATCH
  5
E4
330
D9
100
AcDbEntity
  8
Layer 1
 62
   250
420
  4013373
100
AcDbHatch
 10
0.0
 20
0.0
 30
0.0
210
0.0
220
0.0
230
1.0
  2
SOLID
 70
     1
 71
     0
 91
        1
 92
        1
 93
        1
 72
     4
 94
        3
 73
     0
 74
     1
 95
       14
 96
       10
 40
0.0
 40
0.0
 40
0.0
 40
0.0
 40
1.0
 40
1.0
 40
1.0
 40
2.0
 40
2.0
 40
2.0
 40
3.0
 40
3.0
 40
3.0
 40
3.0
 10
634.0968314157526
 20
-486.7292584813531
 10
632.1069734973116
 20
-489.0260631371448
 10
631.2923888278692
 20
-491.9401049105763
 10
631.5964805861477
 20
-494.7403665417132
 10
631.5964805861477
 20
-494.7403665417132
 10
634.3268756892721
 20
-486.4769068662972
 10
634.3268756892721
 20
-486.4769068662972
 10
634.2497367041105
 20
-486.5603889739396
 10
634.1718015257065
 20
-486.6427238117194
 10
634.0968314157526
 20
-486.7292584813531
 97
        0
 97
        0
 75
     2
 76
     1
 98
        0
  0
POLYLINE
  5
E5
330
D9
100
AcDbEntity
  8
Layer 1
370
     0
100
AcDb2dPolyline
 66
     1
 10
0.0
 20
0.0
 30
0.0
  0
VERTEX
  5
E6
330
E5
100
AcDbEntity
  8
Layer 1
370
     0
100
AcDbVertex
100
AcDb2dVertex
 10
650.1848246204991
 20
-500.2174371413857
 30
0.0
  0
VERTEX
  5
E7
330
E5
100
AcDbEntity
  8
Layer 1
370
     0
100
AcDbVertex
100
AcDb2dVertex
 10
650.2058039879848
 20
-500.2063539486144
 30
0.0
  0
SEQEND
  5
E8
330
E5
100
AcDbEntity
  8
Layer 1
370
     0
  0
POLYLINE
  5
E9
330
D9
100
AcDbEntity
  8
Layer 1
370
     0
100
AcDb2dPolyline
 66
     1
 10
0.0
 20
0.0
 30
0.0
  0
VERTEX
  5
EA
330
E9
100
AcDbEntity
  8
Layer 1
370
     0
100
AcDbVertex
100
AcDb2dVertex
 10
650.1848246204991
 20
-500.2174371413857
 30
0.0
  0
VERTEX
  5
EB
330
E9
100
AcDbEntity
  8
Layer 1
370
     0
100
AcDbVertex
100
AcDb2dVertex
 10
642.8977336984299
 20
-504.0668295729174
 30
0.0
  0
SEQEND
  5
EC
330
E9
100
AcDbEntity
  8
Layer 1
370
     0
  0
POLYLINE
  5
ED
330
D9
100
AcDbEntity
  8
Layer 1
370
     0
100
AcDb2dPolyline
 66
     1
 10
0.0
 20
0.0
 30
0.0
  0
VERTEX
  5
EE
330
ED
100
AcDbEntity
  8
Layer 1
370
     0
100
AcDbVertex
100
AcDb2dVertex
 10
642.8977336984299
 20
-504.0668295729174
 30
0.0
  0
VERTEX
  5
EF
330
ED
100
AcDbEntity
  8
Layer 1
370
     0
100
AcDbVertex
100
AcDb2dVertex
 10
625.4736043813173
 20
-513.2710869256152
 30
0.0
  0
SEQEND
  5
F0
330
ED
100
AcDbEntity
  8
Layer 1
370
     0
  0
POLYLINE
  5
F1
330
D9
100
AcDbEntity
  8
Layer 1
370
     0
100
AcDb2dPolyline
 66
     1
 10
0.0
 20
0.0
 30
0.0
  0
VERTEX
  5
F2
330
F1
100
AcDbEntity
  8
Layer 1
370
     0
100
AcDbVertex
100
AcDb2dVertex
 10
634.3268756892721
 20
-486.4769068662972
 30
0.0
  0
VERTEX
  5
F3
330
F1
100
AcDbEntity
  8
Layer 1
370
     0
100
AcDbVertex
100
AcDb2dVertex
 10
631.5964805861477
 20
-494.7403665417132
 30
0.0
  0
SEQEND
  5
F4
330
F1
100
AcDbEntity
  8
Layer 1
370
     0
  0
POLYLINE
  5
F5
330
D9
100
AcDbEntity
  8
Layer 1
370
     0
100
AcDb2dPolyline
 66
     1
 10
0.0
 20
0.0
 30
0.0
  0
VERTEX
  5
F6
330
F5
100
AcDbEntity
  8
Layer 1
370
     0
100
AcDbVertex
100
AcDb2dVertex
 10
625.4736043813173
 20
-513.2710869256152
 30
0.0
  0
VERTEX
  5
F7
330
F5
100
AcDbEntity
  8
Layer 1
370
     0
100
AcDbVertex
100
AcDb2dVertex
 10
631.5964805861477
 20
-494.7403665417132
 30
0.0
  0
SEQEND
  5
F8
330
F5
100
AcDbEntity
  8
Layer 1
370
     0
  0
POLYLINE
  5
F9
330
D9
100
AcDbEntity
  8
Layer 1
370
     0
100
AcDb2dPolyline
 66
     1
 10
0.0
 20
0.0
 30
0.0
  0
VERTEX
  5
FA
330
F9
100
AcDbEntity
  8
Layer 1
370
     0
100
AcDbVertex
100
AcDb2dVertex
 10
634.3268756892721
 20
-486.4769068662972
 30
0.0
  0
VERTEX
  5
FB
330
F9
100
AcDbEntity
  8
Layer 1
370
     0
100
AcDbVertex
100
AcDb2dVertex
 10
634.3339184822271
 20
-486.4555994059674
 30
0.0
  0
SEQEND
  5
FC
330
F9
100
AcDbEntity
  8
Layer 1
370
     0
  0
ENDBLK
  5
DC
330
D9
100
AcDbEntity
  8
0
100
AcDbBlockEnd
  0
BLOCK
  5
FF
330
FD
100
AcDbEntity
  8
0
100
AcDbBlockBegin
  2
block 7
 70
     0
 10
0.0
 20
0.0
 30
0.0
  3
block 7
  1

  0
SPLINE
  5
101
330
FD
100
AcDbEntity
  8
Layer 1
370
     0
100
AcDbSpline
210
0.0
220
0.0
230
1.0
 70
    11
 71
     3
 72
    17
 73
    13
 74
     0
 42
0.0000000001
 43
0.0000000001
 12
1.0
 22
0.0
 32
0.0
 13
1.0
 23
0.0
 33
0.0
 40
0.0
 40
0.0
 40
0.0
 40
0.0
 40
1.0
 40
1.0
 40
1.0
 40
2.0
 40
2.0
 40
2.0
 40
3.0
 40
3.0
 40
3.0
 40
4.0
 40
4.0
 40
4.0
 40
4.0
 10
588.2391284399455
 20
-608.2527912875721
 30
0.0
 10
586.4272656710982
 20
-610.3349264376429
 30
0.0
 10
583.9751048511189
 20
-611.5282116717935
 30
0.0
 10
581.4311458658976
 20
-611.7988286533855
 30
0.0
 10
581.4311458658976
 20
-611.7988286533855
 30
0.0
 10
599.9484326829406
 20
-617.9622124562538
 30
0.0
 10
599.9484326829406
 20
-617.9622124562538
 30
0.0
 10
599.9484326829406
 20
-617.9622124562538
 30
0.0
 10
590.7822997258281
 20
-600.5179972980222
 30
0.0
 10
590.7822997258281
 20
-600.5179972980222
 30
0.0
 10
591.000767073092
 20
-603.2349697389946
 30
0.0
 10
590.1697793947224
 20
-606.0341485268873
 30
0.0
 10
588.2391284399455
 20
-608.2527912875721
 30
0.0
  0
HATCH
  5
102
330
FD
100
AcDbEntity
  8
Layer 1
 62
   250
420
  4013373
100
AcDbHatch
 10
0.0
 20
0.0
 30
0.0
210
0.0
220
0.0
230
1.0
  2
SOLID
 70
     1
 71
     0
 91
        1
 92
        1
 93
        1
 72
     4
 94
        3
 73
     0
 74
     1
 95
       17
 96
       13
 40
0.0
 40
0.0
 40
0.0
 40
0.0
 40
1.0
 40
1.0
 40
1.0
 40
2.0
 40
2.0
 40
2.0
 40
3.0
 40
3.0
 40
3.0
 40
4.0
 40
4.0
 40
4.0
 40
4.0
 10
588.2391284399455
 20
-608.2527912875721
 10
586.4272656710982
 20
-610.3349264376429
 10
583.9751048511189
 20
-611.5282116717935
 10
581.4311458658976
 20
-611.7988286533855
 10
581.4311458658976
 20
-611.7988286533855
 10
599.9484326829406
 20
-617.9622124562538
 10
599.9484326829406
 20
-617.9622124562538
 10
599.9484326829406
 20
-617.9622124562538
 10
590.7822997258281
 20
-600.5179972980222
 10
590.7822997258281
 20
-600.5179972980222
 10
591.000767073092
 20
-603.2349697389946
 10
590.1697793947224
 20
-606.0341485268873
 10
588.2391284399455
 20
-608.2527912875721
 97
        0
 97
        0
 75
     2
 76
     1
 98
        0
  0
SPLINE
  5
103
330
FD
100
AcDbEntity
  8
Layer 1
370
     0
100
AcDbSpline
210
0.0
220
0.0
230
1.0
 70
    11
 71
     3
 72
    14
 73
    10
 74
     0
 42
0.0000000001
 43
0.0000000001
 12
1.0
 22
0.0
 32
0.0
 13
1.0
 23
0.0
 33
0.0
 40
0.0
 40
0.0
 40
0.0
 40
0.0
 40
1.0
 40
1.0
 40
1.0
 40
2.0
 40
2.0
 40
2.0
 40
3.0
 40
3.0
 40
3.0
 40
3.0
 10
586.9488516168003
 20
-593.2225061018235
 30
0.0
 10
586.9488516168003
 20
-593.2225061018235
 30
0.0
 10
590.7822997258281
 20
-600.5179972980222
 30
0.0
 10
590.7822997258281
 20
-600.5179972980222
 30
0.0
 10
590.5700254345666
 20
-597.8778169715406
 30
0.0
 10
589.3668945078934
 20
-595.3152750098598
 30
0.0
 10
587.2109542959388
 20
-593.4391874745379
 30
0.0
 10
587.1249353355252
 20
-593.3643342394898
 30
0.0
 10
587.0365699388167
 20
-593.2940553301014
 30
0.0
 10
586.9488516168003
 20
-593.2225061018235
 30
0.0
  0
HATCH
  5
104
330
FD
100
AcDbEntity
  8
Layer 1
 62
   250
420
  4013373
100
AcDbHatch
 10
0.0
 20
0.0
 30
0.0
210
0.0
220
0.0
230
1.0
  2
SOLID
 70
     1
 71
     0
 91
        1
 92
        1
 93
        1
 72
     4
 94
        3
 73
     0
 74
     1
 95
       14
 96
       10
 40
0.0
 40
0.0
 40
0.0
 40
0.0
 40
1.0
 40
1.0
 40
1.0
 40
2.0
 40
2.0
 40
2.0
 40
3.0
 40
3.0
 40
3.0
 40
3.0
 10
586.9488516168003
 20
-593.2225061018235
 10
586.9488516168003
 20
-593.2225061018235
 10
590.7822997258281
 20
-600.5179972980222
 10
590.7822997258281
 20
-600.5179972980222
 10
590.5700254345666
 20
-597.8778169715406
 10
589.3668945078934
 20
-595.3152750098598
 10
587.2109542959388
 20
-593.4391874745379
 10
587.1249353355252
 20
-593.3643342394898
 10
587.0365699388167
 20
-593.2940553301014
 10
586.9488516168003
 20
-593.2225061018235
 97
        0
 97
        0
 75
     2
 76
     1
 98
        0
  0
SPLINE
  5
105
330
FD
100
AcDbEntity
  8
Layer 1
370
     0
100
AcDbSpline
210
0.0
220
0.0
230
1.0
 70
    11
 71
     3
 72
    23
 73
    19
 74
     0
 42
0.0000000001
 43
0.0000000001
 12
1.0
 22
0.0
 32
0.0
 13
1.0
 23
0.0
 33
0.0
 40
0.0
 40
0.0
 40
0.0
 40
0.0
 40
1.0
 40
1.0
 40
1.0
 40
2.0
 40
2.0
 40
2.0
 40
3.0
 40
3.0
 40
3.0
 40
4.0
 40
4.0
 40
4.0
 40
5.0
 40
5.0
 40
5.0
 40
6.0
 40
6.0
 40
6.0
 40
6.0
 10
572.3973504829028
 20
-594.4673616185428
 30
0.0
 10
568.6657711540593
 20
-598.7555740700864
 30
0.0
 10
569.037086412638
 20
-605.2113531221949
 30
0.0
 10
573.1736766668273
 20
-609.0503698756747
 30
0.0
 10
573.1736766668273
 20
-609.0503698756747
 30
0.0
 10
581.4311458658976
 20
-611.7988286533855
 30
0.0
 10
581.4311458658976
 20
-611.7988286533855
 30
0.0
 10
583.9751048511189
 20
-611.5282116717935
 30
0.0
 10
586.4272656710982
 20
-610.3349264376429
 30
0.0
 10
588.2391284399455
 20
-608.2527912875721
 30
0.0
 10
590.1697793947224
 20
-606.0341485268873
 30
0.0
 10
591.000767073092
 20
-603.2349697389946
 30
0.0
 10
590.7822997258281
 20
-600.5179972980222
 30
0.0
 10
590.7822997258281
 20
-600.5179972980222
 30
0.0
 10
586.9488516168003
 20
-593.2225061018235
 30
0.0
 10
586.9488516168003
 20
-593.2225061018235
 30
0.0
 10
582.5751644636221
 20
-589.6549688349387
 30
0.0
 10
576.1292357379534
 20
-590.178797606317
 30
0.0
 10
572.3973504829028
 20
-594.4673616185428
 30
0.0
  0
HATCH
  5
106
330
FD
100
AcDbEntity
  8
Layer 1
 62
   250
420
  4013373
100
AcDbHatch
 10
0.0
 20
0.0
 30
0.0
210
0.0
220
0.0
230
1.0
  2
SOLID
 70
     1
 71
     0
 91
        1
 92
        1
 93
        1
 72
     4
 94
        3
 73
     0
 74
     1
 95
       23
 96
       19
 40
0.0
 40
0.0
 40
0.0
 40
0.0
 40
1.0
 40
1.0
 40
1.0
 40
2.0
 40
2.0
 40
2.0
 40
3.0
 40
3.0
 40
3.0
 40
4.0
 40
4.0
 40
4.0
 40
5.0
 40
5.0
 40
5.0
 40
6.0
 40
6.0
 40
6.0
 40
6.0
 10
572.3973504829028
 20
-594.4673616185428
 10
568.6657711540593
 20
-598.7555740700864
 10
569.037086412638
 20
-605.2113531221949
 10
573.1736766668273
 20
-609.0503698756747
 10
573.1736766668273
 20
-609.0503698756747
 10
581.4311458658976
 20
-611.7988286533855
 10
581.4311458658976
 20
-611.7988286533855
 10
583.9751048511189
 20
-611.5282116717935
 10
586.4272656710982
 20
-610.3349264376429
 10
588.2391284399455
 20
-608.2527912875721
 10
590.1697793947224
 20
-606.0341485268873
 10
591.000767073092
 20
-603.2349697389946
 10
590.7822997258281
 20
-600.5179972980222
 10
590.7822997258281
 20
-600.5179972980222
 10
586.9488516168003
 20
-593.2225061018235
 10
586.9488516168003
 20
-593.2225061018235
 10
582.5751644636221
 20
-589.6549688349387
 10
576.1292357379534
 20
-590.178797606317
 10
572.3973504829028
 20
-594.4673616185428
 97
        0
 97
        0
 75
     2
 76
     1
 98
        0
  0
SPLINE
  5
107
330
FD
100
AcDbEntity
  8
Layer 1
370
     0
100
AcDbSpline
210
0.0
220
0.0
230
1.0
 70
    11
 71
     3
 72
    14
 73
    10
 74
     0
 42
0.0000000001
 43
0.0000000001
 12
1.0
 22
0.0
 32
0.0
 13
1.0
 23
0.0
 33
0.0
 40
0.0
 40
0.0
 40
0.0
 40
0.0
 40
1.0
 40
1.0
 40
1.0
 40
2.0
 40
2.0
 40
2.0
 40
3.0
 40
3.0
 40
3.0
 40
3.0
 10
573.4255246269095
 20
-609.2809654315788
 30
0.0
 10
575.7179724494799
 20
-611.2758411528303
 30
0.0
 10
578.6302259543954
 20
-612.0967961845399
 30
0.0
 10
581.4311458658976
 20
-611.7988286533855
 30
0.0
 10
581.4311458658976
 20
-611.7988286533855
 30
0.0
 10
573.1736766668273
 20
-609.0503698756747
 30
0.0
 10
573.1736766668273
 20
-609.0503698756747
 30
0.0
 10
573.2569898904221
 20
-609.1276912317317
 30
0.0
 10
573.3391541058136
 20
-609.2058062703218
 30
0.0
 10
573.4255246269095
 20
-609.2809654315788
 30
0.0
  0
HATCH
  5
108
330
FD
100
AcDbEntity
  8
Layer 1
 62
   250
420
  4013373
100
AcDbHatch
 10
0.0
 20
0.0
 30
0.0
210
0.0
220
0.0
230
1.0
  2
SOLID
 70
     1
 71
     0
 91
        1
 92
        1
 93
        1
 72
     4
 94
        3
 73
     0
 74
     1
 95
       14
 96
       10
 40
0.0
 40
0.0
 40
0.0
 40
0.0
 40
1.0
 40
1.0
 40
1.0
 40
2.0
 40
2.0
 40
2.0
 40
3.0
 40
3.0
 40
3.0
 40
3.0
 10
573.4255246269095
 20
-609.2809654315788
 10
575.7179724494799
 20
-611.2758411528303
 10
578.6302259543954
 20
-612.0967961845399
 10
581.4311458658976
 20
-611.7988286533855
 10
581.4311458658976
 20
-611.7988286533855
 10
573.1736766668273
 20
-609.0503698756747
 10
573.1736766668273
 20
-609.0503698756747
 10
573.2569898904221
 20
-609.1276912317317
 10
573.3391541058136
 20
-609.2058062703218
 10
573.4255246269095
 20
-609.2809654315788
 97
        0
 97
        0
 75
     2
 76
     1
 98
        0
  0
POLYLINE
  5
109
330
FD
100
AcDbEntity
  8
Layer 1
370
     0
100
AcDb2dPolyline
 66
     1
 10
0.0
 20
0.0
 30
0.0
  0
VERTEX
  5
10A
330
109
100
AcDbEntity
  8
Layer 1
370
     0
100
AcDbVertex
100
AcDb2dVertex
 10
586.9488516168003
 20
-593.2225061018235
 30
0.0
  0
VERTEX
  5
10B
330
109
100
AcDbEntity
  8
Layer 1
370
     0
100
AcDbVertex
100
AcDb2dVertex
 10
586.937814327368
 20
-593.201502548216
 30
0.0
  0
SEQEND
  5
10C
330
109
100
AcDbEntity
  8
Layer 1
370
     0
  0
POLYLINE
  5
10D
330
FD
100
AcDbEntity
  8
Layer 1
370
     0
100
AcDb2dPolyline
 66
     1
 10
0.0
 20
0.0
 30
0.0
  0
VERTEX
  5
10E
330
10D
100
AcDbEntity
  8
Layer 1
370
     0
100
AcDbVertex
100
AcDb2dVertex
 10
586.9488516168003
 20
-593.2225061018235
 30
0.0
  0
VERTEX
  5
10F
330
10D
100
AcDbEntity
  8
Layer 1
370
     0
100
AcDbVertex
100
AcDb2dVertex
 10
590.7822997258281
 20
-600.5179972980222
 30
0.0
  0
SEQEND
  5
110
330
10D
100
AcDbEntity
  8
Layer 1
370
     0
  0
POLYLINE
  5
111
330
FD
100
AcDbEntity
  8
Layer 1
370
     0
100
AcDb2dPolyline
 66
     1
 10
0.0
 20
0.0
 30
0.0
  0
VERTEX
  5
112
330
111
100
AcDbEntity
  8
Layer 1
370
     0
100
AcDbVertex
100
AcDb2dVertex
 10
590.7822997258281
 20
-600.5179972980222
 30
0.0
  0
VERTEX
  5
113
330
111
100
AcDbEntity
  8
Layer 1
370
     0
100
AcDbVertex
100
AcDb2dVertex
 10
599.9484326829406
 20
-617.9622124562538
 30
0.0
  0
SEQEND
  5
114
330
111
100
AcDbEntity
  8
Layer 1
370
     0
  0
POLYLINE
  5
115
330
FD
100
AcDbEntity
  8
Layer 1
370
     0
100
AcDb2dPolyline
 66
     1
 10
0.0
 20
0.0
 30
0.0
  0
VERTEX
  5
116
330
115
100
AcDbEntity
  8
Layer 1
370
     0
100
AcDbVertex
100
AcDb2dVertex
 10
573.1736766668273
 20
-609.0503698756747
 30
0.0
  0
VERTEX
  5
117
330
115
100
AcDbEntity
  8
Layer 1
370
     0
100
AcDbVertex
100
AcDb2dVertex
 10
581.4311458658976
 20
-611.7988286533855
 30
0.0
  0
SEQEND
  5
118
330
115
100
AcDbEntity
  8
Layer 1
370
     0
  0
POLYLINE
  5
119
330
FD
100
AcDbEntity
  8
Layer 1
370
     0
100
AcDb2dPolyline
 66
     1
 10
0.0
 20
0.0
 30
0.0
  0
VERTEX
  5
11A
330
119
100
AcDbEntity
  8
Layer 1
370
     0
100
AcDbVertex
100
AcDb2dVertex
 10
599.9484326829406
 20
-617.9622124562538
 30
0.0
  0
VERTEX
  5
11B
330
119
100
AcDbEntity
  8
Layer 1
370
     0
100
AcDbVertex
100
AcDb2dVertex
 10
581.4311458658976
 20
-611.7988286533855
 30
0.0
  0
SEQEND
  5
11C
330
119
100
AcDbEntity
  8
Layer 1
370
     0
  0
POLYLINE
  5
11D
330
FD
100
AcDbEntity
  8
Layer 1
370
     0
100
AcDb2dPolyline
 66
     1
 10
0.0
 20
0.0
 30
0.0
  0
VERTEX
  5
11E
330
11D
100
AcDbEntity
  8
Layer 1
370
     0
100
AcDbVertex
100
AcDb2dVertex
 10
573.1736766668273
 20
-609.0503698756747
 30
0.0
  0
VERTEX
  5
11F
330
11D
100
AcDbEntity
  8
Layer 1
370
     0
100
AcDbVertex
100
AcDb2dVertex
 10
573.1523846583386
 20
-609.0432805052569
 30
0.0
  0
SEQEND
  5
120
330
11D
100
AcDbEntity
  8
Layer 1
370
     0
  0
ENDBLK
  5
100
330
FD
100
AcDbEntity
  8
0
100
AcDbBlockEnd
  0
BLOCK
  5
123
330
121
100
AcDbEntity
  8
0
100
AcDbBlockBegin
  2
block 8
 70
     0
 10
0.0
 20
0.0
 30
0.0
  3
block 8
  1

  0
SPLINE
  5
125
330
121
100
AcDbEntity
  8
Layer 1
370
     0
100
AcDbSpline
210
0.0
220
0.0
230
1.0
 70
    11
 71
     3
 72
    17
 73
    13
 74
     0
 42
0.0000000001
 43
0.0000000001
 12
1.0
 22
0.0
 32
0.0
 13
1.0
 23
0.0
 33
0.0
 40
0.0
 40
0.0
 40
0.0
 40
0.0
 40
1.0
 40
1.0
 40
1.0
 40
2.0
 40
2.0
 40
2.0
 40
3.0
 40
3.0
 40
3.0
 40
4.0
 40
4.0
 40
4.0
 40
4.0
 10
558.4324651042407
 20
-500.5647356329946
 30
0.0
 10
559.4511224136841
 20
-503.3678572060007
 30
0.0
 10
559.4959311610892
 20
-506.2372210274434
 30
0.0
 10
558.7482386030333
 20
-508.6636283242005
 30
0.0
 10
558.7482386030333
 20
-508.6636283242005
 30
0.0
 10
570.8679216330547
 20
-495.6294093448314
 30
0.0
 10
570.8679216330547
 20
-495.6294093448314
 30
0.0
 10
570.8679216330547
 20
-495.6294093448314
 30
0.0
 10
553.0518227051962
 20
-493.892249389477
 30
0.0
 10
553.0518227051962
 20
-493.892249389477
 30
0.0
 10
555.3657263739024
 20
-495.2429350866278
 30
0.0
 10
557.3470232369655
 20
-497.5778375994723
 30
0.0
 10
558.4324651042407
 20
-500.5647356329946
 30
0.0
  0
HATCH
  5
126
330
121
100
AcDbEntity
  8
Layer 1
 62
   250
420
  4013373
100
AcDbHatch
 10
0.0
 20
0.0
 30
0.0
210
0.0
220
0.0
230
1.0
  2
SOLID
 70
     1
 71
     0
 91
        1
 92
        1
 93
        1
 72
     4
 94
        3
 73
     0
 74
     1
 95
       17
 96
       13
 40
0.0
 40
0.0
 40
0.0
 40
0.0
 40
1.0
 40
1.0
 40
1.0
 40
2.0
 40
2.0
 40
2.0
 40
3.0
 40
3.0
 40
3.0
 40
4.0
 40
4.0
 40
4.0
 40
4.0
 10
558.4324651042407
 20
-500.5647356329946
 10
559.4511224136841
 20
-503.3678572060007
 10
559.4959311610892
 20
-506.2372210274434
 10
558.7482386030333
 20
-508.6636283242005
 10
558.7482386030333
 20
-508.6636283242005
 10
570.8679216330547
 20
-495.6294093448314
 10
570.8679216330547
 20
-495.6294093448314
 10
570.8679216330547
 20
-495.6294093448314
 10
553.0518227051962
 20
-493.892249389477
 10
553.0518227051962
 20
-493.892249389477
 10
555.3657263739024
 20
-495.2429350866278
 10
557.3470232369655
 20
-497.5778375994723
 10
558.4324651042407
 20
-500.5647356329946
 97
        0
 97
        0
 75
     2
 76
     1
 98
        0
  0
SPLINE
  5
127
330
121
100
AcDbEntity
  8
Layer 1
370
     0
100
AcDbSpline
210
0.0
220
0.0
230
1.0
 70
    11
 71
     3
 72
    14
 73
    10
 74
     0
 42
0.0000000001
 43
0.0000000001
 12
1.0
 22
0.0
 32
0.0
 13
1.0
 23
0.0
 33
0.0
 40
0.0
 40
0.0
 40
0.0
 40
0.0
 40
1.0
 40
1.0
 40
1.0
 40
2.0
 40
2.0
 40
2.0
 40
3.0
 40
3.0
 40
3.0
 40
3.0
 10
545.6008017641452
 20
-493.1657398157768
 30
0.0
 10
545.6008017641452
 20
-493.1657398157768
 30
0.0
 10
553.0518227051962
 20
-493.892249389477
 30
0.0
 10
553.0518227051962
 20
-493.892249389477
 30
0.0
 10
550.8033258606429
 20
-492.5797229061163
 30
0.0
 10
548.2408121696208
 20
-492.1964701667812
 30
0.0
 10
545.8786204537046
 20
-493.0548937578205
 30
0.0
 10
545.784372350452
 20
-493.0891436430857
 30
0.0
 10
545.6929851721288
 20
-493.1280921124344
 30
0.0
 10
545.6008017641452
 20
-493.1657398157768
 30
0.0
  0
HATCH
  5
128
330
121
100
AcDbEntity
  8
Layer 1
 62
   250
420
  4013373
100
AcDbHatch
 10
0.0
 20
0.0
 30
0.0
210
0.0
220
0.0
230
1.0
  2
SOLID
 70
     1
 71
     0
 91
        1
 92
        1
 93
        1
 72
     4
 94
        3
 73
     0
 74
     1
 95
       14
 96
       10
 40
0.0
 40
0.0
 40
0.0
 40
0.0
 40
1.0
 40
1.0
 40
1.0
 40
2.0
 40
2.0
 40
2.0
 40
3.0
 40
3.0
 40
3.0
 40
3.0
 10
545.6008017641452
 20
-493.1657398157768
 10
545.6008017641452
 20
-493.1657398157768
 10
553.0518227051962
 20
-493.892249389477
 10
553.0518227051962
 20
-493.892249389477
 10
550.8033258606429
 20
-492.5797229061163
 10
548.2408121696208
 20
-492.1964701667812
 10
545.8786204537046
 20
-493.0548937578205
 10
545.784372350452
 20
-493.0891436430857
 10
545.6929851721288
 20
-493.1280921124344
 10
545.6008017641452
 20
-493.1657398157768
 97
        0
 97
        0
 75
     2
 76
     1
 98
        0
  0
SPLINE
  5
129
330
121
100
AcDbEntity
  8
Layer 1
370
     0
100
AcDbSpline
210
0.0
220
0.0
230
1.0
 70
    11
 71
     3
 72
    23
 73
    19
 74
     0
 42
0.0000000001
 43
0.0000000001
 12
1.0
 22
0.0
 32
0.0
 13
1.0
 23
0.0
 33
0.0
 40
0.0
 40
0.0
 40
0.0
 40
0.0
 40
1.0
 40
1.0
 40
1.0
 40
2.0
 40
2.0
 40
2.0
 40
3.0
 40
3.0
 40
3.0
 40
4.0
 40
4.0
 40
4.0
 40
5.0
 40
5.0
 40
5.0
 40
6.0
 40
6.0
 40
6.0
 40
6.0
 10
541.0751578616764
 20
-506.8724040214693
 30
0.0
 10
543.1731095523028
 20
-512.6455070941265
 30
0.0
 10
548.6148182938559
 20
-515.9868721605962
 30
0.0
 10
553.3436699222966
 20
-514.4760151900564
 30
0.0
 10
553.3436699222966
 20
-514.4760151900564
 30
0.0
 10
558.7482386030333
 20
-508.6636283242005
 30
0.0
 10
558.7482386030333
 20
-508.6636283242005
 30
0.0
 10
559.4959311610892
 20
-506.2372210274434
 30
0.0
 10
559.4511224136841
 20
-503.3678572060007
 30
0.0
 10
558.4324651042407
 20
-500.5647356329946
 30
0.0
 10
557.3470232369655
 20
-497.5778375994723
 30
0.0
 10
555.3657263739024
 20
-495.2429350866278
 30
0.0
 10
553.0518227051962
 20
-493.892249389477
 30
0.0
 10
553.0518227051962
 20
-493.892249389477
 30
0.0
 10
545.6008017641452
 20
-493.1657398157768
 30
0.0
 10
545.6008017641452
 20
-493.1657398157768
 30
0.0
 10
541.0044412202678
 20
-495.0428476450934
 30
0.0
 10
538.9770341745971
 20
-501.0988276522876
 30
0.0
 10
541.0751578616764
 20
-506.8724040214693
 30
0.0
  0
HATCH
  5
12A
330
121
100
AcDbEntity
  8
Layer 1
 62
   250
420
  4013373
100
AcDbHatch
 10
0.0
 20
0.0
 30
0.0
210
0.0
220
0.0
230
1.0
  2
SOLID
 70
     1
 71
     0
 91
        1
 92
        1
 93
        1
 72
     4
 94
        3
 73
     0
 74
     1
 95
       23
 96
       19
 40
0.0
 40
0.0
 40
0.0
 40
0.0
 40
1.0
 40
1.0
 40
1.0
 40
2.0
 40
2.0
 40
2.0
 40
3.0
 40
3.0
 40
3.0
 40
4.0
 40
4.0
 40
4.0
 40
5.0
 40
5.0
 40
5.0
 40
6.0
 40
6.0
 40
6.0
 40
6.0
 10
541.0751578616764
 20
-506.8724040214693
 10
543.1731095523028
 20
-512.6455070941265
 10
548.6148182938559
 20
-515.9868721605962
 10
553.3436699222966
 20
-514.4760151900564
 10
553.3436699222966
 20
-514.4760151900564
 10
558.7482386030333
 20
-508.6636283242005
 10
558.7482386030333
 20
-508.6636283242005
 10
559.4959311610892
 20
-506.2372210274434
 10
559.4511224136841
 20
-503.3678572060007
 10
558.4324651042407
 20
-500.5647356329946
 10
557.3470232369655
 20
-497.5778375994723
 10
555.3657263739024
 20
-495.2429350866278
 10
553.0518227051962
 20
-493.892249389477
 10
553.0518227051962
 20
-493.892249389477
 10
545.6008017641452
 20
-493.1657398157768
 10
545.6008017641452
 20
-493.1657398157768
 10
541.0044412202678
 20
-495.0428476450934
 10
538.9770341745971
 20
-501.0988276522876
 10
541.0751578616764
 20
-506.8724040214693
 97
        0
 97
        0
 75
     2
 76
     1
 98
        0
  0
SPLINE
  5
12B
330
121
100
AcDbEntity
  8
Layer 1
370
     0
100
AcDbSpline
210
0.0
220
0.0
230
1.0
 70
    11
 71
     3
 72
    14
 73
    10
 74
     0
 42
0.0000000001
 43
0.0000000001
 12
1.0
 22
0.0
 32
0.0
 13
1.0
 23
0.0
 33
0.0
 40
0.0
 40
0.0
 40
0.0
 40
0.0
 40
1.0
 40
1.0
 40
1.0
 40
2.0
 40
2.0
 40
2.0
 40
3.0
 40
3.0
 40
3.0
 40
3.0
 10
553.6290025122144
 20
-514.3822458966424
 30
0.0
 10
556.1407610598835
 20
-513.4694695212966
 30
0.0
 10
557.9250360346159
 20
-511.3351319525709
 30
0.0
 10
558.7482386030333
 20
-508.6636283242005
 30
0.0
 10
558.7482386030333
 20
-508.6636283242005
 30
0.0
 10
553.3436699222966
 20
-514.4760151900564
 30
0.0
 10
553.3436699222966
 20
-514.4760151900564
 30
0.0
 10
553.4389127909963
 20
-514.445586504542
 30
0.0
 10
553.5343692156566
 20
-514.4166357616614
 30
0.0
 10
553.6290025122144
 20
-514.3822458966424
 30
0.0
  0
HATCH
  5
12C
330
121
100
AcDbEntity
  8
Layer 1
 62
   250
420
  4013373
100
AcDbHatch
 10
0.0
 20
0.0
 30
0.0
210
0.0
220
0.0
230
1.0
  2
SOLID
 70
     1
 71
     0
 91
        1
 92
        1
 93
        1
 72
     4
 94
        3
 73
     0
 74
     1
 95
       14
 96
       10
 40
0.0
 40
0.0
 40
0.0
 40
0.0
 40
1.0
 40
1.0
 40
1.0
 40
2.0
 40
2.0
 40
2.0
 40
3.0
 40
3.0
 40
3.0
 40
3.0
 10
553.6290025122144
 20
-514.3822458966424
 10
556.1407610598835
 20
-513.4694695212966
 10
557.9250360346159
 20
-511.3351319525709
 10
558.7482386030333
 20
-508.6636283242005
 10
558.7482386030333
 20
-508.6636283242005
 10
553.3436699222966
 20
-514.4760151900564
 10
553.3436699222966
 20
-514.4760151900564
 10
553.4389127909963
 20
-514.445586504542
 10
553.5343692156566
 20
-514.4166357616614
 10
553.6290025122144
 20
-514.3822458966424
 97
        0
 97
        0
 75
     2
 76
     1
 98
        0
  0
POLYLINE
  5
12D
330
121
100
AcDbEntity
  8
Layer 1
370
     0
100
AcDb2dPolyline
 66
     1
 10
0.0
 20
0.0
 30
0.0
  0
VERTEX
  5
12E
330
12D
100
AcDbEntity
  8
Layer 1
370
     0
100
AcDbVertex
100
AcDb2dVertex
 10
545.6008017641452
 20
-493.1657398157768
 30
0.0
  0
VERTEX
  5
12F
330
12D
100
AcDbEntity
  8
Layer 1
370
     0
100
AcDbVertex
100
AcDb2dVertex
 10
545.5793501086973
 20
-493.1636489966641
 30
0.0
  0
SEQEND
  5
130
330
12D
100
AcDbEntity
  8
Layer 1
370
     0
  0
POLYLINE
  5
131
330
121
100
AcDbEntity
  8
Layer 1
370
     0
100
AcDb2dPolyline
 66
     1
 10
0.0
 20
0.0
 30
0.0
  0
VERTEX
  5
132
330
131
100
AcDbEntity
  8
Layer 1
370
     0
100
AcDbVertex
100
AcDb2dVertex
 10
545.6008017641452
 20
-493.1657398157768
 30
0.0
  0
VERTEX
  5
133
330
131
100
AcDbEntity
  8
Layer 1
370
     0
100
AcDbVertex
100
AcDb2dVertex
 10
553.0518227051962
 20
-493.892249389477
 30
0.0
  0
SEQEND
  5
134
330
131
100
AcDbEntity
  8
Layer 1
370
     0
  0
POLYLINE
  5
135
330
121
100
AcDbEntity
  8
Layer 1
370
     0
100
AcDb2dPolyline
 66
     1
 10
0.0
 20
0.0
 30
0.0
  0
VERTEX
  5
136
330
135
100
AcDbEntity
  8
Layer 1
370
     0
100
AcDbVertex
100
AcDb2dVertex
 10
553.0518227051962
 20
-493.892249389477
 30
0.0
  0
VERTEX
  5
137
330
135
100
AcDbEntity
  8
Layer 1
370
     0
100
AcDbVertex
100
AcDb2dVertex
 10
570.8679216330547
 20
-495.6294093448314
 30
0.0
  0
SEQEND
  5
138
330
135
100
AcDbEntity
  8
Layer 1
370
     0
  0
POLYLINE
  5
139
330
121
100
AcDbEntity
  8
Layer 1
370
     0
100
AcDb2dPolyline
 66
     1
 10
0.0
 20
0.0
 30
0.0
  0
VERTEX
  5
13A
330
139
100
AcDbEntity
  8
Layer 1
370
     0
100
AcDbVertex
100
AcDb2dVertex
 10
553.3436699222966
 20
-514.4760151900564
 30
0.0
  0
VERTEX
  5
13B
330
139
100
AcDbEntity
  8
Layer 1
370
     0
100
AcDbVertex
100
AcDb2dVertex
 10
558.7482386030333
 20
-508.6636283242005
 30
0.0
  0
SEQEND
  5
13C
330
139
100
AcDbEntity
  8
Layer 1
370
     0
  0
POLYLINE
  5
13D
330
121
100
AcDbEntity
  8
Layer 1
370
     0
100
AcDb2dPolyline
 66
     1
 10
0.0
 20
0.0
 30
0.0
  0
VERTEX
  5
13E
330
13D
100
AcDbEntity
  8
Layer 1
370
     0
100
AcDbVertex
100
AcDb2dVertex
 10
570.8679216330547
 20
-495.6294093448314
 30
0.0
  0
VERTEX
  5
13F
330
13D
100
AcDbEntity
  8
Layer 1
370
     0
100
AcDbVertex
100
AcDb2dVertex
 10
558.7482386030333
 20
-508.6636283242005
 30
0.0
  0
SEQEND
  5
140
330
13D
100
AcDbEntity
  8
Layer 1
370
     0
  0
POLYLINE
  5
141
330
121
100
AcDbEntity
  8
Layer 1
370
     0
100
AcDb2dPolyline
 66
     1
 10
0.0
 20
0.0
 30
0.0
  0
VERTEX
  5
142
330
141
100
AcDbEntity
  8
Layer 1
370
     0
100
AcDbVertex
100
AcDb2dVertex
 10
553.3436699222966
 20
-514.4760151900564
 30
0.0
  0
VERTEX
  5
143
330
141
100
AcDbEntity
  8
Layer 1
370
     0
100
AcDbVertex
100
AcDb2dVertex
 10
553.3297321672089
 20
-514.4910011354832
 30
0.0
  0
SEQEND
  5
144
330
141
100
AcDbEntity
  8
Layer 1
370
     0
  0
ENDBLK
  5
124
330
121
100
AcDbEntity
  8
0
100
AcDbBlockEnd
  0
ENDSEC
  0
SECTION
  2
ENTITIES
  0
SPLINE
  5
41
330
1F
100
AcDbEntity
  8
Layer 1
 62
    18
420
        0
370
   140
100
AcDbSpline
210
0.0
220
0.0
230
1.0
 70
    11
 71
     3
 72
    17
 73
    13
 74
     0
 42
0.0000000001
 43
0.0000000001
 12
1.0
 22
0.0
 32
0.0
 13
1.0
 23
0.0
 33
0.0
 40
0.0
 40
0.0
 40
0.0
 40
0.0
 40
1.0
 40
1.0
 40
1.0
 40
2.0
 40
2.0
 40
2.0
 40
3.0
 40
3.0
 40
3.0
 40
4.0
 40
4.0
 40
4.0
 40
4.0
 10
756.0
 20
-515.4999999999991
 30
0.0
 10
756.0
 20
-628.4422313340983
 30
0.0
 10
664.4422313341001
 20
-720.0
 30
0.0
 10
551.5
 20
-720.0
 30
0.0
 10
438.5577686658999
 20
-720.0
 30
0.0
 10
347.0
 20
-628.4422313340983
 30
0.0
 10
347.0
 20
-515.4999999999991
 30
0.0
 10
347.0
 20
-402.5577686658989
 30
0.0
 10
438.5577686658999
 20
-310.9999999999991
 30
0.0
 10
551.5
 20
-310.9999999999991
 30
0.0
 10
664.4422313341001
 20
-310.9999999999991
 30
0.0
 10
756.0
 20
-402.5577686658989
 30
0.0
 10
756.0
 20
-515.4999999999991
 30
0.0
  0
HATCH
  5
42
330
1F
100
AcDbEntity
  8
Layer 1
 62
   102
420
    46383
100
AcDbHatch
 10
0.0
 20
0.0
 30
0.0
210
0.0
220
0.0
230
1.0
  2
SOLID
 70
     1
 71
     0
 91
        1
 92
        1
 93
        1
 72
     4
 94
        3
 73
     0
 74
     1
 95
       17
 96
       13
 40
0.0
 40
0.0
 40
0.0
 40
0.0
 40
1.0
 40
1.0
 40
1.0
 40
2.0
 40
2.0
 40
2.0
 40
3.0
 40
3.0
 40
3.0
 40
4.0
 40
4.0
 40
4.0
 40
4.0
 10
756.0
 20
-515.4999999999991
 10
756.0
 20
-628.4422313340983
 10
664.4422313341001
 20
-720.0
 10
551.5
 20
-720.0
 10
438.5577686658999
 20
-720.0
 10
347.0
 20
-628.4422313340983
 10
347.0
 20
-515.4999999999991
 10
347.0
 20
-402.5577686658989
 10
438.5577686658999
 20
-310.9999999999991
 10
551.5
 20
-310.9999999999991
 10
664.4422313341001
 20
-310.9999999999991
 10
756.0
 20
-402.5577686658989
 10
756.0
 20
-515.4999999999991
 97
        0
 97
        0
 75
     2
 76
     1
 98
        0
  0
SPLINE
  5
43
330
1F
100
AcDbEntity
  8
Layer 1
370
     0
100
AcDbSpline
210
0.0
220
0.0
230
1.0
 70
    11
 71
     3
 72
    17
 73
    13
 74
     0
 42
0.0000000001
 43
0.0000000001
 12
1.0
 22
0.0
 32
0.0
 13
1.0
 23
0.0
 33
0.0
 40
0.0
 40
0.0
 40
0.0
 40
0.0
 40
1.0
 40
1.0
 40
1.0
 40
2.0
 40
2.0
 40
2.0
 40
3.0
 40
3.0
 40
3.0
 40
4.0
 40
4.0
 40
4.0
 40
4.0
 10
737.0
 20
-515.5
 30
0.0
 10
737.0
 20
-617.948821087899
 30
0.0
 10
653.9488210879026
 20
-701.0
 30
0.0
 10
551.5
 20
-701.0
 30
0.0
 10
449.0511789121001
 20
-701.0
 30
0.0
 10
366.0
 20
-617.948821087899
 30
0.0
 10
366.0
 20
-515.5
 30
0.0
 10
366.0
 20
-413.0511789121001
 30
0.0
 10
449.0511789121001
 20
-330.0
 30
0.0
 10
551.5
 20
-330.0
 30
0.0
 10
653.9488210879026
 20
-330.0
 30
0.0
 10
737.0
 20
-413.0511789121001
 30
0.0
 10
737.0
 20
-515.5
 30
0.0
  0
HATCH
  5
44
330
1F
100
AcDbEntity
  8
Layer 1
 62
   112
420
  3331672
100
AcDbHatch
 10
0.0
 20
0.0
 30
0.0
210
0.0
220
0.0
230
1.0
  2
SOLID
 70
     1
 71
     0
 91
        1
 92
        1
 93
        1
 72
     4
 94
        3
 73
     0
 74
     1
 95
       17
 96
       13
 40
0.0
 40
0.0
 40
0.0
 40
0.0
 40
1.0
 40
1.0
 40
1.0
 40
2.0
 40
2.0
 40
2.0
 40
3.0
 40
3.0
 40
3.0
 40
4.0
 40
4.0
 40
4.0
 40
4.0
 10
737.0
 20
-515.5
 10
737.0
 20
-617.948821087899
 10
653.9488210879026
 20
-701.0
 10
551.5
 20
-701.0
 10
449.0511789121001
 20
-701.0
 10
366.0
 20
-617.948821087899
 10
366.0
 20
-515.5
 10
366.0
 20
-413.0511789121001
 10
449.0511789121001
 20
-330.0
 10
551.5
 20
-330.0
 10
653.9488210879026
 20
-330.0
 10
737.0
 20
-413.0511789121001
 10
737.0
 20
-515.5
 97
        0
 97
        0
 75
     2
 76
     1
 98
        0
  0
SPLINE
  5
45
330
1F
100
AcDbEntity
  8
Layer 1
370
     0
100
AcDbSpline
210
0.0
220
0.0
230
1.0
 70
    11
 71
     3
 72
    17
 73
    13
 74
     0
 42
0.0000000001
 43
0.0000000001
 12
1.0
 22
0.0
 32
0.0
 13
1.0
 23
0.0
 33
0.0
 40
0.0
 40
0.0
 40
0.0
 40
0.0
 40
1.0
 40
1.0
 40
1.0
 40
2.0
 40
2.0
 40
2.0
 40
3.0
 40
3.0
 40
3.0
 40
4.0
 40
4.0
 40
4.0
 40
4.0
 10
719.9999999999982
 20
-517.4999999999991
 30
0.0
 10
719.9999999999982
 20
-610.559980341297
 30
0.0
 10
644.5599803413024
 20
-686.0
 30
0.0
 10
551.5
 20
-686.0
 30
0.0
 10
458.4400196586994
 20
-686.0
 30
0.0
 10
382.9999999999991
 20
-610.559980341297
 30
0.0
 10
382.9999999999991
 20
-517.4999999999991
 30
0.0
 10
382.9999999999991
 20
-424.4400196586994
 30
0.0
 10
458.4400196586994
 20
-348.9999999999991
 30
0.0
 10
551.5
 20
-348.9999999999991
 30
0.0
 10
644.5599803413024
 20
-348.9999999999991
 30
0.0
 10
719.9999999999982
 20
-424.4400196586994
 30
0.0
 10
719.9999999999982
 20
-517.4999999999991
 30
0.0
  0
HATCH
  5
46
330
1F
100
AcDbEntity
  8
Layer 1
 62
     7
420
 16377073
100
AcDbHatch
 10
0.0
 20
0.0
 30
0.0
210
0.0
220
0.0
230
1.0
  2
SOLID
 70
     1
 71
     0
 91
        1
 92
        1
 93
        1
 72
     4
 94
        3
 73
     0
 74
     1
 95
       17
 96
       13
 40
0.0
 40
0.0
 40
0.0
 40
0.0
 40
1.0
 40
1.0
 40
1.0
 40
2.0
 40
2.0
 40
2.0
 40
3.0
 40
3.0
 40
3.0
 40
4.0
 40
4.0
 40
4.0
 40
4.0
 10
719.9999999999982
 20
-517.4999999999991
 10
719.9999999999982
 20
-610.559980341297
 10
644.5599803413024
 20
-686.0
 10
551.5
 20
-686.0
 10
458.4400196586994
 20
-686.0
 10
382.9999999999991
 20
-610.559980341297
 10
382.9999999999991
 20
-517.4999999999991
 10
382.9999999999991
 20
-424.4400196586994
 10
458.4400196586994
 20
-348.9999999999991
 10
551.5
 20
-348.9999999999991
 10
644.5599803413024
 20
-348.9999999999991
 10
719.9999999999982
 20
-424.4400196586994
 10
719.9999999999982
 20
-517.4999999999991
 97
        0
 97
        0
 75
     2
 76
     1
 98
        0
  0
SPLINE
  5
47
330
1F
100
AcDbEntity
  8
Layer 1
370
     0
100
AcDbSpline
210
0.0
220
0.0
230
1.0
 70
    11
 71
     3
 72
    17
 73
    13
 74
     0
 42
0.0000000001
 43
0.0000000001
 12
1.0
 22
0.0
 32
0.0
 13
1.0
 23
0.0
 33
0.0
 40
0.0
 40
0.0
 40
0.0
 40
0.0
 40
1.0
 40
1.0
 40
1.0
 40
2.0
 40
2.0
 40
2.0
 40
3.0
 40
3.0
 40
3.0
 40
4.0
 40
4.0
 40
4.0
 40
4.0
 10
706.9999999999964
 20
-514.9999999999991
 30
0.0
 10
706.9999999999964
 20
-600.6041362189953
 30
0.0
 10
637.6041362190008
 20
-669.9999999999982
 30
0.0
 10
552.0
 20
-669.9999999999982
 30
0.0
 10
466.395863781001
 20
-669.9999999999982
 30
0.0
 10
397.0000000000009
 20
-600.6041362189953
 30
0.0
 10
397.0000000000009
 20
-514.9999999999991
 30
0.0
 10
397.0000000000009
 20
-429.3958637810001
 30
0.0
 10
466.395863781001
 20
-360.0
 30
0.0
 10
552.0
 20
-360.0
 30
0.0
 10
637.6041362190008
 20
-360.0
 30
0.0
 10
706.9999999999964
 20
-429.3958637810001
 30
0.0
 10
706.9999999999964
 20
-514.9999999999991
 30
0.0
  0
HATCH
  5
48
330
1F
100
AcDbEntity
  8
Layer 1
 62
   240
420
 16520518
100
AcDbHatch
 10
0.0
 20
0.0
 30
0.0
210
0.0
220
0.0
230
1.0
  2
SOLID
 70
     1
 71
     0
 91
        1
 92
        1
 93
        1
 72
     4
 94
        3
 73
     0
 74
     1
 95
       17
 96
       13
 40
0.0
 40
0.0
 40
0.0
 40
0.0
 40
1.0
 40
1.0
 40
1.0
 40
2.0
 40
2.0
 40
2.0
 40
3.0
 40
3.0
 40
3.0
 40
4.0
 40
4.0
 40
4.0
 40
4.0
 10
706.9999999999964
 20
-514.9999999999991
 10
706.9999999999964
 20
-600.6041362189953
 10
637.6041362190008
 20
-669.9999999999982
 10
552.0
 20
-669.9999999999982
 10
466.395863781001
 20
-669.9999999999982
 10
397.0000000000009
 20
-600.6041362189953
 10
397.0000000000009
 20
-514.9999999999991
 10
397.0000000000009
 20
-429.3958637810001
 10
466.395863781001
 20
-360.0
 10
552.0
 20
-360.0
 10
637.6041362190008
 20
-360.0
 10
706.9999999999964
 20
-429.3958637810001
 10
706.9999999999964
 20
-514.9999999999991
 97
        0
 97
        0
 75
     2
 76
     1
 98
        0
  0
INSERT
  5
4A
330
1F
100
AcDbEntity
  8
Layer 1
100
AcDbBlockReference
  2
block 2
 10
0.0
 20
0.0
 30
0.0
  0
INSERT
  5
6E
330
1F
100
AcDbEntity
  8
Layer 1
100
AcDbBlockReference
  2
block 3
 10
0.0
 20
0.0
 30
0.0
  0
INSERT
  5
92
330
1F
100
AcDbEntity
  8
Layer 1
100
AcDbBlockReference
  2
block 4
 10
0.0
 20
0.0
 30
0.0
  0
INSERT
  5
B6
330
1F
100
AcDbEntity
  8
Layer 1
100
AcDbBlockReference
  2
block 5
 10
0.0
 20
0.0
 30
0.0
  0
INSERT
  5
DA
330
1F
100
AcDbEntity
  8
Layer 1
100
AcDbBlockReference
  2
block 6
 10
0.0
 20
0.0
 30
0.0
  0
INSERT
  5
FE
330
1F
100
AcDbEntity
  8
Layer 1
100
AcDbBlockReference
  2
block 7
 10
0.0
 20
0.0
 30
0.0
  0
INSERT
  5
122
330
1F
100
AcDbEntity
  8
Layer 1
100
AcDbBlockReference
  2
block 8
 10
0.0
 20
0.0
 30
0.0
  0
ENDSEC
  0
SECTION
  2
OBJECTS
  0
DICTIONARY
  5
C
330
0
100
AcDbDictionary
281
     1
  3
ACAD_GROUP
350
D
  3
ACAD_LAYOUT
350
1A
  3
ACAD_MATERIAL
350
3B
  3
ACAD_MLEADERSTYLE
350
146
  3
ACAD_MLINESTYLE
350
17
  3
ACAD_PLOTSETTINGS
350
19
  3
ACAD_PLOTSTYLENAME
350
E
  3
ACAD_TABLESTYLE
350
145
  3
ACAD_VISUALSTYLE
350
2A
  0
SUN
  5
3F
330
29
100
AcDbSun
 90
        1
290
     0
 63
     7
421
 16777215
 40
1.0
291
     1
 91
  2455826
 92
 54000000
292
     0
 70
     2
 71
   256
280
     1
  0
DICTIONARY
  5
D
102
{ACAD_REACTORS
330
C
102
}
330
C
100
AcDbDictionary
281
     1
  0
DICTIONARY
  5
1A
102
{ACAD_REACTORS
330
C
102
}
330
C
100
AcDbDictionary
281
     1
  3
Layout1
350
1E
  3
Layout2
350
26
  3
Model
350
22
  0
DICTIONARY
  5
3B
102
{ACAD_REACTORS
330
C
102
}
330
C
100
AcDbDictionary
281
     1
  3
ByBlock
350
3D
  3
ByLayer
350
3C
  3
Global
350
3E
  0
DICTIONARY
  5
146
102
{ACAD_REACTORS
330
C
102
}
330
C
100
AcDbDictionary
281
     1
  0
DICTIONARY
  5
17
102
{ACAD_REACTORS
330
C
102
}
330
C
100
AcDbDictionary
281
     1
  3
Standard
350
18
  0
DICTIONARY
  5
19
102
{ACAD_REACTORS
330
C
102
}
330
C
100
AcDbDictionary
281
     1
  0
ACDBDICTIONARYWDFLT
  5
E
102
{ACAD_REACTORS
330
C
102
}
330
C
100
AcDbDictionary
281
     1
  3
Normal
350
F
100
AcDbDictionaryWithDefault
340
F
  0
DICTIONARY
  5
145
102
{ACAD_REACTORS
330
C
102
}
330
C
100
AcDbDictionary
281
     1
  0
DICTIONARY
  5
2A
102
{ACAD_REACTORS
330
C
102
}
330
C
100
AcDbDictionary
281
     1
  3
2dWireframe
350
2F
  3
3D Hidden
350
31
  3
3dWireframe
350
30
  3
Basic
350
32
  3
Brighten
350
36
  3
ColorChange
350
3A
  3
Conceptual
350
34
  3
Dim
350
35
  3
Facepattern
350
39
  3
Flat
350
2B
  3
FlatWithEdges
350
2C
  3
Gouraud
350
2D
  3
GouraudWithEdges
350
2E
  3
Linepattern
350
38
  3
Realistic
350
33
  3
Thicken
350
37
  0
LAYOUT
  5
1E
102
{ACAD_REACTORS
330
1A
102
}
330
1A
100
AcDbPlotSettings
  1

  2
none_device
  4

  6

 40
0.0
 41
0.0
 42
0.0
 43
0.0
 44
0.0
 45
0.0
 46
0.0
 47
0.0
 48
0.0
 49
0.0
140
0.0
141
0.0
142
1.0
143
1.0
 70
   688
 72
     0
 73
     0
 74
     5
  7

 75
    16
 76
     0
 77
     2
 78
   300
147
1.0
148
0.0
149
0.0
100
AcDbLayout
  1
Layout1
 70
     1
 71
     1
 10
0.0
 20
0.0
 11
12.0
 21
9.0
 12
0.0
 22
0.0
 32
0.0
 14
1.000000000000000E+20
 24
1.000000000000000E+20
 34
1.000000000000000E+20
 15
-1.000000000000000E+20
 25
-1.000000000000000E+20
 35
-1.000000000000000E+20
146
0.0
 13
0.0
 23
0.0
 33
0.0
 16
1.0
 26
0.0
 36
0.0
 17
0.0
 27
1.0
 37
0.0
 76
     0
330
1B
  0
LAYOUT
  5
26
102
{ACAD_REACTORS
330
1A
102
}
330
1A
100
AcDbPlotSettings
  1

  2
none_device
  4

  6

 40
0.0
 41
0.0
 42
0.0
 43
0.0
 44
0.0
 45
0.0
 46
0.0
 47
0.0
 48
0.0
 49
0.0
140
0.0
141
0.0
142
1.0
143
1.0
 70
   688
 72
     0
 73
     0
 74
     5
  7

 75
    16
 76
     0
 77
     2
 78
   300
147
1.0
148
0.0
149
0.0
100
AcDbLayout
  1
Layout2
 70
     1
 71
     2
 10
0.0
 20
0.0
 11
0.0
 21
0.0
 12
0.0
 22
0.0
 32
0.0
 14
0.0
 24
0.0
 34
0.0
 15
0.0
 25
0.0
 35
0.0
146
0.0
 13
0.0
 23
0.0
 33
0.0
 16
1.0
 26
0.0
 36
0.0
 17
0.0
 27
1.0
 37
0.0
 76
     0
330
23
  0
LAYOUT
  5
22
102
{ACAD_REACTORS
330
1A
102
}
330
1A
100
AcDbPlotSettings
  1

  2
none_device
  4

  6

 40
0.0
 41
0.0
 42
0.0
 43
0.0
 44
0.0
 45
0.0
 46
0.0
 47
0.0
 48
0.0
 49
0.0
140
0.0
141
0.0
142
1.0
143
1.0
 70
  1712
 72
     0
 73
     0
 74
     0
  7

 75
     0
 76
     0
 77
     2
 78
   300
147
1.0
148
0.0
149
0.0
100
AcDbLayout
  1
Model
 70
     1
 71
     0
 10
0.0
 20
0.0
 11
12.0
 21
9.0
 12
0.0
 22
0.0
 32
0.0
 14
1.000000000000000E+20
 24
1.000000000000000E+20
 34
1.000000000000000E+20
 15
-1.000000000000000E+20
 25
-1.000000000000000E+20
 35
-1.000000000000000E+20
146
0.0
 13
0.0
 23
0.0
 33
0.0
 16
1.0
 26
0.0
 36
0.0
 17
0.0
 27
1.0
 37
0.0
 76
     0
330
1F
331
29
  0
MATERIAL
  5
3D
102
{ACAD_REACTORS
330
3B
102
}
330
3B
100
AcDbMaterial
  1
ByBlock
 72
     1
 94
      127
  0
MATERIAL
  5
3C
102
{ACAD_REACTORS
330
3B
102
}
330
3B
100
AcDbMaterial
  1
ByLayer
 72
     1
 94
      127
  0
MATERIAL
  5
3E
102
{ACAD_REACTORS
330
3B
102
}
330
3B
100
AcDbMaterial
  1
Global
 72
     1
 94
      127
  0
MLINESTYLE
  5
18
102
{ACAD_REACTORS
330
17
102
}
330
17
100
AcDbMlineStyle
  2
Standard
 70
     0
  3

 62
   256
 51
90.0
 52
90.0
 71
     2
 49
0.5
 62
   256
  6
BYLAYER
 49
-0.5
 62
   256
  6
BYLAYER
  0
ACDBPLACEHOLDER
  5
F
102
{ACAD_REACTORS
330
E
102
}
330
E
  0
VISUALSTYLE
  5
2F
102
{ACAD_REACTORS
330
2A
102
}
330
2A
100
AcDbVisualStyle
  2
2dWireframe
 70
     4
177
     2
291
     0
 71
     0
176
     1
 72
     2
176
     1
 73
     0
176
     1
 90
        0
176
     1
 40
-0.6
176
     1
 41
-30.0
176
     1
 62
     5
 63
     7
421
 16777215
176
     1
 74
     1
176
     1
 91
        4
176
     1
 64
     7
176
     1
 65
   257
176
     1
 75
     1
176
     1
175
     1
176
     1
 42
1.0
176
     1
 92
        0
176
     1
 66
   257
176
     1
 43
1.0
176
     1
 76
     1
176
     1
 77
     6
176
     1
 78
     2
176
     1
 67
     7
176
     1
 79
     5
176
     1
170
     0
176
     1
171
     0
176
     1
290
     0
176
     1
 93
        1
176
     1
 44
0.0
176
     1
173
     0
176
     1
  0
VISUALSTYLE
  5
31
102
{ACAD_REACTORS
330
2A
102
}
330
2A
100
AcDbVisualStyle
  2
3D Hidden
 70
     6
177
     2
291
     0
 71
     1
176
     1
 72
     2
176
     1
 73
     2
176
     1
 90
        0
176
     1
 40
-0.6
176
     1
 41
-30.0
176
     1
 62
     5
 63
     7
421
 16777215
176
     1
 74
     2
176
     1
 91
        2
176
     1
 64
     7
176
     1
 65
   257
176
     1
 75
     2
176
     1
175
     1
176
     1
 42
40.0
176
     1
 92
        0
176
     1
 66
   257
176
     1
 43
1.0
176
     1
 76
     1
176
     1
 77
     6
176
     1
 78
     2
176
     1
 67
     7
176
     1
 79
     3
176
     1
170
     0
176
     1
171
     0
176
     1
290
     0
176
     1
 93
        1
176
     1
 44
0.0
176
     1
173
     0
176
     1
  0
VISUALSTYLE
  5
30
102
{ACAD_REACTORS
330
2A
102
}
330
2A
100
AcDbVisualStyle
  2
3dWireframe
 70
     5
177
     2
291
     0
 71
     0
176
     1
 72
     2
176
     1
 73
     0
176
     1
 90
        0
176
     1
 40
-0.6
176
     1
 41
-30.0
176
     1
 62
     5
 63
     7
421
 16777215
176
     1
 74
     1
176
     1
 91
        4
176
     1
 64
     7
176
     1
 65
   257
176
     1
 75
     1
176
     1
175
     1
176
     1
 42
1.0
176
     1
 92
        0
176
     1
 66
   257
176
     1
 43
1.0
176
     1
 76
     1
176
     1
 77
     6
176
     1
 78
     2
176
     1
 67
     7
176
     1
 79
     5
176
     1
170
     0
176
     1
171
     0
176
     1
290
     0
176
     1
 93
        1
176
     1
 44
0.0
176
     1
173
     0
176
     1
  0
VISUALSTYLE
  5
32
102
{ACAD_REACTORS
330
2A
102
}
330
2A
100
AcDbVisualStyle
  2
Basic
 70
     7
177
     2
291
     1
 71
     1
176
     1
 72
     0
176
     1
 73
     1
176
     1
 90
        0
176
     1
 40
-0.6
176
     1
 41
-30.0
176
     1
 62
     5
 63
     7
421
 16777215
176
     1
 74
     0
176
     1
 91
        4
176
     1
 64
     7
176
     1
 65
   257
176
     1
 75
     1
176
     1
175
     1
176
     1
 42
1.0
176
     1
 92
        8
176
     1
 66
     7
176
     1
 43
1.0
176
     1
 76
     1
176
     1
 77
     6
176
     1
 78
     2
176
     1
 67
     7
176
     1
 79
     5
176
     1
170
     0
176
     1
171
     0
176
     1
290
     0
176
     1
 93
        1
176
     1
 44
0.0
176
     1
173
     0
176
     1
  0
VISUALSTYLE
  5
36
102
{ACAD_REACTORS
330
2A
102
}
330
2A
100
AcDbVisualStyle
  2
Brighten
 70
    12
177
     2
291
     1
 71
     2
176
     1
 72
     2
176
     1
 73
     0
176
     1
 90
        0
176
     1
 40
-0.6
176
     1
 41
-30.0
176
     1
 62
     5
 63
     7
421
 16777215
176
     1
 74
     1
176
     1
 91
        4
176
     1
 64
     7
176
     1
 65
   257
176
     1
 75
     1
176
     1
175
     1
176
     1
 42
1.0
176
     1
 92
        8
176
     1
 66
     7
176
     1
 43
1.0
176
     1
 76
     1
176
     1
 77
     6
176
     1
 78
     2
176
     1
 67
     7
176
     1
 79
     5
176
     1
170
     0
176
     1
171
     0
176
     1
290
     0
176
     1
 93
        1
176
     1
 44
50.0
176
     1
173
     0
176
     1
  0
VISUALSTYLE
  5
3A
102
{ACAD_REACTORS
330
2A
102
}
330
2A
100
AcDbVisualStyle
  2
ColorChange
 70
    16
177
     2
291
     1
 71
     2
176
     1
 72
     2
176
     1
 73
     3
176
     1
 90
        0
176
     1
 40
-0.6
176
     1
 41
-30.0
176
     1
 62
     5
 63
     8
421
  8421504
176
     1
 74
     1
176
     1
 91
        4
176
     1
 64
     7
176
     1
 65
   257
176
     1
 75
     1
176
     1
175
     1
176
     1
 42
1.0
176
     1
 92
        8
176
     1
 66
     8
424
  8421504
176
     1
 43
1.0
176
     1
 76
     1
176
     1
 77
     6
176
     1
 78
     2
176
     1
 67
     7
176
     1
 79
     5
176
     1
170
     0
176
     1
171
     0
176
     1
290
     0
176
     1
 93
        1
176
     1
 44
0.0
176
     1
173
     0
176
     1
  0
VISUALSTYLE
  5
34
102
{ACAD_REACTORS
330
2A
102
}
330
2A
100
AcDbVisualStyle
  2
Conceptual
 70
     9
177
     2
291
     0
 71
     3
176
     1
 72
     2
176
     1
 73
     0
176
     1
 90
        0
176
     1
 40
-0.6
176
     1
 41
-30.0
176
     1
 62
     5
 63
     7
421
 16777215
176
     1
 74
     2
176
     1
 91
        2
176
     1
 64
     7
176
     1
 65
   257
176
     1
 75
     1
176
     1
175
     1
176
     1
 42
40.0
176
     1
 92
        8
176
     1
 66
     7
176
     1
 43
1.0
176
     1
 76
     1
176
     1
 77
     6
176
     1
 78
     2
176
     1
 67
     7
176
     1
 79
     3
176
     1
170
     0
176
     1
171
     0
176
     1
290
     0
176
     1
 93
        1
176
     1
 44
0.0
176
     1
173
     0
176
     1
  0
VISUALSTYLE
  5
35
102
{ACAD_REACTORS
330
2A
102
}
330
2A
100
AcDbVisualStyle
  2
Dim
 70
    11
177
     2
291
     1
 71
     2
176
     1
 72
     2
176
     1
 73
     0
176
     1
 90
        0
176
     1
 40
-0.6
176
     1
 41
-30.0
176
     1
 62
     5
 63
     7
421
 16777215
176
     1
 74
     1
176
     1
 91
        4
176
     1
 64
     7
176
     1
 65
   257
176
     1
 75
     1
176
     1
175
     1
176
     1
 42
1.0
176
     1
 92
        8
176
     1
 66
     7
176
     1
 43
1.0
176
     1
 76
     1
176
     1
 77
     6
176
     1
 78
     2
176
     1
 67
     7
176
     1
 79
     5
176
     1
170
     0
176
     1
171
     0
176
     1
290
     0
176
     1
 93
        1
176
     1
 44
-50.0
176
     1
173
     0
176
     1
  0
VISUALSTYLE
  5
39
102
{ACAD_REACTORS
330
2A
102
}
330
2A
100
AcDbVisualStyle
  2
Facepattern
 70
    15
177
     2
291
     1
 71
     2
176
     1
 72
     2
176
     1
 73
     0
176
     1
 90
        0
176
     1
 40
-0.6
176
     1
 41
-30.0
176
     1
 62
     5
 63
     7
421
 16777215
176
     1
 74
     1
176
     1
 91
        4
176
     1
 64
     7
176
     1
 65
   257
176
     1
 75
     1
176
     1
175
     1
176
     1
 42
1.0
176
     1
 92
        8
176
     1
 66
     7
176
     1
 43
1.0
176
     1
 76
     1
176
     1
 77
     6
176
     1
 78
     2
176
     1
 67
     7
176
     1
 79
     5
176
     1
170
     0
176
     1
171
     0
176
     1
290
     0
176
     1
 93
        1
176
     1
 44
0.0
176
     1
173
     0
176
     1
  0
VISUALSTYLE
  5
2B
102
{ACAD_REACTORS
330
2A
102
}
330
2A
100
AcDbVisualStyle
  2
Flat
 70
     0
177
     2
291
     1
 71
     2
176
     1
 72
     1
176
     1
 73
     1
176
     1
 90
        2
176
     1
 40
-0.6
176
     1
 41
30.0
176
     1
 62
     5
 63
     7
421
 16777215
176
     1
 74
     0
176
     1
 91
        4
176
     1
 64
     7
176
     1
 65
   257
176
     1
 75
     1
176
     1
175
     1
176
     1
 42
1.0
176
     1
 92
        8
176
     1
 66
     7
176
     1
 43
1.0
176
     1
 76
     1
176
     1
 77
     6
176
     1
 78
     2
176
     1
 67
     7
176
     1
 79
     5
176
     1
170
     0
176
     1
171
     0
176
     1
290
     0
176
     1
 93
       13
176
     1
 44
0.0
176
     1
173
     0
176
     1
  0
VISUALSTYLE
  5
2C
102
{ACAD_REACTORS
330
2A
102
}
330
2A
100
AcDbVisualStyle
  2
FlatWithEdges
 70
     1
177
     2
291
     1
 71
     2
176
     1
 72
     1
176
     1
 73
     1
176
     1
 90
        2
176
     1
 40
-0.6
176
     1
 41
30.0
176
     1
 62
     5
 63
     7
421
 16777215
176
     1
 74
     1
176
     1
 91
        4
176
     1
 64
     7
176
     1
 65
   257
176
     1
 75
     1
176
     1
175
     1
176
     1
 42
1.0
176
     1
 92
        0
176
     1
 66
   257
176
     1
 43
1.0
176
     1
 76
     1
176
     1
 77
     6
176
     1
 78
     2
176
     1
 67
     7
176
     1
 79
     5
176
     1
170
     0
176
     1
171
     0
176
     1
290
     0
176
     1
 93
       13
176
     1
 44
0.0
176
     1
173
     0
176
     1
  0
VISUALSTYLE
  5
2D
102
{ACAD_REACTORS
330
2A
102
}
330
2A
100
AcDbVisualStyle
  2
Gouraud
 70
     2
177
     2
291
     1
 71
     2
176
     1
 72
     2
176
     1
 73
     1
176
     1
 90
        2
176
     1
 40
-0.6
176
     1
 41
30.0
176
     1
 62
     5
 63
     7
421
 16777215
176
     1
 74
     0
176
     1
 91
        4
176
     1
 64
     7
176
     1
 65
   257
176
     1
 75
     1
176
     1
175
     1
176
     1
 42
1.0
176
     1
 92
        0
176
     1
 66
     7
176
     1
 43
1.0
176
     1
 76
     1
176
     1
 77
     6
176
     1
 78
     2
176
     1
 67
     7
176
     1
 79
     5
176
     1
170
     0
176
     1
171
     0
176
     1
290
     0
176
     1
 93
       13
176
     1
 44
0.0
176
     1
173
     0
176
     1
  0
VISUALSTYLE
  5
2E
102
{ACAD_REACTORS
330
2A
102
}
330
2A
100
AcDbVisualStyle
  2
GouraudWithEdges
 70
     3
177
     2
291
     1
 71
     2
176
     1
 72
     2
176
     1
 73
     1
176
     1
 90
        2
176
     1
 40
-0.6
176
     1
 41
30.0
176
     1
 62
     5
 63
     7
421
 16777215
176
     1
 74
     1
176
     1
 91
        4
176
     1
 64
     7
176
     1
 65
   257
176
     1
 75
     1
176
     1
175
     1
176
     1
 42
1.0
176
     1
 92
        0
176
     1
 66
   257
176
     1
 43
1.0
176
     1
 76
     1
176
     1
 77
     6
176
     1
 78
     2
176
     1
 67
     7
176
     1
 79
     5
176
     1
170
     0
176
     1
171
     0
176
     1
290
     0
176
     1
 93
       13
176
     1
 44
0.0
176
     1
173
     0
176
     1
  0
VISUALSTYLE
  5
38
102
{ACAD_REACTORS
330
2A
102
}
330
2A
100
AcDbVisualStyle
  2
Linepattern
 70
    14
177
     2
291
     1
 71
     2
176
     1
 72
     2
176
     1
 73
     0
176
     1
 90
        0
176
     1
 40
-0.6
176
     1
 41
-30.0
176
     1
 62
     5
 63
     7
421
 16777215
176
     1
 74
     1
176
     1
 91
        4
176
     1
 64
     7
176
     1
 65
   257
176
     1
 75
     7
176
     1
175
     7
176
     1
 42
1.0
176
     1
 92
        8
176
     1
 66
     7
176
     1
 43
1.0
176
     1
 76
     1
176
     1
 77
     6
176
     1
 78
     2
176
     1
 67
     7
176
     1
 79
     5
176
     1
170
     0
176
     1
171
     0
176
     1
290
     0
176
     1
 93
        1
176
     1
 44
0.0
176
     1
173
     0
176
     1
  0
VISUALSTYLE
  5
33
102
{ACAD_REACTORS
330
2A
102
}
330
2A
100
AcDbVisualStyle
  2
Realistic
 70
     8
177
     2
291
     0
 71
     2
176
     1
 72
     2
176
     1
 73
     0
176
     1
 90
        0
176
     1
 40
-0.6
176
     1
 41
-30.0
176
     1
 62
     5
 63
     7
421
 16777215
176
     1
 74
     1
176
     1
 91
        0
176
     1
 64
     7
176
     1
 65
   257
176
     1
 75
     1
176
     1
175
     1
176
     1
 42
1.0
176
     1
 92
        8
176
     1
 66
     8
424
  7895160
176
     1
 43
1.0
176
     1
 76
     1
176
     1
 77
     6
176
     1
 78
     2
176
     1
 67
     7
176
     1
 79
     5
176
     1
170
     0
176
     1
171
     0
176
     1
290
     0
176
     1
 93
       13
176
     1
 44
0.0
176
     1
173
     0
176
     1
  0
VISUALSTYLE
  5
37
102
{ACAD_REACTORS
330
2A
102
}
330
2A
100
AcDbVisualStyle
  2
Thicken
 70
    13
177
     2
291
     1
 71
     2
176
     1
 72
     2
176
     1
 73
     0
176
     1
 90
        0
176
     1
 40
-0.6
176
     1
 41
-30.0
176
     1
 62
     5
 63
     7
421
 16777215
176
     1
 74
     1
176
     1
 91
        4
176
     1
 64
     7
176
     1
 65
   257
176
     1
 75
     1
176
     1
175
     1
176
     1
 42
1.0
176
     1
 92
       12
176
     1
 66
     7
176
     1
 43
1.0
176
     1
 76
     1
176
     1
 77
     6
176
     1
 78
     2
176
     1
 67
     7
176
     1
 79
     5
176
     1
170
     0
176
     1
171
     0
176
     1
290
     0
176
     1
 93
        1
176
     1
 44
0.0
176
     1
173
     0
176
     1
  0
ENDSEC
  0
EOF
