0
SECTION
2
HEADER
9
$INSUNITS
70
4
9
$ACADVER
1
AC1014
9
$HANDSEED
5
FFFF
0
ENDSEC
0
SECTION
2
TABLES
0
TABLE
2
VPORT
5
8
100
AcDbSymbolTable
0
ENDTAB
0
TABLE
2
LTYPE
5
5
100
AcDbSymbolTable
0
LTYPE
5
14
100
AcDbSymbolTableRecord
100
AcDbLinetypeTableRecord
2
BYBLOCK
70
0
0
LTYPE
5
15
100
AcDbSymbolTableRecord
100
AcDbLinetypeTableRecord
2
BYLAYER
70
0
0
ENDTAB
0
TABLE
2
LAYER
5
2
100
AcDbSymbolTable
70
2
0
LAYER
5
50
100
AcDbSymbolTableRecord
100
AcDbLayerTableRecord
2
0
70
0
6
CONTINUOUS
0
ENDTAB
0
TABLE
2
STYLE
5
3
100
AcDbSymbolTable
70
1
0
STYLE
5
11
100
AcDbSymbolTableRecord
100
AcDbTextStyleTableRecord
2
STANDARD
70
0
0
ENDTAB
0
TABLE
2
VIEW
5
6
100
AcDbSymbolTable
70
0
0
ENDTAB
0
TABLE
2
UCS
5
7
100
AcDbSymbolTable
70
0
0
ENDTAB
0
TABLE
2
APPID
5
9
100
AcDbSymbolTable
70
2
0
APPID
5
12
100
AcDbSymbolTableRecord
100
AcDbRegAppTableRecord
2
ACAD
70
0
0
ENDTAB
0
TABLE
2
DIMSTYLE
5
A
100
AcDbSymbolTable
70
1
0
ENDTAB
0
TABLE
2
BLOCK_RECORD
5
1
100
AcDbSymbolTable
70
1
0
BLOCK_RECORD
5
1F
100
AcDbSymbolTableRecord
100
AcDbBlockTableRecord
2
*MODEL_SPACE
0
BLOCK_RECORD
5
1B
100
AcDbSymbolTableRecord
100
AcDbBlockTableRecord
2
*PAPER_SPACE
0
ENDTAB
0
ENDSEC
0
SECTION
2
BLOCKS
0
BLOCK
5
20
100
AcDbEntity
100
AcDbBlockBegin
2
*MODEL_SPACE
0
ENDBLK
5
21
100
AcDbEntity
100
AcDbBlockEnd
0
BLOCK
5
1C
100
AcDbEntity
100
AcDbBlockBegin
2
*PAPER_SPACE
0
ENDBLK
5
1D
100
AcDbEntity
100
AcDbBlockEnd
0
ENDSEC
0
SECTION
2
ENTITIES
0
LINE
5
100
100
AcDbEntity
8
0
100
AcDbLine
10
213.06190707369268
20
400
30
0
11
213
21
400
31
0
0
LINE
5
101
100
AcDbEntity
8
0
100
AcDbLine
10
213
20
400
30
0
11
213
21
445.77777777777783
31
0
0
LINE
5
102
100
AcDbEntity
8
0
100
AcDbLine
10
213
20
445.77777777777783
30
0
11
225
21
445.77777777777783
31
0
0
LINE
5
103
100
AcDbEntity
8
0
100
AcDbLine
10
225
20
445.77777777777783
30
0
11
225
21
491.5555555555556
31
0
0
LINE
5
104
100
AcDbEntity
8
0
100
AcDbLine
10
225
20
491.5555555555556
30
0
11
213
21
491.5555555555556
31
0
0
LINE
5
105
100
AcDbEntity
8
0
100
AcDbLine
10
213
20
491.5555555555556
30
0
11
213
21
537.33333333333337
31
0
0
LINE
5
106
100
AcDbEntity
8
0
100
AcDbLine
10
213
20
537.33333333333337
30
0
11
225
21
537.33333333333337
31
0
0
LINE
5
107
100
AcDbEntity
8
0
100
AcDbLine
10
225
20
537.33333333333337
30
0
11
225
21
583.1111111111112
31
0
0
LINE
5
108
100
AcDbEntity
8
0
100
AcDbLine
10
225
20
583.1111111111112
30
0
11
213
21
583.1111111111112
31
0
0
LINE
5
109
100
AcDbEntity
8
0
100
AcDbLine
10
213
20
583.1111111111112
30
0
11
213
21
628.88888888888891
31
0
0
LINE
5
110
100
AcDbEntity
8
0
100
AcDbLine
10
213
20
628.88888888888891
30
0
11
225
21
628.88888888888891
31
0
0
LINE
5
111
100
AcDbEntity
8
0
100
AcDbLine
10
225
20
628.88888888888891
30
0
11
225
21
674.66666666666674
31
0
0
LINE
5
112
100
AcDbEntity
8
0
100
AcDbLine
10
225
20
674.66666666666674
30
0
11
213
21
674.66666666666674
31
0
0
LINE
5
113
100
AcDbEntity
8
0
100
AcDbLine
10
213
20
674.66666666666674
30
0
11
213
21
720.44444444444457
31
0
0
LINE
5
114
100
AcDbEntity
8
0
100
AcDbLine
10
213
20
720.44444444444457
30
0
11
225
21
720.44444444444457
31
0
0
LINE
5
115
100
AcDbEntity
8
0
100
AcDbLine
10
225
20
720.44444444444457
30
0
11
225
21
766.2222222222224
31
0
0
LINE
5
116
100
AcDbEntity
8
0
100
AcDbLine
10
225
20
766.2222222222224
30
0
11
213
21
766.2222222222224
31
0
0
LINE
5
117
100
AcDbEntity
8
0
100
AcDbLine
10
213
20
766.2222222222224
30
0
11
213
21
812
31
0
0
LINE
5
118
100
AcDbEntity
8
0
100
AcDbLine
10
213
20
812
30
0
11
175
21
812
31
0
0
LINE
5
119
100
AcDbEntity
8
0
100
AcDbLine
10
175
20
812
30
0
11
175
21
800
31
0
0
LINE
5
120
100
AcDbEntity
8
0
100
AcDbLine
10
175
20
800
30
0
11
125
21
800
31
0
0
LINE
5
121
100
AcDbEntity
8
0
100
AcDbLine
10
125
20
800
30
0
11
125
21
812
31
0
0
LINE
5
122
100
AcDbEntity
8
0
100
AcDbLine
10
125
20
812
30
0
11
75
21
812
31
0
0
LINE
5
123
100
AcDbEntity
8
0
100
AcDbLine
10
75
20
812
30
0
11
75
21
800
31
0
0
LINE
5
124
100
AcDbEntity
8
0
100
AcDbLine
10
75
20
800
30
0
11
25
21
800
31
0
0
LINE
5
125
100
AcDbEntity
8
0
100
AcDbLine
10
25
20
800
30
0
11
25
21
812
31
0
0
LINE
5
126
100
AcDbEntity
8
0
100
AcDbLine
10
25
20
812
30
0
11
-25
21
812
31
0
0
LINE
5
127
100
AcDbEntity
8
0
100
AcDbLine
10
-25
20
812
30
0
11
-25
21
800
31
0
0
LINE
5
128
100
AcDbEntity
8
0
100
AcDbLine
10
-25
20
800
30
0
11
-75
21
800
31
0
0
LINE
5
129
100
AcDbEntity
8
0
100
AcDbLine
10
-75
20
800
30
0
11
-75
21
812
31
0
0
LINE
5
130
100
AcDbEntity
8
0
100
AcDbLine
10
-75
20
812
30
0
11
-125
21
812
31
0
0
LINE
5
131
100
AcDbEntity
8
0
100
AcDbLine
10
-125
20
812
30
0
11
-125
21
800
31
0
0
LINE
5
132
100
AcDbEntity
8
0
100
AcDbLine
10
-125
20
800
30
0
11
-175
21
800
31
0
0
LINE
5
133
100
AcDbEntity
8
0
100
AcDbLine
10
-175
20
800
30
0
11
-175
21
812
31
0
0
LINE
5
134
100
AcDbEntity
8
0
100
AcDbLine
10
-175
20
812
30
0
11
-225
21
812
31
0
0
LINE
5
135
100
AcDbEntity
8
0
100
AcDbLine
10
-225
20
812
30
0
11
-225
21
755.55555555555554
31
0
0
LINE
5
136
100
AcDbEntity
8
0
100
AcDbLine
10
-225
20
755.55555555555554
30
0
11
-212.99999999999997
21
755.55555555555554
31
0
0
LINE
5
137
100
AcDbEntity
8
0
100
AcDbLine
10
-212.99999999999997
20
755.55555555555554
30
0
11
-212.99999999999997
21
711.11111111111109
31
0
0
LINE
5
138
100
AcDbEntity
8
0
100
AcDbLine
10
-212.99999999999997
20
711.11111111111109
30
0
11
-225
21
711.11111111111109
31
0
0
LINE
5
139
100
AcDbEntity
8
0
100
AcDbLine
10
-225
20
711.11111111111109
30
0
11
-225
21
666.66666666666652
31
0
0
LINE
5
140
100
AcDbEntity
8
0
100
AcDbLine
10
-225
20
666.66666666666652
30
0
11
-212.99999999999997
21
666.66666666666652
31
0
0
LINE
5
141
100
AcDbEntity
8
0
100
AcDbLine
10
-212.99999999999997
20
666.66666666666652
30
0
11
-212.99999999999997
21
622.22222222222217
31
0
0
LINE
5
142
100
AcDbEntity
8
0
100
AcDbLine
10
-212.99999999999997
20
622.22222222222217
30
0
11
-225
21
622.22222222222217
31
0
0
LINE
5
143
100
AcDbEntity
8
0
100
AcDbLine
10
-225
20
622.22222222222217
30
0
11
-225
21
577.77777777777783
31
0
0
LINE
5
144
100
AcDbEntity
8
0
100
AcDbLine
10
-225
20
577.77777777777783
30
0
11
-212.99999999999997
21
577.77777777777783
31
0
0
LINE
5
145
100
AcDbEntity
8
0
100
AcDbLine
10
-212.99999999999997
20
577.77777777777783
30
0
11
-212.99999999999997
21
533.33333333333337
31
0
0
LINE
5
146
100
AcDbEntity
8
0
100
AcDbLine
10
-212.99999999999997
20
533.33333333333337
30
0
11
-225
21
533.33333333333337
31
0
0
LINE
5
147
100
AcDbEntity
8
0
100
AcDbLine
10
-225
20
533.33333333333337
30
0
11
-225
21
488.88888888888886
31
0
0
LINE
5
148
100
AcDbEntity
8
0
100
AcDbLine
10
-225
20
488.88888888888886
30
0
11
-212.99999999999997
21
488.88888888888886
31
0
0
LINE
5
149
100
AcDbEntity
8
0
100
AcDbLine
10
-212.99999999999997
20
488.88888888888886
30
0
11
-212.99999999999997
21
444.44444444444446
31
0
0
LINE
5
150
100
AcDbEntity
8
0
100
AcDbLine
10
-212.99999999999997
20
444.44444444444446
30
0
11
-225
21
444.44444444444446
31
0
0
LINE
5
151
100
AcDbEntity
8
0
100
AcDbLine
10
-225
20
444.44444444444446
30
0
11
-225
21
400
31
0
0
LINE
5
152
100
AcDbEntity
8
0
100
AcDbLine
10
-225
20
400
30
0
11
-224.5912219373196
21
400
31
0
0
SPLINE
5
153
100
AcDbEntity
8
0
100
AcDbSpline
70
4
71
5
72
21
73
15
74
0
42
0.000000001
43
0.0000000001
44
0.0000000001
40
0
40
0
40
0
40
0
40
0
40
0
40
0.10000000000000001
40
0.20000000000000001
40
0.30000000000000004
40
0.40000000000000002
40
0.5
40
0.59999999999999998
40
0.69999999999999996
40
0.79999999999999993
40
0.89999999999999991
40
1
40
1
40
1
40
1
40
1
40
1
41
1
41
1
41
1
41
1
41
1
41
1
41
1
41
1
41
1
41
1
41
1
41
1
41
1
41
1
41
1
10
-100
20
400
30
0
10
-102.81739603496982
20
392.26662831262189
30
0
10
-108.42389711409459
20
377.47188688738964
30
0
10
-116.74877903329514
20
357.29570285483544
30
0
10
-127.67606135669007
20
334.49298428905149
30
0
10
-141.02792259503386
20
313.28756301789599
30
0
10
-154.04461197367223
20
300.04355054399673
30
0
10
-166.69803009526078
20
295.42839785633794
30
0
10
-178.97149576651157
20
299.83833690318238
30
0
10
-190.87832148296314
20
312.95715313342339
30
0
10
-202.44546558340284
20
334.14449936554826
30
0
10
-211.4493693203197
20
357.02820331718522
30
0
10
-218.07065616232796
20
377.3178771462027
30
0
10
-222.42729267667147
20
392.21143577622826
30
0
10
-224.5912219373196
20
400
30
0
0
LINE
5
154
100
AcDbEntity
8
0
100
AcDbLine
10
-100
20
400
30
0
11
88
21
400
31
0
0
SPLINE
5
155
100
AcDbEntity
8
0
100
AcDbSpline
70
4
71
5
72
21
73
15
74
0
42
0.000000001
43
0.0000000001
44
0.0000000001
40
0
40
0
40
0
40
0
40
0
40
0
40
0.10000000000000001
40
0.20000000000000001
40
0.30000000000000004
40
0.40000000000000002
40
0.5
40
0.59999999999999998
40
0.69999999999999996
40
0.79999999999999993
40
0.89999999999999991
40
1
40
1
40
1
40
1
40
1
40
1
41
1
41
1
41
1
41
1
41
1
41
1
41
1
41
1
41
1
41
1
41
1
41
1
41
1
41
1
41
1
10
213.06190707369268
20
400
30
0
10
210.73716607604825
20
392.35547579610375
30
0
10
206.07222787094582
20
377.73587374577789
30
0
10
199.02845313742873
20
357.81475761279552
30
0
10
189.54248257608472
20
335.33637405999463
30
0
10
177.5172751982029
20
314.50380632662677
30
0
10
165.30947830915477
20
301.57963816974865
30
0
10
152.90441883864469
20
297.19939625298144
30
0
10
140.29450395482965
20
301.6919447463855
30
0
10
127.48833767749217
20
314.68462244922426
30
0
10
114.50093530019286
20
335.52708016813818
30
0
10
103.97802398487462
20
357.96114403035358
30
0
10
96.015803783321388
20
377.8201538385988
30
0
10
90.677037946426395
20
392.38567925447524
30
0
10
88
20
400
30
0
0
LWPOLYLINE
5
156
100
AcDbEntity
8
0
100
AcDbPolyline
90
52
70
1
43
0.0
10
684.71675872802734
20
1466.2222222222224
10
672.71675872802746
20
1466.2222222222224
10
672.71675872802746
20
1420.4444444444446
10
684.71675872802734
20
1420.4444444444446
10
684.71675872802734
20
1374.6666666666667
10
672.71675872802746
20
1374.6666666666667
10
672.71675872802746
20
1328.8888888888889
10
684.71675872802734
20
1328.8888888888889
10
684.71675872802734
20
1283.1111111111111
10
672.71675872802746
20
1283.1111111111111
10
672.71675872802746
20
1237.3333333333333
10
684.71675872802734
20
1237.3333333333333
10
684.71675872802734
20
1191.5555555555557
10
672.71675872802746
20
1191.5555555555557
10
672.71675872802746
20
1145.7777777777778
10
684.71675872802734
20
1145.7777777777778
10
684.71675872802734
20
1100
10
1196.7167587280276
20
1100
10
1196.7167587280276
20
1145.7777777777778
10
1184.7167587280276
20
1145.7777777777778
10
1184.7167587280276
20
1191.5555555555557
10
1196.7167587280276
20
1191.5555555555557
10
1196.7167587280276
20
1237.3333333333333
10
1184.7167587280276
20
1237.3333333333333
10
1184.7167587280276
20
1283.1111111111111
10
1196.7167587280276
20
1283.1111111111111
10
1196.7167587280276
20
1328.8888888888889
10
1184.7167587280276
20
1328.8888888888889
10
1184.7167587280276
20
1374.6666666666667
10
1196.7167587280276
20
1374.6666666666667
10
1196.7167587280276
20
1420.4444444444446
10
1184.7167587280276
20
1420.4444444444446
10
1184.7167587280276
20
1466.2222222222224
10
1196.7167587280276
20
1466.2222222222224
10
1196.7167587280276
20
1512
10
1129.1612031724719
20
1512
10
1129.1612031724719
20
1500
10
1073.6056476169163
20
1500
10
1073.6056476169163
20
1512
10
1018.0500920613608
20
1512
10
1018.0500920613608
20
1500
10
962.49453650580517
20
1500
10
962.49453650580517
20
1512
10
906.93898095024963
20
1512
10
906.93898095024963
20
1500
10
851.38342539469409
20
1500
10
851.38342539469409
20
1512
10
795.82786983913866
20
1512
10
795.82786983913866
20
1500
10
740.272314283583
20
1500
10
740.272314283583
20
1512
10
684.71675872802734
20
1512
0
LWPOLYLINE
5
157
100
AcDbEntity
8
0
100
AcDbPolyline
90
68
70
1
43
0.0
10
175
20
1862
10
213
20
1862
10
213
20
1917.5555555555552
10
225
20
1917.5555555555552
10
225
20
1973.1111111111111
10
213
20
1973.1111111111111
10
213
20
2028.6666666666665
10
225
20
2028.6666666666665
10
225
20
2084.2222222222222
10
213
20
2084.2222222222222
10
213
20
2139.7777777777774
10
225
20
2139.7777777777774
10
225
20
2195.333333333333
10
213
20
2195.333333333333
10
213
20
2250.8888888888887
10
225
20
2250.8888888888887
10
225
20
2306.4444444444443
10
213
20
2306.4444444444443
10
213
20
2362
10
175
20
2362
10
175
20
2374
10
125
20
2374
10
125
20
2362
10
75
20
2362
10
75
20
2374
10
25
20
2374
10
25
20
2362
10
-25
20
2362
10
-25
20
2374
10
-75
20
2374
10
-75
20
2362
10
-125
20
2362
10
-125
20
2374
10
-175
20
2374
10
-175
20
2362
10
-224.99999999999994
20
2362
10
-225
20
2306.4444444444443
10
-212.99999999999997
20
2306.4444444444443
10
-212.99999999999997
20
2250.8888888888887
10
-225
20
2250.8888888888887
10
-225
20
2195.3333333333335
10
-212.99999999999997
20
2195.3333333333335
10
-212.99999999999997
20
2139.7777777777774
10
-225
20
2139.7777777777774
10
-225
20
2084.2222222222222
10
-212.99999999999997
20
2084.2222222222222
10
-212.99999999999997
20
2028.6666666666665
10
-225
20
2028.6666666666665
10
-225
20
1973.1111111111111
10
-212.99999999999997
20
1973.1111111111111
10
-212.99999999999997
20
1917.5555555555552
10
-225
20
1917.5555555555552
10
-225
20
1862
10
-175
20
1862
10
-175
20
1849.9999999999998
10
-125
20
1849.9999999999998
10
-125
20
1862
10
-75
20
1862
10
-75
20
1849.9999999999998
10
-25
20
1849.9999999999998
10
-25
20
1862
10
25
20
1862
10
25
20
1849.9999999999998
10
75
20
1849.9999999999998
10
75
20
1862
10
125
20
1862
10
125
20
1849.9999999999998
10
175
20
1849.9999999999998
0
CIRCLE
5
158
100
AcDbEntity
8
0
100
AcDbCircle
10
-237.00000000000003
20
1312
30
0
40
100.00000000000003
210
-0
220
0
230
1
0
LWPOLYLINE
5
159
100
AcDbEntity
8
0
100
AcDbPolyline
90
52
70
1
43
0.0
10
113.00000000000011
20
155.55555555555554
10
125.00000000000014
20
155.55555555555557
10
125.00000000000014
20
111.11111111111111
10
113.00000000000011
20
111.11111111111086
10
113.00000000000011
20
66.666666666666643
10
125.00000000000014
20
66.666666666666643
10
125.00000000000014
20
22.222222222222197
10
113.00000000000011
20
22.222222222222285
10
113.00000000000011
20
-22.222222222222214
10
125.00000000000014
20
-22.222222222222232
10
125.00000000000014
20
-66.666666666666856
10
113.00000000000011
20
-66.666666666666643
10
113.00000000000011
20
-111.11111111111114
10
125.00000000000014
20
-111.11111111111116
10
125.00000000000014
20
-155.55555555555543
10
113.00000000000011
20
-155.55555555555557
10
113.00000000000011
20
-200
10
625.00000000000023
20
-200
10
625.00000000000023
20
-155.55555555555557
10
637.00000000000023
20
-155.55555555555543
10
637.00000000000023
20
-111.11111111111111
10
625.00000000000023
20
-111.11111111111111
10
625.00000000000023
20
-66.666666666666856
10
637.00000000000023
20
-66.666666666666856
10
637.00000000000023
20
-22.222222222222214
10
625.00000000000023
20
-22.222222222222214
10
625.00000000000023
20
22.222222222222285
10
637.00000000000023
20
22.222222222222285
10
637.00000000000023
20
66.666666666666686
10
625.00000000000023
20
66.666666666666686
10
625.00000000000023
20
111.11111111111111
10
637.00000000000023
20
111.11111111111086
10
637.00000000000023
20
155.55555555555554
10
625.00000000000023
20
155.55555555555557
10
625.00000000000023
20
200
10
569.44444444444457
20
200
10
569.44444444444457
20
211.99999999999994
10
513.88888888888903
20
211.99999999999991
10
513.88888888888903
20
200
10
458.33333333333343
20
200
10
458.33333333333343
20
211.99999999999991
10
402.77777777777783
20
211.99999999999991
10
402.77777777777783
20
200
10
347.22222222222229
20
200
10
347.22222222222229
20
211.99999999999991
10
291.66666666666686
20
211.99999999999991
10
291.66666666666686
20
200
10
236.11111111111114
20
200
10
236.11111111111114
20
211.99999999999991
10
180.55555555555571
20
211.99999999999991
10
180.55555555555571
20
200
10
113.00000000000011
20
200
0
LWPOLYLINE
5
160
100
AcDbEntity
8
0
100
AcDbPolyline
90
54
70
1
43
0.0
10
-174.99999999999994
20
120.44444444444444
10
-187
20
120.44444444444446
10
-187
20
166.22222222222229
10
-174.99999999999994
20
166.22222222222229
10
-174.99999999999994
20
212.00000000000003
10
-225
20
211.99999999999994
10
-225
20
200
10
-275
20
200
10
-275
20
211.99999999999994
10
-325
20
211.99999999999994
10
-325
20
200
10
-375
20
200
10
-375
20
211.99999999999994
10
-425
20
211.99999999999991
10
-425
20
200
10
-475
20
200
10
-475
20
211.99999999999991
10
-525
20
211.99999999999991
10
-525
20
200
10
-575
20
200
10
-575
20
211.99999999999991
10
-624.99999999999989
20
211.99999999999991
10
-625
20
200
10
-613
20
200
10
-613
20
155.55555555555557
10
-624.99999999999989
20
155.55555555555554
10
-624.99999999999989
20
111.11111111111111
10
-613
20
111.11111111111111
10
-613
20
66.666666666666686
10
-624.99999999999989
20
66.666666666666686
10
-624.99999999999989
20
22.222222222222214
10
-613
20
22.222222222222214
10
-613
20
-22.222222222222214
10
-624.99999999999989
20
-22.222222222222214
10
-624.99999999999989
20
-66.666666666666686
10
-613
20
-66.666666666666686
10
-613
20
-111.11111111111111
10
-624.99999999999989
20
-111.11111111111111
10
-624.99999999999989
20
-155.55555555555557
10
-613
20
-155.55555555555557
10
-613
20
-200
10
-175
20
-200
10
-174.99999999999994
20
-154.22222222222223
10
-187
20
-154.22222222222223
10
-187
20
-108.44444444444441
10
-174.99999999999994
20
-108.44444444444441
10
-174.99999999999994
20
-62.666666666666657
10
-187
20
-62.666666666666657
10
-187
20
-16.8888888888889
10
-174.99999999999994
20
-16.8888888888889
10
-174.99999999999994
20
28.888888888888928
10
-187
20
28.888888888888928
10
-187
20
74.6666666666667
10
-174.99999999999994
20
74.666666666666686
0
CIRCLE
5
161
100
AcDbEntity
8
0
100
AcDbCircle
10
-514.77777777777783
20
1112
30
0
40
100
210
-0
220
0
230
1
0
CIRCLE
5
162
100
AcDbEntity
8
0
100
AcDbCircle
10
-514.77777777777783
20
1112
30
0
40
100
210
-0
220
0
230
1
0
CIRCLE
5
163
100
AcDbEntity
8
0
100
AcDbCircle
10
-237.00000000000003
20
1312
30
0
40
100.00000000000003
210
-0
220
0
230
1
0
LWPOLYLINE
5
164
100
AcDbEntity
8
0
100
AcDbPolyline
90
52
70
1
43
0.0
10
672.71675872802746
20
1466.2222222222224
10
684.71675872802734
20
1466.2222222222224
10
684.71675872802734
20
1512
10
740.272314283583
20
1512
10
740.272314283583
20
1500
10
795.82786983913866
20
1500
10
795.82786983913866
20
1512
10
851.38342539469409
20
1512
10
851.38342539469409
20
1500
10
906.93898095024963
20
1500
10
906.93898095024963
20
1512
10
962.49453650580517
20
1512
10
962.49453650580517
20
1500
10
1018.0500920613608
20
1500
10
1018.0500920613608
20
1512
10
1073.6056476169163
20
1512
10
1073.6056476169163
20
1500
10
1129.1612031724719
20
1500
10
1129.1612031724719
20
1512
10
1196.7167587280276
20
1512
10
1196.7167587280276
20
1466.2222222222224
10
1184.7167587280276
20
1466.2222222222224
10
1184.7167587280276
20
1420.4444444444446
10
1196.7167587280276
20
1420.4444444444446
10
1196.7167587280276
20
1374.6666666666667
10
1184.7167587280276
20
1374.6666666666667
10
1184.7167587280276
20
1328.8888888888889
10
1196.7167587280276
20
1328.8888888888889
10
1196.7167587280276
20
1283.1111111111111
10
1184.7167587280276
20
1283.1111111111111
10
1184.7167587280276
20
1237.3333333333333
10
1196.7167587280276
20
1237.3333333333333
10
1196.7167587280276
20
1191.5555555555554
10
1184.7167587280276
20
1191.5555555555554
10
1184.7167587280276
20
1145.7777777777778
10
1196.7167587280276
20
1145.7777777777778
10
1196.7167587280276
20
1100
10
684.71675872802734
20
1100
10
684.71675872802734
20
1145.7777777777778
10
672.71675872802746
20
1145.7777777777778
10
672.71675872802746
20
1191.5555555555557
10
684.71675872802734
20
1191.5555555555557
10
684.71675872802734
20
1237.3333333333333
10
672.71675872802746
20
1237.3333333333333
10
672.71675872802746
20
1283.1111111111111
10
684.71675872802734
20
1283.1111111111111
10
684.71675872802734
20
1328.8888888888889
10
672.71675872802746
20
1328.8888888888889
10
672.71675872802746
20
1374.6666666666667
10
684.71675872802734
20
1374.6666666666667
10
684.71675872802734
20
1420.4444444444446
10
672.71675872802746
20
1420.4444444444446
0
LWPOLYLINE
5
165
100
AcDbEntity
8
0
100
AcDbPolyline
90
68
70
1
43
0.0
10
213
20
1862
10
175
20
1862
10
175
20
1849.9999999999998
10
125
20
1849.9999999999998
10
125
20
1862
10
75
20
1862
10
75
20
1849.9999999999998
10
25
20
1849.9999999999998
10
25
20
1862
10
-25
20
1862
10
-25
20
1849.9999999999998
10
-75
20
1849.9999999999998
10
-75
20
1862
10
-125
20
1862
10
-125
20
1849.9999999999998
10
-175
20
1849.9999999999998
10
-175
20
1862
10
-225
20
1862
10
-225
20
1917.5555555555552
10
-212.99999999999997
20
1917.5555555555552
10
-212.99999999999997
20
1973.1111111111111
10
-225
20
1973.1111111111111
10
-225
20
2028.6666666666665
10
-212.99999999999997
20
2028.6666666666665
10
-212.99999999999997
20
2084.2222222222222
10
-225
20
2084.2222222222222
10
-225
20
2139.7777777777774
10
-212.99999999999997
20
2139.7777777777774
10
-212.99999999999997
20
2195.3333333333335
10
-225
20
2195.3333333333335
10
-225
20
2250.8888888888887
10
-212.99999999999997
20
2250.8888888888887
10
-212.99999999999997
20
2306.4444444444443
10
-225
20
2306.4444444444443
10
-225
20
2362
10
-175
20
2362
10
-175
20
2374
10
-125
20
2374
10
-125
20
2362
10
-75
20
2362
10
-75
20
2374
10
-25
20
2374
10
-25
20
2362
10
25
20
2362
10
25
20
2374
10
75
20
2374
10
75
20
2362
10
125
20
2362
10
125
20
2374
10
175
20
2374
10
175
20
2362
10
212.99999999999997
20
2362
10
213
20
2306.4444444444443
10
225
20
2306.4444444444443
10
225
20
2250.8888888888887
10
213
20
2250.8888888888887
10
213
20
2195.333333333333
10
225
20
2195.333333333333
10
225
20
2139.7777777777774
10
213
20
2139.7777777777774
10
213
20
2084.2222222222222
10
225
20
2084.2222222222222
10
225
20
2028.6666666666665
10
213
20
2028.6666666666665
10
213
20
1973.1111111111111
10
225
20
1973.1111111111111
10
225
20
1917.5555555555552
10
213
20
1917.5555555555552
0
LWPOLYLINE
5
166
100
AcDbEntity
8
0
100
AcDbPolyline
90
54
70
1
43
0.0
10
-187
20
120.44444444444446
10
-174.99999999999994
20
120.44444444444444
10
-174.99999999999994
20
74.666666666666686
10
-187
20
74.6666666666667
10
-187
20
28.888888888888928
10
-174.99999999999994
20
28.888888888888928
10
-174.99999999999994
20
-16.8888888888889
10
-187
20
-16.8888888888889
10
-187
20
-62.666666666666657
10
-174.99999999999994
20
-62.666666666666657
10
-174.99999999999994
20
-108.44444444444441
10
-187
20
-108.44444444444441
10
-187
20
-154.22222222222223
10
-174.99999999999994
20
-154.22222222222223
10
-174.99999999999994
20
-200
10
-613
20
-200
10
-613
20
-155.55555555555557
10
-624.99999999999989
20
-155.55555555555557
10
-624.99999999999989
20
-111.11111111111114
10
-613
20
-111.11111111111111
10
-613
20
-66.666666666666686
10
-624.99999999999989
20
-66.666666666666714
10
-624.99999999999989
20
-22.222222222222214
10
-613
20
-22.222222222222214
10
-613
20
22.222222222222214
10
-624.99999999999989
20
22.222222222222214
10
-624.99999999999989
20
66.666666666666686
10
-613
20
66.666666666666686
10
-613
20
111.11111111111111
10
-624.99999999999989
20
111.11111111111111
10
-624.99999999999989
20
155.55555555555554
10
-613
20
155.55555555555557
10
-613
20
200
10
-625
20
200
10
-624.99999999999989
20
211.99999999999991
10
-575
20
211.99999999999991
10
-575
20
200
10
-525
20
200
10
-525
20
211.99999999999991
10
-475
20
211.99999999999991
10
-475
20
200
10
-425
20
200
10
-425
20
211.99999999999991
10
-375
20
211.99999999999994
10
-375
20
200
10
-325
20
200
10
-325
20
211.99999999999994
10
-275
20
211.99999999999994
10
-275
20
200
10
-225
20
200
10
-225
20
211.99999999999994
10
-174.99999999999994
20
212.00000000000003
10
-174.99999999999994
20
166.22222222222229
10
-187
20
166.22222222222229
0
LWPOLYLINE
5
167
100
AcDbEntity
8
0
100
AcDbPolyline
90
52
70
1
43
0.0
10
125.00000000000014
20
155.55555555555557
10
113.00000000000011
20
155.55555555555557
10
113.00000000000011
20
200
10
180.55555555555571
20
200
10
180.55555555555571
20
212.00000000000003
10
236.11111111111114
20
212.00000000000003
10
236.11111111111114
20
200
10
291.66666666666686
20
200
10
291.66666666666686
20
212.00000000000003
10
347.22222222222229
20
212.00000000000003
10
347.22222222222229
20
200
10
402.77777777777783
20
200
10
402.77777777777783
20
212.00000000000003
10
458.33333333333343
20
212.00000000000003
10
458.33333333333343
20
200
10
513.88888888888903
20
200
10
513.88888888888903
20
212.00000000000003
10
569.44444444444457
20
212.00000000000003
10
569.44444444444457
20
200
10
625.00000000000023
20
200
10
625.00000000000023
20
155.55555555555557
10
637.00000000000023
20
155.55555555555557
10
637.00000000000023
20
111.11111111111111
10
625.00000000000023
20
111.11111111111111
10
625.00000000000023
20
66.666666666666686
10
637.00000000000023
20
66.666666666666686
10
637.00000000000023
20
22.222222222222214
10
625.00000000000023
20
22.222222222222214
10
625.00000000000023
20
-22.222222222222214
10
637.00000000000023
20
-22.222222222222214
10
637.00000000000023
20
-66.666666666666686
10
625.00000000000023
20
-66.666666666666686
10
625.00000000000023
20
-111.11111111111111
10
637.00000000000023
20
-111.11111111111111
10
637.00000000000023
20
-155.55555555555557
10
625.00000000000023
20
-155.55555555555557
10
625.00000000000023
20
-200
10
113.00000000000011
20
-200
10
113.00000000000011
20
-155.55555555555557
10
125.00000000000014
20
-155.55555555555557
10
125.00000000000014
20
-111.11111111111114
10
113.00000000000011
20
-111.11111111111114
10
113.00000000000011
20
-66.666666666666643
10
125.00000000000014
20
-66.666666666666643
10
125.00000000000014
20
-22.222222222222214
10
113.00000000000011
20
-22.222222222222214
10
113.00000000000011
20
22.222222222222214
10
125.00000000000014
20
22.222222222222214
10
125.00000000000014
20
66.666666666666643
10
113.00000000000011
20
66.666666666666643
10
113.00000000000011
20
111.11111111111111
10
125.00000000000014
20
111.11111111111111
0
ENDSEC
0
SECTION
2
OBJECTS
0
DICTIONARY
5
C
100
AcDbDictionary
3
ACAD_GROUP
350
D
3
ACAD_MLINESTYLE
350
17
0
DICTIONARY
5
D
100
AcDbDictionary
0
DICTIONARY
5
1A
330
C
100
AcDbDictionary
0
DICTIONARY
5
17
100
AcDbDictionary
0
ENDSEC
0
EOF
