0
SECTION
2
HEADER
9
$INSUNITS
70
4
9
$ACADVER
1
AC1014
9
$HANDSEED
5
FFFF
0
ENDSEC
0
SECTION
2
TABLES
0
TABLE
2
VPORT
5
8
100
AcDbSymbolTable
0
ENDTAB
0
TABLE
2
LTYPE
5
5
100
AcDbSymbolTable
0
LTYPE
5
14
100
AcDbSymbolTableRecord
100
AcDbLinetypeTableRecord
2
BYBLOCK
70
0
0
LTYPE
5
15
100
AcDbSymbolTableRecord
100
AcDbLinetypeTableRecord
2
BYLAYER
70
0
0
ENDTAB
0
TABLE
2
LAYER
5
2
100
AcDbSymbolTable
70
2
0
LAYER
5
50
100
AcDbSymbolTableRecord
100
AcDbLayerTableRecord
2
0
70
0
6
CONTINUOUS
0
ENDTAB
0
TABLE
2
STYLE
5
3
100
AcDbSymbolTable
70
1
0
STYLE
5
11
100
AcDbSymbolTableRecord
100
AcDbTextStyleTableRecord
2
STANDARD
70
0
0
ENDTAB
0
TABLE
2
VIEW
5
6
100
AcDbSymbolTable
70
0
0
ENDTAB
0
TABLE
2
UCS
5
7
100
AcDbSymbolTable
70
0
0
ENDTAB
0
TABLE
2
APPID
5
9
100
AcDbSymbolTable
70
2
0
APPID
5
12
100
AcDbSymbolTableRecord
100
AcDbRegAppTableRecord
2
ACAD
70
0
0
ENDTAB
0
TABLE
2
DIMSTYLE
5
A
100
AcDbSymbolTable
70
1
0
ENDTAB
0
TABLE
2
BLOCK_RECORD
5
1
100
AcDbSymbolTable
70
1
0
BLOCK_RECORD
5
1F
100
AcDbSymbolTableRecord
100
AcDbBlockTableRecord
2
*MODEL_SPACE
0
BLOCK_RECORD
5
1B
100
AcDbSymbolTableRecord
100
AcDbBlockTableRecord
2
*PAPER_SPACE
0
ENDTAB
0
ENDSEC
0
SECTION
2
BLOCKS
0
BLOCK
5
20
100
AcDbEntity
100
AcDbBlockBegin
2
*MODEL_SPACE
0
ENDBLK
5
21
100
AcDbEntity
100
AcDbBlockEnd
0
BLOCK
5
1C
100
AcDbEntity
100
AcDbBlockBegin
2
*PAPER_SPACE
0
ENDBLK
5
1D
100
AcDbEntity
100
AcDbBlockEnd
0
ENDSEC
0
SECTION
2
ENTITIES
0
LWPOLYLINE
5
100
100
AcDbEntity
8
0
100
AcDbPolyline
90
4
70
1
43
0.0
10
-108.08866088380171
20
481.09543324486367
10
-108.08866088380171
20
521.09543324486367
10
-120.08866088380167
20
521.09543324486356
10
-120.08866088380171
20
481.09543324486361
0
LWPOLYLINE
5
101
100
AcDbEntity
8
0
100
AcDbPolyline
90
4
70
1
43
0.0
10
-203.08866088380171
20
198.09543324486381
10
-203.08866088380171
20
238.09543324486381
10
-215.08866088380171
20
238.09543324486381
10
-215.08866088380171
20
198.09543324486381
0
LWPOLYLINE
5
102
100
AcDbEntity
8
0
100
AcDbPolyline
90
4
70
1
43
0.0
10
-158.08866088380171
20
336.99543324486388
10
-158.08866088380171
20
376.99543324486388
10
-170.08866088380174
20
376.99543324486388
10
-170.08866088380171
20
336.99543324486388
0
LWPOLYLINE
5
103
100
AcDbEntity
8
0
100
AcDbPolyline
90
4
70
1
43
0.0
10
-58.088660883801708
20
625.0954332448639
10
-58.088660883801708
20
665.0954332448639
10
-70.088660883801722
20
665.0954332448639
10
-70.088660883801708
20
625.0954332448639
0
LWPOLYLINE
5
104
100
AcDbEntity
8
0
100
AcDbPolyline
90
4
70
1
43
0.0
10
-17.77364962214601
20
731
10
-17.773649622146014
20
719
10
17.226350377853986
20
719
10
17.226350377853986
20
731
0
LWPOLYLINE
5
105
100
AcDbEntity
8
0
100
AcDbPolyline
90
4
70
1
43
0.0
10
-105.81789962214626
20
307.00000000000011
10
-105.81789962214623
20
295.00000000000006
10
-65.817899622146243
20
295.00000000000006
10
-65.817899622146243
20
307.00000000000011
0
LWPOLYLINE
5
106
100
AcDbEntity
8
0
100
AcDbPolyline
90
4
70
1
43
0.0
10
62.723600377848655
20
307.00000000000108
10
62.723600377848655
20
295.00000000000006
10
102.72360037784865
20
295.00000000000006
10
102.72360037784864
20
307.00000000000313
0
LWPOLYLINE
5
107
100
AcDbEntity
8
0
100
AcDbPolyline
90
4
70
1
43
0.0
10
-140.86039962214622
20
24.000000000000004
10
-140.86039962214622
20
12.000000000000002
10
-100.86039962214622
20
12.000000000000002
10
-100.86039962214622
20
24.000000000000004
0
LWPOLYLINE
5
108
100
AcDbEntity
8
0
100
AcDbPolyline
90
4
70
1
43
0.0
10
-20.197149622146195
20
24.000000000000004
10
-20.197149622146195
20
12.000000000000002
10
19.802850377853769
20
12.000000000000002
10
19.802850377853769
20
24.000000000000004
0
LWPOLYLINE
5
109
100
AcDbEntity
8
0
100
AcDbPolyline
90
4
70
1
43
0.0
10
100.46610037785378
20
24.000000000000004
10
100.46610037785378
20
12.000000000000002
10
140.46610037785376
20
12.000000000000002
10
140.46610037785376
20
24.000000000000004
0
LWPOLYLINE
5
110
100
AcDbEntity
8
0
100
AcDbPolyline
90
4
70
1
43
0.0
10
-125.97739962214666
20
168.00000000000006
10
-125.97739962214666
20
156
10
-90.977399622146663
20
156
10
-90.977399622146663
20
168.00000000000006
0
LWPOLYLINE
5
111
100
AcDbEntity
8
0
100
AcDbPolyline
90
4
70
1
43
0.0
10
-19.181149622146663
20
168.00000000000006
10
-19.181149622146663
20
156
10
15.818850377853337
20
156
10
15.818850377853337
20
168.00000000000006
0
LWPOLYLINE
5
112
100
AcDbEntity
8
0
100
AcDbPolyline
90
4
70
1
43
0.0
10
87.61510037785331
20
168.00000000000006
10
87.61510037785331
20
156
10
122.61510037785331
20
156
10
122.61510037785331
20
168.00000000000006
0
LWPOLYLINE
5
113
100
AcDbEntity
8
0
100
AcDbPolyline
90
4
70
1
43
0.0
10
-43.08914962214623
20
439.00000000000006
10
-43.08914962214623
20
451.00000000000011
10
-78.089149622146238
20
451.00000000000011
10
-78.089149622146238
20
439.00000000000006
0
LWPOLYLINE
5
114
100
AcDbEntity
8
0
100
AcDbPolyline
90
4
70
1
43
0.0
10
40.910850377853762
20
451.00000000000011
10
40.910850377853762
20
439.00000000000006
10
75.910850377853762
20
439.00000000000006
10
75.910850377853762
20
451.00000000000011
0
LWPOLYLINE
5
115
100
AcDbEntity
8
0
100
AcDbPolyline
90
4
70
1
43
0.0
10
-20.589149622145676
20
595.00000000000205
10
-20.589149622145676
20
583
10
19.410850377854317
20
583
10
19.410850377854313
20
595.00000000000205
0
LWPOLYLINE
5
116
100
AcDbEntity
8
0
100
AcDbPolyline
90
14
70
1
43
0.0
10
229.12935944678185
20
53.999999999999972
10
241.13935944678204
20
53.999999999999972
10
241.1393594467819
20
-7.998118946962399
10
-241.3606405532181
20
-7.9981189469621583
10
-241.36064055321799
20
54.000000000000128
10
-229.52364962214625
20
54.000000000000121
10
-229.52364962214625
20
94.000000000000114
10
-241.36064055321793
20
94.000000000000128
10
-241.36064055321782
20
216.00188105303786
10
-50.110640553218104
20
760.00188105303778
10
49.889359446781896
20
760.00188105303778
10
241.1393594467819
20
216.00188105303766
10
241.13935944678204
20
93.999999999999972
10
229.12935944678185
20
93.999999999999972
0
LWPOLYLINE
5
117
100
AcDbEntity
8
0
100
AcDbPolyline
90
4
70
1
43
0.0
10
166.99433911619826
20
376.9999999999996
10
154.99433911619863
20
376.99999999999955
10
154.9943391161986
20
336.99999999999955
10
166.99433911619826
20
336.9999999999996
0
LWPOLYLINE
5
118
100
AcDbEntity
8
0
100
AcDbPolyline
90
4
70
1
43
0.0
10
68.911339116198306
20
665.09543324486367
10
56.911339116198306
20
665.0954332448639
10
56.911339116198306
20
625.09543324486378
10
68.911339116198306
20
625.09543324486378
0
LWPOLYLINE
5
119
100
AcDbEntity
8
0
100
AcDbPolyline
90
4
70
1
43
0.0
10
117.91133911619831
20
481.09543324486373
10
117.91133911619831
20
521.09543324486378
10
105.91133911619823
20
521.09543324486378
10
105.91133911619832
20
481.09543324486373
0
LWPOLYLINE
5
120
100
AcDbEntity
8
0
100
AcDbPolyline
90
4
70
1
43
0.0
10
211.91133911619829
20
198.0954332448639
10
211.91133911619829
20
238.0954332448639
10
199.91133911619835
20
238.0954332448639
10
199.91133911619829
20
198.0954332448639
0
ENDSEC
0
SECTION
2
OBJECTS
0
DICTIONARY
5
C
100
AcDbDictionary
3
ACAD_GROUP
350
D
3
ACAD_MLINESTYLE
350
17
0
DICTIONARY
5
D
100
AcDbDictionary
0
DICTIONARY
5
1A
330
C
100
AcDbDictionary
0
DICTIONARY
5
17
100
AcDbDictionary
0
ENDSEC
0
EOF
