999
"DXF R12 Output" (www.mydxf.blogspot.com)
 0 
SECTION
 2 
HEADER
 9 
$ACADVER
 1 
AC1009
 9 
$EXTMIN
 10 
 0 
 20 
 0 
 9 
$EXTMAX
 10 
 8.5 
 20 
 11 
 0 
ENDSEC
 0 
SECTION
 2 
ENTITIES
0
LINE
8
Layer 1
10
151.500000
20
150.455000
11
190.500000
21
150.455000
0
LINE
8
Layer 1
10
190.500000
20
150.455000
11
190.500000
21
110.000000
0
LINE
8
Layer 1
10
190.500000
20
110.000000
11
275.500000
21
110.000000
0
LINE
8
Layer 1
10
275.500000
20
110.000000
11
275.500000
21
150.455000
0
LINE
8
Layer 1
10
275.500000
20
150.455000
11
297.014000
21
150.455000
0
LINE
8
Layer 1
10
297.014000
20
150.455000
11
300.829346
21
146.909385
0
LINE
8
Layer 1
10
300.829346
20
146.909385
11
304.456547
21
143.172255
0
LINE
8
Layer 1
10
304.456547
20
143.172255
11
307.887600
21
139.251617
0
LINE
8
Layer 1
10
307.887600
20
139.251617
11
311.114500
21
135.155480
0
LINE
8
Layer 1
10
311.114500
20
135.155480
11
314.129244
21
130.891850
0
LINE
8
Layer 1
10
314.129244
20
130.891850
11
316.923828
21
126.468736
0
LINE
8
Layer 1
10
316.923828
20
126.468736
11
319.490248
21
121.894146
0
LINE
8
Layer 1
10
319.490248
20
121.894146
11
321.820500
21
117.176087
0
LINE
8
Layer 1
10
321.820500
20
117.176087
11
323.906580
21
112.322568
0
LINE
8
Layer 1
10
323.906580
20
112.322568
11
325.740484
21
107.341597
0
LINE
8
Layer 1
10
325.740484
20
107.341597
11
327.314209
21
102.241180
0
LINE
8
Layer 1
10
327.314209
20
102.241180
11
328.619750
21
97.029327
0
LINE
8
Layer 1
10
328.619750
20
97.029327
11
329.649104
21
91.714044
0
LINE
8
Layer 1
10
329.649104
20
91.714044
11
330.394266
21
86.303340
0
LINE
8
Layer 1
10
330.394266
20
86.303340
11
330.847232
21
80.805223
0
LINE
8
Layer 1
10
330.847232
20
80.805223
11
331.000000
21
75.227700
0
LINE
8
Layer 1
10
331.000000
20
75.227700
11
330.847232
21
69.650113
0
LINE
8
Layer 1
10
330.847232
20
69.650113
11
330.394266
21
64.151953
0
LINE
8
Layer 1
10
330.394266
20
64.151953
11
329.649104
21
58.741224
0
LINE
8
Layer 1
10
329.649104
20
58.741224
11
328.619750
21
53.425932
0
LINE
8
Layer 1
10
328.619750
20
53.425932
11
327.314209
21
48.214082
0
LINE
8
Layer 1
10
327.314209
20
48.214082
11
325.740484
21
43.113678
0
LINE
8
Layer 1
10
325.740484
20
43.113678
11
323.906580
21
38.132727
0
LINE
8
Layer 1
10
323.906580
20
38.132727
11
321.820500
21
33.279233
0
LINE
8
Layer 1
10
321.820500
20
33.279233
11
319.490248
21
28.561201
0
LINE
8
Layer 1
10
319.490248
20
28.561201
11
316.923828
21
23.986637
0
LINE
8
Layer 1
10
316.923828
20
23.986637
11
314.129244
21
19.563545
0
LINE
8
Layer 1
10
314.129244
20
19.563545
11
311.114500
21
15.299932
0
LINE
8
Layer 1
10
311.114500
20
15.299932
11
307.887600
21
11.203802
0
LINE
8
Layer 1
10
307.887600
20
11.203802
11
304.456547
21
7.283160
0
LINE
8
Layer 1
10
304.456547
20
7.283160
11
300.829346
21
3.546011
0
LINE
8
Layer 1
10
300.829346
20
3.546011
11
297.014000
21
0.000361
0
LINE
8
Layer 1
10
297.014000
20
0.000361
11
275.500000
21
0.000361
0
LINE
8
Layer 1
10
275.500000
20
0.000361
11
275.500000
21
40.000400
0
LINE
8
Layer 1
10
275.500000
20
40.000400
11
190.500000
21
40.000400
0
LINE
8
Layer 1
10
190.500000
20
40.000400
11
190.500000
21
0.000361
0
LINE
8
Layer 1
10
190.500000
20
0.000361
11
149.500000
21
0.000361
0
LINE
8
Layer 1
10
149.500000
20
0.000361
11
149.500000
21
40.000400
0
LINE
8
Layer 1
10
149.500000
20
40.000400
11
64.500000
21
40.000400
0
LINE
8
Layer 1
10
64.500000
20
40.000400
11
64.500000
21
0.000361
0
LINE
8
Layer 1
10
64.500000
20
0.000361
11
33.986300
21
0.000361
0
LINE
8
Layer 1
10
33.986300
20
0.000361
11
30.170984
21
3.546011
0
LINE
8
Layer 1
10
30.170984
20
3.546011
11
26.543798
21
7.283160
0
LINE
8
Layer 1
10
26.543798
20
7.283160
11
23.112747
21
11.203802
0
LINE
8
Layer 1
10
23.112747
20
11.203802
11
19.885838
21
15.299932
0
LINE
8
Layer 1
10
19.885838
20
15.299932
11
16.871075
21
19.563545
0
LINE
8
Layer 1
10
16.871075
20
19.563545
11
14.076465
21
23.986637
0
LINE
8
Layer 1
10
14.076465
20
23.986637
11
11.510013
21
28.561201
0
LINE
8
Layer 1
10
11.510013
20
28.561201
11
9.179725
21
33.279233
0
LINE
8
Layer 1
10
9.179725
20
33.279233
11
7.093607
21
38.132727
0
LINE
8
Layer 1
10
7.093607
20
38.132727
11
5.259663
21
43.113678
0
LINE
8
Layer 1
10
5.259663
20
43.113678
11
3.685901
21
48.214082
0
LINE
8
Layer 1
10
3.685901
20
48.214082
11
2.380325
21
53.425932
0
LINE
8
Layer 1
10
2.380325
20
53.425932
11
1.350941
21
58.741224
0
LINE
8
Layer 1
10
1.350941
20
58.741224
11
0.605755
21
64.151953
0
LINE
8
Layer 1
10
0.605755
20
64.151953
11
0.152773
21
69.650113
0
LINE
8
Layer 1
10
0.152773
20
69.650113
11
0.000000
21
75.227700
0
LINE
8
Layer 1
10
0.000000
20
75.227700
11
0.152773
21
80.805223
0
LINE
8
Layer 1
10
0.152773
20
80.805223
11
0.605755
21
86.303340
0
LINE
8
Layer 1
10
0.605755
20
86.303340
11
1.350941
21
91.714044
0
LINE
8
Layer 1
10
1.350941
20
91.714044
11
2.380325
21
97.029327
0
LINE
8
Layer 1
10
2.380325
20
97.029327
11
3.685901
21
102.241180
0
LINE
8
Layer 1
10
3.685901
20
102.241180
11
5.259663
21
107.341597
0
LINE
8
Layer 1
10
5.259663
20
107.341597
11
7.093607
21
112.322568
0
LINE
8
Layer 1
10
7.093607
20
112.322568
11
9.179725
21
117.176087
0
LINE
8
Layer 1
10
9.179725
20
117.176087
11
11.510013
21
121.894146
0
LINE
8
Layer 1
10
11.510013
20
121.894146
11
14.076465
21
126.468736
0
LINE
8
Layer 1
10
14.076465
20
126.468736
11
16.871075
21
130.891850
0
LINE
8
Layer 1
10
16.871075
20
130.891850
11
19.885837
21
135.155480
0
LINE
8
Layer 1
10
19.885837
20
135.155480
11
23.112747
21
139.251617
0
LINE
8
Layer 1
10
23.112747
20
139.251617
11
26.543798
21
143.172255
0
LINE
8
Layer 1
10
26.543798
20
143.172255
11
30.170984
21
146.909385
0
LINE
8
Layer 1
10
30.170984
20
146.909385
11
33.986300
21
150.455000
0
LINE
8
Layer 1
10
33.986300
20
150.455000
11
66.500000
21
150.455000
0
LINE
8
Layer 1
10
66.500000
20
150.455000
11
66.500000
21
110.000000
0
LINE
8
Layer 1
10
66.500000
20
110.000000
11
151.500000
21
110.000000
0
LINE
8
Layer 1
10
151.500000
20
110.000000
11
151.500000
21
150.455000
0
LINE
8
Layer 1
10
151.500000
20
150.455000
11
151.500000
21
150.455000
0
LINE
8
Layer 1
10
34.000000
20
130.000000
11
35.007151
21
130.101682
0
LINE
8
Layer 1
10
35.007151
20
130.101682
11
35.945456
21
130.393266
0
LINE
8
Layer 1
10
35.945456
20
130.393266
11
36.794746
21
130.854561
0
LINE
8
Layer 1
10
36.794746
20
130.854561
11
37.534850
21
131.465375
0
LINE
8
Layer 1
10
37.534850
20
131.465375
11
38.145598
21
132.205518
0
LINE
8
Layer 1
10
38.145598
20
132.205518
11
38.606819
21
133.054797
0
LINE
8
Layer 1
10
38.606819
20
133.054797
11
38.898343
21
133.993021
0
LINE
8
Layer 1
10
38.898343
20
133.993021
11
39.000000
21
135.000000
0
LINE
8
Layer 1
10
39.000000
20
135.000000
11
38.898343
21
136.007266
0
LINE
8
Layer 1
10
38.898343
20
136.007266
11
38.606819
21
136.945625
0
LINE
8
Layer 1
10
38.606819
20
136.945625
11
38.145598
21
137.794922
0
LINE
8
Layer 1
10
38.145598
20
137.794922
11
37.534850
21
138.535000
0
LINE
8
Layer 1
10
37.534850
20
138.535000
11
36.794746
21
139.145703
0
LINE
8
Layer 1
10
36.794746
20
139.145703
11
35.945456
21
139.606875
0
LINE
8
Layer 1
10
35.945456
20
139.606875
11
35.007151
21
139.898359
0
LINE
8
Layer 1
10
35.007151
20
139.898359
11
34.000000
21
140.000000
0
LINE
8
Layer 1
10
34.000000
20
140.000000
11
32.992849
21
139.898359
0
LINE
8
Layer 1
10
32.992849
20
139.898359
11
32.054544
21
139.606875
0
LINE
8
Layer 1
10
32.054544
20
139.606875
11
31.205254
21
139.145703
0
LINE
8
Layer 1
10
31.205254
20
139.145703
11
30.465150
21
138.535000
0
LINE
8
Layer 1
10
30.465150
20
138.535000
11
29.854402
21
137.794922
0
LINE
8
Layer 1
10
29.854402
20
137.794922
11
29.393181
21
136.945625
0
LINE
8
Layer 1
10
29.393181
20
136.945625
11
29.101657
21
136.007266
0
LINE
8
Layer 1
10
29.101657
20
136.007266
11
29.000000
21
135.000000
0
LINE
8
Layer 1
10
29.000000
20
135.000000
11
29.101657
21
133.993021
0
LINE
8
Layer 1
10
29.101657
20
133.993021
11
29.393181
21
133.054797
0
LINE
8
Layer 1
10
29.393181
20
133.054797
11
29.854402
21
132.205518
0
LINE
8
Layer 1
10
29.854402
20
132.205518
11
30.465150
21
131.465375
0
LINE
8
Layer 1
10
30.465150
20
131.465375
11
31.205254
21
130.854561
0
LINE
8
Layer 1
10
31.205254
20
130.854561
11
32.054544
21
130.393266
0
LINE
8
Layer 1
10
32.054544
20
130.393266
11
32.992849
21
130.101682
0
LINE
8
Layer 1
10
32.992849
20
130.101682
11
34.000000
21
130.000000
0
LINE
8
Layer 1
10
34.000000
20
130.000000
11
34.000000
21
130.000000
0
LINE
8
Layer 1
10
299.000000
20
135.000000
11
298.898359
21
133.993021
0
LINE
8
Layer 1
10
298.898359
20
133.993021
11
298.606875
21
133.054797
0
LINE
8
Layer 1
10
298.606875
20
133.054797
11
298.145703
21
132.205518
0
LINE
8
Layer 1
10
298.145703
20
132.205518
11
297.535000
21
131.465375
0
LINE
8
Layer 1
10
297.535000
20
131.465375
11
296.794922
21
130.854561
0
LINE
8
Layer 1
10
296.794922
20
130.854561
11
295.945625
21
130.393266
0
LINE
8
Layer 1
10
295.945625
20
130.393266
11
295.007266
21
130.101682
0
LINE
8
Layer 1
10
295.007266
20
130.101682
11
294.000000
21
130.000000
0
LINE
8
Layer 1
10
294.000000
20
130.000000
11
292.993021
21
130.101682
0
LINE
8
Layer 1
10
292.993021
20
130.101682
11
292.054797
21
130.393266
0
LINE
8
Layer 1
10
292.054797
20
130.393266
11
291.205518
21
130.854561
0
LINE
8
Layer 1
10
291.205518
20
130.854561
11
290.465375
21
131.465375
0
LINE
8
Layer 1
10
290.465375
20
131.465375
11
289.854561
21
132.205518
0
LINE
8
Layer 1
10
289.854561
20
132.205518
11
289.393266
21
133.054797
0
LINE
8
Layer 1
10
289.393266
20
133.054797
11
289.101682
21
133.993021
0
LINE
8
Layer 1
10
289.101682
20
133.993021
11
289.000000
21
135.000000
0
LINE
8
Layer 1
10
289.000000
20
135.000000
11
289.101682
21
136.007266
0
LINE
8
Layer 1
10
289.101682
20
136.007266
11
289.393266
21
136.945625
0
LINE
8
Layer 1
10
289.393266
20
136.945625
11
289.854561
21
137.794922
0
LINE
8
Layer 1
10
289.854561
20
137.794922
11
290.465375
21
138.535000
0
LINE
8
Layer 1
10
290.465375
20
138.535000
11
291.205518
21
139.145703
0
LINE
8
Layer 1
10
291.205518
20
139.145703
11
292.054797
21
139.606875
0
LINE
8
Layer 1
10
292.054797
20
139.606875
11
292.993021
21
139.898359
0
LINE
8
Layer 1
10
292.993021
20
139.898359
11
294.000000
21
140.000000
0
LINE
8
Layer 1
10
294.000000
20
140.000000
11
295.007266
21
139.898359
0
LINE
8
Layer 1
10
295.007266
20
139.898359
11
295.945625
21
139.606875
0
LINE
8
Layer 1
10
295.945625
20
139.606875
11
296.794922
21
139.145703
0
LINE
8
Layer 1
10
296.794922
20
139.145703
11
297.535000
21
138.535000
0
LINE
8
Layer 1
10
297.535000
20
138.535000
11
298.145703
21
137.794922
0
LINE
8
Layer 1
10
298.145703
20
137.794922
11
298.606875
21
136.945625
0
LINE
8
Layer 1
10
298.606875
20
136.945625
11
298.898359
21
136.007266
0
LINE
8
Layer 1
10
298.898359
20
136.007266
11
299.000000
21
135.000000
0
LINE
8
Layer 1
10
299.000000
20
135.000000
11
299.000000
21
135.000000
0
LINE
8
Layer 1
10
293.000000
20
125.000000
11
283.000000
21
125.000000
0
LINE
8
Layer 1
10
283.000000
20
125.000000
11
283.000000
21
115.000000
0
LINE
8
Layer 1
10
283.000000
20
115.000000
11
293.000000
21
115.000000
0
LINE
8
Layer 1
10
293.000000
20
115.000000
11
293.000000
21
125.000000
0
LINE
8
Layer 1
10
293.000000
20
125.000000
11
293.000000
21
125.000000
0
LINE
8
Layer 1
10
306.100000
20
119.300000
11
305.998359
21
118.293021
0
LINE
8
Layer 1
10
305.998359
20
118.293021
11
305.706875
21
117.354797
0
LINE
8
Layer 1
10
305.706875
20
117.354797
11
305.245703
21
116.505518
0
LINE
8
Layer 1
10
305.245703
20
116.505518
11
304.635000
21
115.765375
0
LINE
8
Layer 1
10
304.635000
20
115.765375
11
303.894922
21
115.154561
0
LINE
8
Layer 1
10
303.894922
20
115.154561
11
303.045625
21
114.693266
0
LINE
8
Layer 1
10
303.045625
20
114.693266
11
302.107266
21
114.401682
0
LINE
8
Layer 1
10
302.107266
20
114.401682
11
301.100000
21
114.300000
0
LINE
8
Layer 1
10
301.100000
20
114.300000
11
300.093021
21
114.401682
0
LINE
8
Layer 1
10
300.093021
20
114.401682
11
299.154797
21
114.693266
0
LINE
8
Layer 1
10
299.154797
20
114.693266
11
298.305518
21
115.154561
0
LINE
8
Layer 1
10
298.305518
20
115.154561
11
297.565375
21
115.765375
0
LINE
8
Layer 1
10
297.565375
20
115.765375
11
296.954561
21
116.505518
0
LINE
8
Layer 1
10
296.954561
20
116.505518
11
296.493266
21
117.354797
0
LINE
8
Layer 1
10
296.493266
20
117.354797
11
296.201682
21
118.293021
0
LINE
8
Layer 1
10
296.201682
20
118.293021
11
296.100000
21
119.300000
0
LINE
8
Layer 1
10
296.100000
20
119.300000
11
296.201682
21
120.307266
0
LINE
8
Layer 1
10
296.201682
20
120.307266
11
296.493266
21
121.245625
0
LINE
8
Layer 1
10
296.493266
20
121.245625
11
296.954561
21
122.094922
0
LINE
8
Layer 1
10
296.954561
20
122.094922
11
297.565375
21
122.835000
0
LINE
8
Layer 1
10
297.565375
20
122.835000
11
298.305518
21
123.445703
0
LINE
8
Layer 1
10
298.305518
20
123.445703
11
299.154797
21
123.906875
0
LINE
8
Layer 1
10
299.154797
20
123.906875
11
300.093021
21
124.198359
0
LINE
8
Layer 1
10
300.093021
20
124.198359
11
301.100000
21
124.300000
0
LINE
8
Layer 1
10
301.100000
20
124.300000
11
302.107266
21
124.198359
0
LINE
8
Layer 1
10
302.107266
20
124.198359
11
303.045625
21
123.906875
0
LINE
8
Layer 1
10
303.045625
20
123.906875
11
303.894922
21
123.445703
0
LINE
8
Layer 1
10
303.894922
20
123.445703
11
304.635000
21
122.835000
0
LINE
8
Layer 1
10
304.635000
20
122.835000
11
305.245703
21
122.094922
0
LINE
8
Layer 1
10
305.245703
20
122.094922
11
305.706875
21
121.245625
0
LINE
8
Layer 1
10
305.706875
20
121.245625
11
305.998359
21
120.307266
0
LINE
8
Layer 1
10
305.998359
20
120.307266
11
306.100000
21
119.300000
0
LINE
8
Layer 1
10
306.100000
20
119.300000
11
306.100000
21
119.300000
0
LINE
8
Layer 1
10
47.000000
20
124.000000
11
37.000000
21
124.000000
0
LINE
8
Layer 1
10
37.000000
20
124.000000
11
37.000000
21
114.000000
0
LINE
8
Layer 1
10
37.000000
20
114.000000
11
47.000000
21
114.000000
0
LINE
8
Layer 1
10
47.000000
20
114.000000
11
47.000000
21
124.000000
0
LINE
8
Layer 1
10
47.000000
20
124.000000
11
47.000000
21
124.000000
0
LINE
8
Layer 1
10
22.100000
20
112.300000
11
23.107151
21
112.401682
0
LINE
8
Layer 1
10
23.107151
20
112.401682
11
24.045456
21
112.693266
0
LINE
8
Layer 1
10
24.045456
20
112.693266
11
24.894746
21
113.154561
0
LINE
8
Layer 1
10
24.894746
20
113.154561
11
25.634850
21
113.765375
0
LINE
8
Layer 1
10
25.634850
20
113.765375
11
26.245598
21
114.505518
0
LINE
8
Layer 1
10
26.245598
20
114.505518
11
26.706819
21
115.354797
0
LINE
8
Layer 1
10
26.706819
20
115.354797
11
26.998343
21
116.293021
0
LINE
8
Layer 1
10
26.998343
20
116.293021
11
27.100000
21
117.300000
0
LINE
8
Layer 1
10
27.100000
20
117.300000
11
26.998343
21
118.307266
0
LINE
8
Layer 1
10
26.998343
20
118.307266
11
26.706819
21
119.245625
0
LINE
8
Layer 1
10
26.706819
20
119.245625
11
26.245598
21
120.094922
0
LINE
8
Layer 1
10
26.245598
20
120.094922
11
25.634850
21
120.835000
0
LINE
8
Layer 1
10
25.634850
20
120.835000
11
24.894746
21
121.445703
0
LINE
8
Layer 1
10
24.894746
20
121.445703
11
24.045456
21
121.906875
0
LINE
8
Layer 1
10
24.045456
20
121.906875
11
23.107151
21
122.198359
0
LINE
8
Layer 1
10
23.107151
20
122.198359
11
22.100000
21
122.300000
0
LINE
8
Layer 1
10
22.100000
20
122.300000
11
21.092849
21
122.198359
0
LINE
8
Layer 1
10
21.092849
20
122.198359
11
20.154544
21
121.906875
0
LINE
8
Layer 1
10
20.154544
20
121.906875
11
19.305254
21
121.445703
0
LINE
8
Layer 1
10
19.305254
20
121.445703
11
18.565150
21
120.835000
0
LINE
8
Layer 1
10
18.565150
20
120.835000
11
17.954402
21
120.094922
0
LINE
8
Layer 1
10
17.954402
20
120.094922
11
17.493181
21
119.245625
0
LINE
8
Layer 1
10
17.493181
20
119.245625
11
17.201657
21
118.307266
0
LINE
8
Layer 1
10
17.201657
20
118.307266
11
17.100000
21
117.300000
0
LINE
8
Layer 1
10
17.100000
20
117.300000
11
17.201657
21
116.293021
0
LINE
8
Layer 1
10
17.201657
20
116.293021
11
17.493181
21
115.354797
0
LINE
8
Layer 1
10
17.493181
20
115.354797
11
17.954402
21
114.505518
0
LINE
8
Layer 1
10
17.954402
20
114.505518
11
18.565150
21
113.765375
0
LINE
8
Layer 1
10
18.565150
20
113.765375
11
19.305254
21
113.154561
0
LINE
8
Layer 1
10
19.305254
20
113.154561
11
20.154544
21
112.693266
0
LINE
8
Layer 1
10
20.154544
20
112.693266
11
21.092849
21
112.401682
0
LINE
8
Layer 1
10
21.092849
20
112.401682
11
22.100000
21
112.300000
0
LINE
8
Layer 1
10
22.100000
20
112.300000
11
22.100000
21
112.300000
0
LINE
8
Layer 1
10
37.000000
20
110.000000
11
47.000000
21
110.000000
0
LINE
8
Layer 1
10
47.000000
20
110.000000
11
47.000000
21
100.000000
0
LINE
8
Layer 1
10
47.000000
20
100.000000
11
37.000000
21
100.000000
0
LINE
8
Layer 1
10
37.000000
20
100.000000
11
37.000000
21
110.000000
0
LINE
8
Layer 1
10
37.000000
20
110.000000
11
37.000000
21
110.000000
0
LINE
8
Layer 1
10
311.978000
20
103.092000
11
311.876318
21
102.084717
0
LINE
8
Layer 1
10
311.876318
20
102.084717
11
311.584734
21
101.146312
0
LINE
8
Layer 1
10
311.584734
20
101.146312
11
311.123439
21
100.296952
0
LINE
8
Layer 1
10
311.123439
20
100.296952
11
310.512625
21
99.556800
0
LINE
8
Layer 1
10
310.512625
20
99.556800
11
309.772482
21
98.946023
0
LINE
8
Layer 1
10
309.772482
20
98.946023
11
308.923203
21
98.484788
0
LINE
8
Layer 1
10
308.923203
20
98.484788
11
307.984979
21
98.193258
0
LINE
8
Layer 1
10
307.984979
20
98.193258
11
306.978000
21
98.091600
0
LINE
8
Layer 1
10
306.978000
20
98.091600
11
305.970734
21
98.193258
0
LINE
8
Layer 1
10
305.970734
20
98.193258
11
305.032375
21
98.484788
0
LINE
8
Layer 1
10
305.032375
20
98.484788
11
304.183078
21
98.946023
0
LINE
8
Layer 1
10
304.183078
20
98.946023
11
303.443000
21
99.556800
0
LINE
8
Layer 1
10
303.443000
20
99.556800
11
302.832297
21
100.296952
0
LINE
8
Layer 1
10
302.832297
20
100.296952
11
302.371125
21
101.146312
0
LINE
8
Layer 1
10
302.371125
20
101.146312
11
302.079641
21
102.084717
0
LINE
8
Layer 1
10
302.079641
20
102.084717
11
301.978000
21
103.092000
0
LINE
8
Layer 1
10
301.978000
20
103.092000
11
302.079641
21
104.098979
0
LINE
8
Layer 1
10
302.079641
20
104.098979
11
302.371125
21
105.037203
0
LINE
8
Layer 1
10
302.371125
20
105.037203
11
302.832297
21
105.886482
0
LINE
8
Layer 1
10
302.832297
20
105.886482
11
303.443000
21
106.626625
0
LINE
8
Layer 1
10
303.443000
20
106.626625
11
304.183078
21
107.237439
0
LINE
8
Layer 1
10
304.183078
20
107.237439
11
305.032375
21
107.698734
0
LINE
8
Layer 1
10
305.032375
20
107.698734
11
305.970734
21
107.990318
0
LINE
8
Layer 1
10
305.970734
20
107.990318
11
306.978000
21
108.092000
0
LINE
8
Layer 1
10
306.978000
20
108.092000
11
307.984979
21
107.990318
0
LINE
8
Layer 1
10
307.984979
20
107.990318
11
308.923203
21
107.698734
0
LINE
8
Layer 1
10
308.923203
20
107.698734
11
309.772482
21
107.237439
0
LINE
8
Layer 1
10
309.772482
20
107.237439
11
310.512625
21
106.626625
0
LINE
8
Layer 1
10
310.512625
20
106.626625
11
311.123439
21
105.886482
0
LINE
8
Layer 1
10
311.123439
20
105.886482
11
311.584734
21
105.037203
0
LINE
8
Layer 1
10
311.584734
20
105.037203
11
311.876318
21
104.098979
0
LINE
8
Layer 1
10
311.876318
20
104.098979
11
311.978000
21
103.092000
0
LINE
8
Layer 1
10
311.978000
20
103.092000
11
311.978000
21
103.092000
0
LINE
8
Layer 1
10
284.000000
20
107.000000
11
294.000000
21
107.000000
0
LINE
8
Layer 1
10
294.000000
20
107.000000
11
294.000000
21
97.000400
0
LINE
8
Layer 1
10
294.000000
20
97.000400
11
284.000000
21
97.000400
0
LINE
8
Layer 1
10
284.000000
20
97.000400
11
284.000000
21
107.000000
0
LINE
8
Layer 1
10
284.000000
20
107.000000
11
284.000000
21
107.000000
0
LINE
8
Layer 1
10
71.000000
20
100.700000
11
70.898343
21
99.692981
0
LINE
8
Layer 1
10
70.898343
20
99.692981
11
70.606819
21
98.754775
0
LINE
8
Layer 1
10
70.606819
20
98.754775
11
70.145598
21
97.905556
0
LINE
8
Layer 1
10
70.145598
20
97.905556
11
69.534850
21
97.165500
0
LINE
8
Layer 1
10
69.534850
20
97.165500
11
68.794746
21
96.554781
0
LINE
8
Layer 1
10
68.794746
20
96.554781
11
67.945456
21
96.093575
0
LINE
8
Layer 1
10
67.945456
20
96.093575
11
67.007151
21
95.802056
0
LINE
8
Layer 1
10
67.007151
20
95.802056
11
66.000000
21
95.700400
0
LINE
8
Layer 1
10
66.000000
20
95.700400
11
64.992878
21
95.802056
0
LINE
8
Layer 1
10
64.992878
20
95.802056
11
64.054586
21
96.093575
0
LINE
8
Layer 1
10
64.054586
20
96.093575
11
63.205298
21
96.554781
0
LINE
8
Layer 1
10
63.205298
20
96.554781
11
62.465187
21
97.165500
0
LINE
8
Layer 1
10
62.465187
20
97.165500
11
61.854429
21
97.905556
0
LINE
8
Layer 1
10
61.854429
20
97.905556
11
61.393195
21
98.754775
0
LINE
8
Layer 1
10
61.393195
20
98.754775
11
61.101661
21
99.692981
0
LINE
8
Layer 1
10
61.101661
20
99.692981
11
61.000000
21
100.700000
0
LINE
8
Layer 1
10
61.000000
20
100.700000
11
61.101661
21
101.707266
0
LINE
8
Layer 1
10
61.101661
20
101.707266
11
61.393195
21
102.645625
0
LINE
8
Layer 1
10
61.393195
20
102.645625
11
61.854429
21
103.494922
0
LINE
8
Layer 1
10
61.854429
20
103.494922
11
62.465187
21
104.235000
0
LINE
8
Layer 1
10
62.465187
20
104.235000
11
63.205298
21
104.845703
0
LINE
8
Layer 1
10
63.205298
20
104.845703
11
64.054586
21
105.306875
0
LINE
8
Layer 1
10
64.054586
20
105.306875
11
64.992878
21
105.598359
0
LINE
8
Layer 1
10
64.992878
20
105.598359
11
66.000000
21
105.700000
0
LINE
8
Layer 1
10
66.000000
20
105.700000
11
67.007151
21
105.598359
0
LINE
8
Layer 1
10
67.007151
20
105.598359
11
67.945456
21
105.306875
0
LINE
8
Layer 1
10
67.945456
20
105.306875
11
68.794746
21
104.845703
0
LINE
8
Layer 1
10
68.794746
20
104.845703
11
69.534850
21
104.235000
0
LINE
8
Layer 1
10
69.534850
20
104.235000
11
70.145598
21
103.494922
0
LINE
8
Layer 1
10
70.145598
20
103.494922
11
70.606819
21
102.645625
0
LINE
8
Layer 1
10
70.606819
20
102.645625
11
70.898343
21
101.707266
0
LINE
8
Layer 1
10
70.898343
20
101.707266
11
71.000000
21
100.700000
0
LINE
8
Layer 1
10
71.000000
20
100.700000
11
71.000000
21
100.700000
0
LINE
8
Layer 1
10
273.000000
20
100.000000
11
272.898359
21
98.992981
0
LINE
8
Layer 1
10
272.898359
20
98.992981
11
272.606875
21
98.054775
0
LINE
8
Layer 1
10
272.606875
20
98.054775
11
272.145703
21
97.205556
0
LINE
8
Layer 1
10
272.145703
20
97.205556
11
271.535000
21
96.465500
0
LINE
8
Layer 1
10
271.535000
20
96.465500
11
270.794922
21
95.854781
0
LINE
8
Layer 1
10
270.794922
20
95.854781
11
269.945625
21
95.393575
0
LINE
8
Layer 1
10
269.945625
20
95.393575
11
269.007266
21
95.102056
0
LINE
8
Layer 1
10
269.007266
20
95.102056
11
268.000000
21
95.000400
0
LINE
8
Layer 1
10
268.000000
20
95.000400
11
266.993021
21
95.102056
0
LINE
8
Layer 1
10
266.993021
20
95.102056
11
266.054797
21
95.393575
0
LINE
8
Layer 1
10
266.054797
20
95.393575
11
265.205518
21
95.854781
0
LINE
8
Layer 1
10
265.205518
20
95.854781
11
264.465375
21
96.465500
0
LINE
8
Layer 1
10
264.465375
20
96.465500
11
263.854561
21
97.205556
0
LINE
8
Layer 1
10
263.854561
20
97.205556
11
263.393266
21
98.054775
0
LINE
8
Layer 1
10
263.393266
20
98.054775
11
263.101682
21
98.992981
0
LINE
8
Layer 1
10
263.101682
20
98.992981
11
263.000000
21
100.000000
0
LINE
8
Layer 1
10
263.000000
20
100.000000
11
263.101682
21
101.007266
0
LINE
8
Layer 1
10
263.101682
20
101.007266
11
263.393266
21
101.945625
0
LINE
8
Layer 1
10
263.393266
20
101.945625
11
263.854561
21
102.794922
0
LINE
8
Layer 1
10
263.854561
20
102.794922
11
264.465375
21
103.535000
0
LINE
8
Layer 1
10
264.465375
20
103.535000
11
265.205518
21
104.145703
0
LINE
8
Layer 1
10
265.205518
20
104.145703
11
266.054797
21
104.606875
0
LINE
8
Layer 1
10
266.054797
20
104.606875
11
266.993021
21
104.898359
0
LINE
8
Layer 1
10
266.993021
20
104.898359
11
268.000000
21
105.000000
0
LINE
8
Layer 1
10
268.000000
20
105.000000
11
269.007266
21
104.898359
0
LINE
8
Layer 1
10
269.007266
20
104.898359
11
269.945625
21
104.606875
0
LINE
8
Layer 1
10
269.945625
20
104.606875
11
270.794922
21
104.145703
0
LINE
8
Layer 1
10
270.794922
20
104.145703
11
271.535000
21
103.535000
0
LINE
8
Layer 1
10
271.535000
20
103.535000
11
272.145703
21
102.794922
0
LINE
8
Layer 1
10
272.145703
20
102.794922
11
272.606875
21
101.945625
0
LINE
8
Layer 1
10
272.606875
20
101.945625
11
272.898359
21
101.007266
0
LINE
8
Layer 1
10
272.898359
20
101.007266
11
273.000000
21
100.000000
0
LINE
8
Layer 1
10
273.000000
20
100.000000
11
273.000000
21
100.000000
0
LINE
8
Layer 1
10
243.361000
20
99.766100
11
243.361000
21
104.405000
0
LINE
8
Layer 1
10
243.361000
20
104.405000
11
238.234000
21
104.405000
0
LINE
8
Layer 1
10
238.234000
20
104.405000
11
238.234000
21
99.766100
0
LINE
8
Layer 1
10
238.234000
20
99.766100
11
233.595000
21
99.766100
0
LINE
8
Layer 1
10
233.595000
20
99.766100
11
233.595000
21
94.639800
0
LINE
8
Layer 1
10
233.595000
20
94.639800
11
238.234000
21
94.639800
0
LINE
8
Layer 1
10
238.234000
20
94.639800
11
238.234000
21
90.000400
0
LINE
8
Layer 1
10
238.234000
20
90.000400
11
243.361000
21
90.000400
0
LINE
8
Layer 1
10
243.361000
20
90.000400
11
243.361000
21
94.639800
0
LINE
8
Layer 1
10
243.361000
20
94.639800
11
248.000000
21
94.639800
0
LINE
8
Layer 1
10
248.000000
20
94.639800
11
248.000000
21
99.766100
0
LINE
8
Layer 1
10
248.000000
20
99.766100
11
243.361000
21
99.766100
0
LINE
8
Layer 1
10
243.361000
20
99.766100
11
243.361000
21
99.766100
0
LINE
8
Layer 1
10
117.361000
20
98.766100
11
117.361000
21
103.405000
0
LINE
8
Layer 1
10
117.361000
20
103.405000
11
112.234000
21
103.405000
0
LINE
8
Layer 1
10
112.234000
20
103.405000
11
112.234000
21
98.766100
0
LINE
8
Layer 1
10
112.234000
20
98.766100
11
107.595000
21
98.766100
0
LINE
8
Layer 1
10
107.595000
20
98.766100
11
107.595000
21
93.639800
0
LINE
8
Layer 1
10
107.595000
20
93.639800
11
112.234000
21
93.639800
0
LINE
8
Layer 1
10
112.234000
20
93.639800
11
112.234000
21
89.000400
0
LINE
8
Layer 1
10
112.234000
20
89.000400
11
117.361000
21
89.000400
0
LINE
8
Layer 1
10
117.361000
20
89.000400
11
117.361000
21
93.639800
0
LINE
8
Layer 1
10
117.361000
20
93.639800
11
122.000000
21
93.639800
0
LINE
8
Layer 1
10
122.000000
20
93.639800
11
122.000000
21
98.766100
0
LINE
8
Layer 1
10
122.000000
20
98.766100
11
117.361000
21
98.766100
0
LINE
8
Layer 1
10
117.361000
20
98.766100
11
117.361000
21
98.766100
0
LINE
8
Layer 1
10
144.600000
20
102.600000
11
129.600000
21
102.600000
0
LINE
8
Layer 1
10
129.600000
20
102.600000
11
129.600000
21
94.600400
0
LINE
8
Layer 1
10
129.600000
20
94.600400
11
144.600000
21
94.600400
0
LINE
8
Layer 1
10
144.600000
20
94.600400
11
144.600000
21
102.600000
0
LINE
8
Layer 1
10
144.600000
20
102.600000
11
144.600000
21
102.600000
0
LINE
8
Layer 1
10
216.100000
20
101.700000
11
231.100000
21
101.700000
0
LINE
8
Layer 1
10
231.100000
20
101.700000
11
231.100000
21
93.700400
0
LINE
8
Layer 1
10
231.100000
20
93.700400
11
216.100000
21
93.700400
0
LINE
8
Layer 1
10
216.100000
20
93.700400
11
216.100000
21
101.700000
0
LINE
8
Layer 1
10
216.100000
20
101.700000
11
216.100000
21
101.700000
0
LINE
8
Layer 1
10
13.800000
20
91.600400
11
14.807151
21
91.702057
0
LINE
8
Layer 1
10
14.807151
20
91.702057
11
15.745456
21
91.993581
0
LINE
8
Layer 1
10
15.745456
20
91.993581
11
16.594746
21
92.454802
0
LINE
8
Layer 1
10
16.594746
20
92.454802
11
17.334850
21
93.065550
0
LINE
8
Layer 1
10
17.334850
20
93.065550
11
17.945598
21
93.805654
0
LINE
8
Layer 1
10
17.945598
20
93.805654
11
18.406819
21
94.654944
0
LINE
8
Layer 1
10
18.406819
20
94.654944
11
18.698343
21
95.593249
0
LINE
8
Layer 1
10
18.698343
20
95.593249
11
18.800000
21
96.600400
0
LINE
8
Layer 1
10
18.800000
20
96.600400
11
18.698343
21
97.607534
0
LINE
8
Layer 1
10
18.698343
20
97.607534
11
18.406819
21
98.545794
0
LINE
8
Layer 1
10
18.406819
20
98.545794
11
17.945598
21
99.395020
0
LINE
8
Layer 1
10
17.945598
20
99.395020
11
17.334850
21
100.135050
0
LINE
8
Layer 1
10
17.334850
20
100.135050
11
16.594746
21
100.745724
0
LINE
8
Layer 1
10
16.594746
20
100.745724
11
15.745456
21
101.206881
0
LINE
8
Layer 1
10
15.745456
20
101.206881
11
14.807151
21
101.498360
0
LINE
8
Layer 1
10
14.807151
20
101.498360
11
13.800000
21
101.600000
0
LINE
8
Layer 1
10
13.800000
20
101.600000
11
12.792850
21
101.498360
0
LINE
8
Layer 1
10
12.792850
20
101.498360
11
11.854545
21
101.206881
0
LINE
8
Layer 1
10
11.854545
20
101.206881
11
11.005257
21
100.745724
0
LINE
8
Layer 1
10
11.005257
20
100.745724
11
10.265155
21
100.135050
0
LINE
8
Layer 1
10
10.265155
20
100.135050
11
9.654409
21
99.395020
0
LINE
8
Layer 1
10
9.654409
20
99.395020
11
9.193190
21
98.545794
0
LINE
8
Layer 1
10
9.193190
20
98.545794
11
8.901667
21
97.607534
0
LINE
8
Layer 1
10
8.901667
20
97.607534
11
8.800010
21
96.600400
0
LINE
8
Layer 1
10
8.800010
20
96.600400
11
8.901667
21
95.593249
0
LINE
8
Layer 1
10
8.901667
20
95.593249
11
9.193190
21
94.654944
0
LINE
8
Layer 1
10
9.193190
20
94.654944
11
9.654409
21
93.805654
0
LINE
8
Layer 1
10
9.654409
20
93.805654
11
10.265155
21
93.065550
0
LINE
8
Layer 1
10
10.265155
20
93.065550
11
11.005257
21
92.454802
0
LINE
8
Layer 1
10
11.005257
20
92.454802
11
11.854545
21
91.993581
0
LINE
8
Layer 1
10
11.854545
20
91.993581
11
12.792850
21
91.702057
0
LINE
8
Layer 1
10
12.792850
20
91.702057
11
13.800000
21
91.600400
0
LINE
8
Layer 1
10
13.800000
20
91.600400
11
13.800000
21
91.600400
0
LINE
8
Layer 1
10
36.000000
20
61.000400
11
37.532761
21
61.077905
0
LINE
8
Layer 1
10
37.532761
20
61.077905
11
39.021452
21
61.305375
0
LINE
8
Layer 1
10
39.021452
20
61.305375
11
41.836369
21
62.179958
0
LINE
8
Layer 1
10
41.836369
20
62.179958
11
44.384238
21
63.563633
0
LINE
8
Layer 1
10
44.384238
20
63.563633
11
46.604550
21
65.395888
0
LINE
8
Layer 1
10
46.604550
20
65.395888
11
48.436793
21
67.616206
0
LINE
8
Layer 1
10
48.436793
20
67.616206
11
49.820456
21
70.164073
0
LINE
8
Layer 1
10
49.820456
20
70.164073
11
50.695029
21
72.978976
0
LINE
8
Layer 1
10
50.695029
20
72.978976
11
50.922497
21
74.467655
0
LINE
8
Layer 1
10
50.922497
20
74.467655
11
51.000000
21
76.000400
0
LINE
8
Layer 1
10
51.000000
20
76.000400
11
50.922497
21
77.533145
0
LINE
8
Layer 1
10
50.922497
20
77.533145
11
50.695029
21
79.021824
0
LINE
8
Layer 1
10
50.695029
20
79.021824
11
49.820456
21
81.836727
0
LINE
8
Layer 1
10
49.820456
20
81.836727
11
48.436793
21
84.384594
0
LINE
8
Layer 1
10
48.436793
20
84.384594
11
46.604550
21
86.604912
0
LINE
8
Layer 1
10
46.604550
20
86.604912
11
44.384238
21
88.437167
0
LINE
8
Layer 1
10
44.384238
20
88.437167
11
41.836369
21
89.820842
0
LINE
8
Layer 1
10
41.836369
20
89.820842
11
39.021452
21
90.695425
0
LINE
8
Layer 1
10
39.021452
20
90.695425
11
37.532761
21
90.922895
0
LINE
8
Layer 1
10
37.532761
20
90.922895
11
36.000000
21
91.000400
0
LINE
8
Layer 1
10
36.000000
20
91.000400
11
34.467255
21
90.922895
0
LINE
8
Layer 1
10
34.467255
20
90.922895
11
32.978576
21
90.695425
0
LINE
8
Layer 1
10
32.978576
20
90.695425
11
30.163673
21
89.820842
0
LINE
8
Layer 1
10
30.163673
20
89.820842
11
27.615806
21
88.437167
0
LINE
8
Layer 1
10
27.615806
20
88.437167
11
25.395488
21
86.604912
0
LINE
8
Layer 1
10
25.395488
20
86.604912
11
23.563233
21
84.384594
0
LINE
8
Layer 1
10
23.563233
20
84.384594
11
22.179558
21
81.836727
0
LINE
8
Layer 1
10
22.179558
20
81.836727
11
21.304975
21
79.021824
0
LINE
8
Layer 1
10
21.304975
20
79.021824
11
21.077505
21
77.533145
0
LINE
8
Layer 1
10
21.077505
20
77.533145
11
21.000000
21
76.000400
0
LINE
8
Layer 1
10
21.000000
20
76.000400
11
21.077505
21
74.467655
0
LINE
8
Layer 1
10
21.077505
20
74.467655
11
21.304975
21
72.978976
0
LINE
8
Layer 1
10
21.304975
20
72.978976
11
22.179558
21
70.164073
0
LINE
8
Layer 1
10
22.179558
20
70.164073
11
23.563233
21
67.616206
0
LINE
8
Layer 1
10
23.563233
20
67.616206
11
25.395488
21
65.395888
0
LINE
8
Layer 1
10
25.395488
20
65.395888
11
27.615806
21
63.563633
0
LINE
8
Layer 1
10
27.615806
20
63.563633
11
30.163673
21
62.179958
0
LINE
8
Layer 1
10
30.163673
20
62.179958
11
32.978576
21
61.305375
0
LINE
8
Layer 1
10
32.978576
20
61.305375
11
34.467255
21
61.077905
0
LINE
8
Layer 1
10
34.467255
20
61.077905
11
36.000000
21
61.000400
0
LINE
8
Layer 1
10
36.000000
20
61.000400
11
36.000000
21
61.000400
0
LINE
8
Layer 1
10
319.000000
20
76.000400
11
318.922499
21
74.467655
0
LINE
8
Layer 1
10
318.922499
20
74.467655
11
318.695037
21
72.978976
0
LINE
8
Layer 1
10
318.695037
20
72.978976
11
317.820484
21
70.164073
0
LINE
8
Layer 1
10
317.820484
20
70.164073
11
316.436846
21
67.616206
0
LINE
8
Layer 1
10
316.436846
20
67.616206
11
314.604625
21
65.395888
0
LINE
8
Layer 1
10
314.604625
20
65.395888
11
312.384326
21
63.563633
0
LINE
8
Layer 1
10
312.384326
20
63.563633
11
309.836453
21
62.179958
0
LINE
8
Layer 1
10
309.836453
20
62.179958
11
307.021510
21
61.305375
0
LINE
8
Layer 1
10
307.021510
20
61.305375
11
305.532794
21
61.077905
0
LINE
8
Layer 1
10
305.532794
20
61.077905
11
304.000000
21
61.000400
0
LINE
8
Layer 1
10
304.000000
20
61.000400
11
302.467206
21
61.077905
0
LINE
8
Layer 1
10
302.467206
20
61.077905
11
300.978490
21
61.305375
0
LINE
8
Layer 1
10
300.978490
20
61.305375
11
298.163547
21
62.179958
0
LINE
8
Layer 1
10
298.163547
20
62.179958
11
295.615674
21
63.563633
0
LINE
8
Layer 1
10
295.615674
20
63.563633
11
293.395375
21
65.395888
0
LINE
8
Layer 1
10
293.395375
20
65.395888
11
291.563154
21
67.616206
0
LINE
8
Layer 1
10
291.563154
20
67.616206
11
290.179516
21
70.164073
0
LINE
8
Layer 1
10
290.179516
20
70.164073
11
289.304963
21
72.978976
0
LINE
8
Layer 1
10
289.304963
20
72.978976
11
289.077501
21
74.467655
0
LINE
8
Layer 1
10
289.077501
20
74.467655
11
289.000000
21
76.000400
0
LINE
8
Layer 1
10
289.000000
20
76.000400
11
289.077501
21
77.533145
0
LINE
8
Layer 1
10
289.077501
20
77.533145
11
289.304963
21
79.021824
0
LINE
8
Layer 1
10
289.304963
20
79.021824
11
290.179516
21
81.836727
0
LINE
8
Layer 1
10
290.179516
20
81.836727
11
291.563154
21
84.384594
0
LINE
8
Layer 1
10
291.563154
20
84.384594
11
293.395375
21
86.604912
0
LINE
8
Layer 1
10
293.395375
20
86.604912
11
295.615674
21
88.437167
0
LINE
8
Layer 1
10
295.615674
20
88.437167
11
298.163547
21
89.820842
0
LINE
8
Layer 1
10
298.163547
20
89.820842
11
300.978490
21
90.695425
0
LINE
8
Layer 1
10
300.978490
20
90.695425
11
302.467206
21
90.922895
0
LINE
8
Layer 1
10
302.467206
20
90.922895
11
304.000000
21
91.000400
0
LINE
8
Layer 1
10
304.000000
20
91.000400
11
305.532794
21
90.922895
0
LINE
8
Layer 1
10
305.532794
20
90.922895
11
307.021510
21
90.695425
0
LINE
8
Layer 1
10
307.021510
20
90.695425
11
309.836453
21
89.820842
0
LINE
8
Layer 1
10
309.836453
20
89.820842
11
312.384326
21
88.437167
0
LINE
8
Layer 1
10
312.384326
20
88.437167
11
314.604625
21
86.604912
0
LINE
8
Layer 1
10
314.604625
20
86.604912
11
316.436846
21
84.384594
0
LINE
8
Layer 1
10
316.436846
20
84.384594
11
317.820484
21
81.836727
0
LINE
8
Layer 1
10
317.820484
20
81.836727
11
318.695037
21
79.021824
0
LINE
8
Layer 1
10
318.695037
20
79.021824
11
318.922499
21
77.533145
0
LINE
8
Layer 1
10
318.922499
20
77.533145
11
319.000000
21
76.000400
0
LINE
8
Layer 1
10
319.000000
20
76.000400
11
319.000000
21
76.000400
0
LINE
8
Layer 1
10
161.100000
20
80.000400
11
146.100000
21
80.000400
0
LINE
8
Layer 1
10
146.100000
20
80.000400
11
146.100000
21
72.000400
0
LINE
8
Layer 1
10
146.100000
20
72.000400
11
161.100000
21
72.000400
0
LINE
8
Layer 1
10
161.100000
20
72.000400
11
161.100000
21
80.000400
0
LINE
8
Layer 1
10
161.100000
20
80.000400
11
161.100000
21
80.000400
0
LINE
8
Layer 1
10
169.900000
20
80.000400
11
184.900000
21
80.000400
0
LINE
8
Layer 1
10
184.900000
20
80.000400
11
184.900000
21
72.000400
0
LINE
8
Layer 1
10
184.900000
20
72.000400
11
169.900000
21
72.000400
0
LINE
8
Layer 1
10
169.900000
20
72.000400
11
169.900000
21
80.000400
0
LINE
8
Layer 1
10
169.900000
20
80.000400
11
169.900000
21
80.000400
0
LINE
8
Layer 1
10
245.361000
20
60.405400
11
245.361000
21
55.766100
0
LINE
8
Layer 1
10
245.361000
20
55.766100
11
250.000000
21
55.766100
0
LINE
8
Layer 1
10
250.000000
20
55.766100
11
250.000000
21
50.639700
0
LINE
8
Layer 1
10
250.000000
20
50.639700
11
245.361000
21
50.639700
0
LINE
8
Layer 1
10
245.361000
20
50.639700
11
245.361000
21
46.000400
0
LINE
8
Layer 1
10
245.361000
20
46.000400
11
240.234000
21
46.000400
0
LINE
8
Layer 1
10
240.234000
20
46.000400
11
240.234000
21
50.639700
0
LINE
8
Layer 1
10
240.234000
20
50.639700
11
235.595000
21
50.639700
0
LINE
8
Layer 1
10
235.595000
20
50.639700
11
235.595000
21
55.766100
0
LINE
8
Layer 1
10
235.595000
20
55.766100
11
240.234000
21
55.766100
0
LINE
8
Layer 1
10
240.234000
20
55.766100
11
240.234000
21
60.405400
0
LINE
8
Layer 1
10
240.234000
20
60.405400
11
245.361000
21
60.405400
0
LINE
8
Layer 1
10
245.361000
20
60.405400
11
245.361000
21
60.405400
0
LINE
8
Layer 1
10
19.000000
20
53.800400
11
18.898343
21
52.793249
0
LINE
8
Layer 1
10
18.898343
20
52.793249
11
18.606819
21
51.854944
0
LINE
8
Layer 1
10
18.606819
20
51.854944
11
18.145598
21
51.005654
0
LINE
8
Layer 1
10
18.145598
20
51.005654
11
17.534850
21
50.265550
0
LINE
8
Layer 1
10
17.534850
20
50.265550
11
16.794746
21
49.654802
0
LINE
8
Layer 1
10
16.794746
20
49.654802
11
15.945456
21
49.193581
0
LINE
8
Layer 1
10
15.945456
20
49.193581
11
15.007151
21
48.902057
0
LINE
8
Layer 1
10
15.007151
20
48.902057
11
14.000000
21
48.800400
0
LINE
8
Layer 1
10
14.000000
20
48.800400
11
12.992850
21
48.902057
0
LINE
8
Layer 1
10
12.992850
20
48.902057
11
12.054545
21
49.193581
0
LINE
8
Layer 1
10
12.054545
20
49.193581
11
11.205257
21
49.654802
0
LINE
8
Layer 1
10
11.205257
20
49.654802
11
10.465155
21
50.265550
0
LINE
8
Layer 1
10
10.465155
20
50.265550
11
9.854409
21
51.005654
0
LINE
8
Layer 1
10
9.854409
20
51.005654
11
9.393190
21
51.854944
0
LINE
8
Layer 1
10
9.393190
20
51.854944
11
9.101667
21
52.793249
0
LINE
8
Layer 1
10
9.101667
20
52.793249
11
9.000010
21
53.800400
0
LINE
8
Layer 1
10
9.000010
20
53.800400
11
9.101667
21
54.807551
0
LINE
8
Layer 1
10
9.101667
20
54.807551
11
9.393190
21
55.745856
0
LINE
8
Layer 1
10
9.393190
20
55.745856
11
9.854409
21
56.595146
0
LINE
8
Layer 1
10
9.854409
20
56.595146
11
10.465155
21
57.335250
0
LINE
8
Layer 1
10
10.465155
20
57.335250
11
11.205257
21
57.945998
0
LINE
8
Layer 1
10
11.205257
20
57.945998
11
12.054545
21
58.407219
0
LINE
8
Layer 1
10
12.054545
20
58.407219
11
12.992850
21
58.698743
0
LINE
8
Layer 1
10
12.992850
20
58.698743
11
14.000000
21
58.800400
0
LINE
8
Layer 1
10
14.000000
20
58.800400
11
15.007151
21
58.698743
0
LINE
8
Layer 1
10
15.007151
20
58.698743
11
15.945456
21
58.407219
0
LINE
8
Layer 1
10
15.945456
20
58.407219
11
16.794746
21
57.945998
0
LINE
8
Layer 1
10
16.794746
20
57.945998
11
17.534850
21
57.335250
0
LINE
8
Layer 1
10
17.534850
20
57.335250
11
18.145598
21
56.595146
0
LINE
8
Layer 1
10
18.145598
20
56.595146
11
18.606819
21
55.745856
0
LINE
8
Layer 1
10
18.606819
20
55.745856
11
18.898343
21
54.807551
0
LINE
8
Layer 1
10
18.898343
20
54.807551
11
19.000000
21
53.800400
0
LINE
8
Layer 1
10
19.000000
20
53.800400
11
19.000000
21
53.800400
0
LINE
8
Layer 1
10
116.361000
20
58.405400
11
116.361000
21
53.766100
0
LINE
8
Layer 1
10
116.361000
20
53.766100
11
121.000000
21
53.766100
0
LINE
8
Layer 1
10
121.000000
20
53.766100
11
121.000000
21
48.639700
0
LINE
8
Layer 1
10
121.000000
20
48.639700
11
116.361000
21
48.639700
0
LINE
8
Layer 1
10
116.361000
20
48.639700
11
116.361000
21
44.000400
0
LINE
8
Layer 1
10
116.361000
20
44.000400
11
111.234000
21
44.000400
0
LINE
8
Layer 1
10
111.234000
20
44.000400
11
111.234000
21
48.639700
0
LINE
8
Layer 1
10
111.234000
20
48.639700
11
106.595000
21
48.639700
0
LINE
8
Layer 1
10
106.595000
20
48.639700
11
106.595000
21
53.766100
0
LINE
8
Layer 1
10
106.595000
20
53.766100
11
111.234000
21
53.766100
0
LINE
8
Layer 1
10
111.234000
20
53.766100
11
111.234000
21
58.405400
0
LINE
8
Layer 1
10
111.234000
20
58.405400
11
116.361000
21
58.405400
0
LINE
8
Layer 1
10
116.361000
20
58.405400
11
116.361000
21
58.405400
0
LINE
8
Layer 1
10
33.000000
20
57.000400
11
43.000000
21
57.000400
0
LINE
8
Layer 1
10
43.000000
20
57.000400
11
43.000000
21
47.000400
0
LINE
8
Layer 1
10
43.000000
20
47.000400
11
33.000000
21
47.000400
0
LINE
8
Layer 1
10
33.000000
20
47.000400
11
33.000000
21
57.000400
0
LINE
8
Layer 1
10
33.000000
20
57.000400
11
33.000000
21
57.000400
0
LINE
8
Layer 1
10
297.000000
20
57.000400
11
287.000000
21
57.000400
0
LINE
8
Layer 1
10
287.000000
20
57.000400
11
287.000000
21
47.000400
0
LINE
8
Layer 1
10
287.000000
20
47.000400
11
297.000000
21
47.000400
0
LINE
8
Layer 1
10
297.000000
20
47.000400
11
297.000000
21
57.000400
0
LINE
8
Layer 1
10
297.000000
20
57.000400
11
297.000000
21
57.000400
0
LINE
8
Layer 1
10
309.000000
20
46.800400
11
310.007266
21
46.902057
0
LINE
8
Layer 1
10
310.007266
20
46.902057
11
310.945625
21
47.193581
0
LINE
8
Layer 1
10
310.945625
20
47.193581
11
311.794922
21
47.654802
0
LINE
8
Layer 1
10
311.794922
20
47.654802
11
312.535000
21
48.265550
0
LINE
8
Layer 1
10
312.535000
20
48.265550
11
313.145703
21
49.005654
0
LINE
8
Layer 1
10
313.145703
20
49.005654
11
313.606875
21
49.854944
0
LINE
8
Layer 1
10
313.606875
20
49.854944
11
313.898359
21
50.793249
0
LINE
8
Layer 1
10
313.898359
20
50.793249
11
314.000000
21
51.800400
0
LINE
8
Layer 1
10
314.000000
20
51.800400
11
313.898359
21
52.807551
0
LINE
8
Layer 1
10
313.898359
20
52.807551
11
313.606875
21
53.745856
0
LINE
8
Layer 1
10
313.606875
20
53.745856
11
313.145703
21
54.595146
0
LINE
8
Layer 1
10
313.145703
20
54.595146
11
312.535000
21
55.335250
0
LINE
8
Layer 1
10
312.535000
20
55.335250
11
311.794922
21
55.945998
0
LINE
8
Layer 1
10
311.794922
20
55.945998
11
310.945625
21
56.407219
0
LINE
8
Layer 1
10
310.945625
20
56.407219
11
310.007266
21
56.698743
0
LINE
8
Layer 1
10
310.007266
20
56.698743
11
309.000000
21
56.800400
0
LINE
8
Layer 1
10
309.000000
20
56.800400
11
307.993021
21
56.698743
0
LINE
8
Layer 1
10
307.993021
20
56.698743
11
307.054797
21
56.407219
0
LINE
8
Layer 1
10
307.054797
20
56.407219
11
306.205518
21
55.945998
0
LINE
8
Layer 1
10
306.205518
20
55.945998
11
305.465375
21
55.335250
0
LINE
8
Layer 1
10
305.465375
20
55.335250
11
304.854561
21
54.595146
0
LINE
8
Layer 1
10
304.854561
20
54.595146
11
304.393266
21
53.745856
0
LINE
8
Layer 1
10
304.393266
20
53.745856
11
304.101682
21
52.807551
0
LINE
8
Layer 1
10
304.101682
20
52.807551
11
304.000000
21
51.800400
0
LINE
8
Layer 1
10
304.000000
20
51.800400
11
304.101682
21
50.793249
0
LINE
8
Layer 1
10
304.101682
20
50.793249
11
304.393266
21
49.854944
0
LINE
8
Layer 1
10
304.393266
20
49.854944
11
304.854561
21
49.005654
0
LINE
8
Layer 1
10
304.854561
20
49.005654
11
305.465375
21
48.265550
0
LINE
8
Layer 1
10
305.465375
20
48.265550
11
306.205518
21
47.654802
0
LINE
8
Layer 1
10
306.205518
20
47.654802
11
307.054797
21
47.193581
0
LINE
8
Layer 1
10
307.054797
20
47.193581
11
307.993021
21
46.902057
0
LINE
8
Layer 1
10
307.993021
20
46.902057
11
309.000000
21
46.800400
0
LINE
8
Layer 1
10
309.000000
20
46.800400
11
309.000000
21
46.800400
0
LINE
8
Layer 1
10
215.100000
20
56.700400
11
230.100000
21
56.700400
0
LINE
8
Layer 1
10
230.100000
20
56.700400
11
230.100000
21
48.700400
0
LINE
8
Layer 1
10
230.100000
20
48.700400
11
215.100000
21
48.700400
0
LINE
8
Layer 1
10
215.100000
20
48.700400
11
215.100000
21
56.700400
0
LINE
8
Layer 1
10
215.100000
20
56.700400
11
215.100000
21
56.700400
0
LINE
8
Layer 1
10
270.000000
20
46.000400
11
271.007266
21
46.102057
0
LINE
8
Layer 1
10
271.007266
20
46.102057
11
271.945625
21
46.393581
0
LINE
8
Layer 1
10
271.945625
20
46.393581
11
272.794922
21
46.854802
0
LINE
8
Layer 1
10
272.794922
20
46.854802
11
273.535000
21
47.465550
0
LINE
8
Layer 1
10
273.535000
20
47.465550
11
274.145703
21
48.205654
0
LINE
8
Layer 1
10
274.145703
20
48.205654
11
274.606875
21
49.054944
0
LINE
8
Layer 1
10
274.606875
20
49.054944
11
274.898359
21
49.993249
0
LINE
8
Layer 1
10
274.898359
20
49.993249
11
275.000000
21
51.000400
0
LINE
8
Layer 1
10
275.000000
20
51.000400
11
274.898359
21
52.007551
0
LINE
8
Layer 1
10
274.898359
20
52.007551
11
274.606875
21
52.945856
0
LINE
8
Layer 1
10
274.606875
20
52.945856
11
274.145703
21
53.795146
0
LINE
8
Layer 1
10
274.145703
20
53.795146
11
273.535000
21
54.535250
0
LINE
8
Layer 1
10
273.535000
20
54.535250
11
272.794922
21
55.145998
0
LINE
8
Layer 1
10
272.794922
20
55.145998
11
271.945625
21
55.607219
0
LINE
8
Layer 1
10
271.945625
20
55.607219
11
271.007266
21
55.898743
0
LINE
8
Layer 1
10
271.007266
20
55.898743
11
270.000000
21
56.000400
0
LINE
8
Layer 1
10
270.000000
20
56.000400
11
268.993021
21
55.898743
0
LINE
8
Layer 1
10
268.993021
20
55.898743
11
268.054797
21
55.607219
0
LINE
8
Layer 1
10
268.054797
20
55.607219
11
267.205518
21
55.145998
0
LINE
8
Layer 1
10
267.205518
20
55.145998
11
266.465375
21
54.535250
0
LINE
8
Layer 1
10
266.465375
20
54.535250
11
265.854561
21
53.795146
0
LINE
8
Layer 1
10
265.854561
20
53.795146
11
265.393266
21
52.945856
0
LINE
8
Layer 1
10
265.393266
20
52.945856
11
265.101682
21
52.007551
0
LINE
8
Layer 1
10
265.101682
20
52.007551
11
265.000000
21
51.000400
0
LINE
8
Layer 1
10
265.000000
20
51.000400
11
265.101682
21
49.993249
0
LINE
8
Layer 1
10
265.101682
20
49.993249
11
265.393266
21
49.054944
0
LINE
8
Layer 1
10
265.393266
20
49.054944
11
265.854561
21
48.205654
0
LINE
8
Layer 1
10
265.854561
20
48.205654
11
266.465375
21
47.465550
0
LINE
8
Layer 1
10
266.465375
20
47.465550
11
267.205518
21
46.854802
0
LINE
8
Layer 1
10
267.205518
20
46.854802
11
268.054797
21
46.393581
0
LINE
8
Layer 1
10
268.054797
20
46.393581
11
268.993021
21
46.102057
0
LINE
8
Layer 1
10
268.993021
20
46.102057
11
270.000000
21
46.000400
0
LINE
8
Layer 1
10
270.000000
20
46.000400
11
270.000000
21
46.000400
0
LINE
8
Layer 1
10
142.600000
20
54.600400
11
127.600000
21
54.600400
0
LINE
8
Layer 1
10
127.600000
20
54.600400
11
127.600000
21
46.600400
0
LINE
8
Layer 1
10
127.600000
20
46.600400
11
142.600000
21
46.600400
0
LINE
8
Layer 1
10
142.600000
20
46.600400
11
142.600000
21
54.600400
0
LINE
8
Layer 1
10
142.600000
20
54.600400
11
142.600000
21
54.600400
0
LINE
8
Layer 1
10
64.900000
20
41.400400
11
65.907151
21
41.502057
0
LINE
8
Layer 1
10
65.907151
20
41.502057
11
66.845456
21
41.793581
0
LINE
8
Layer 1
10
66.845456
20
41.793581
11
67.694746
21
42.254802
0
LINE
8
Layer 1
10
67.694746
20
42.254802
11
68.434850
21
42.865550
0
LINE
8
Layer 1
10
68.434850
20
42.865550
11
69.045598
21
43.605654
0
LINE
8
Layer 1
10
69.045598
20
43.605654
11
69.506819
21
44.454944
0
LINE
8
Layer 1
10
69.506819
20
44.454944
11
69.798343
21
45.393249
0
LINE
8
Layer 1
10
69.798343
20
45.393249
11
69.900000
21
46.400400
0
LINE
8
Layer 1
10
69.900000
20
46.400400
11
69.798343
21
47.407551
0
LINE
8
Layer 1
10
69.798343
20
47.407551
11
69.506819
21
48.345856
0
LINE
8
Layer 1
10
69.506819
20
48.345856
11
69.045598
21
49.195146
0
LINE
8
Layer 1
10
69.045598
20
49.195146
11
68.434850
21
49.935250
0
LINE
8
Layer 1
10
68.434850
20
49.935250
11
67.694746
21
50.545998
0
LINE
8
Layer 1
10
67.694746
20
50.545998
11
66.845456
21
51.007219
0
LINE
8
Layer 1
10
66.845456
20
51.007219
11
65.907151
21
51.298743
0
LINE
8
Layer 1
10
65.907151
20
51.298743
11
64.900000
21
51.400400
0
LINE
8
Layer 1
10
64.900000
20
51.400400
11
63.892878
21
51.298743
0
LINE
8
Layer 1
10
63.892878
20
51.298743
11
62.954586
21
51.007219
0
LINE
8
Layer 1
10
62.954586
20
51.007219
11
62.105298
21
50.545998
0
LINE
8
Layer 1
10
62.105298
20
50.545998
11
61.365188
21
49.935250
0
LINE
8
Layer 1
10
61.365188
20
49.935250
11
60.754429
21
49.195146
0
LINE
8
Layer 1
10
60.754429
20
49.195146
11
60.293195
21
48.345856
0
LINE
8
Layer 1
10
60.293195
20
48.345856
11
60.001661
21
47.407551
0
LINE
8
Layer 1
10
60.001661
20
47.407551
11
59.900000
21
46.400400
0
LINE
8
Layer 1
10
59.900000
20
46.400400
11
60.001661
21
45.393249
0
LINE
8
Layer 1
10
60.001661
20
45.393249
11
60.293195
21
44.454944
0
LINE
8
Layer 1
10
60.293195
20
44.454944
11
60.754429
21
43.605654
0
LINE
8
Layer 1
10
60.754429
20
43.605654
11
61.365188
21
42.865550
0
LINE
8
Layer 1
10
61.365188
20
42.865550
11
62.105298
21
42.254802
0
LINE
8
Layer 1
10
62.105298
20
42.254802
11
62.954586
21
41.793581
0
LINE
8
Layer 1
10
62.954586
20
41.793581
11
63.892878
21
41.502057
0
LINE
8
Layer 1
10
63.892878
20
41.502057
11
64.900000
21
41.400400
0
LINE
8
Layer 1
10
64.900000
20
41.400400
11
64.900000
21
41.400400
0
LINE
8
Layer 1
10
20.800000
20
28.200400
11
21.807151
21
28.302057
0
LINE
8
Layer 1
10
21.807151
20
28.302057
11
22.745456
21
28.593581
0
LINE
8
Layer 1
10
22.745456
20
28.593581
11
23.594746
21
29.054802
0
LINE
8
Layer 1
10
23.594746
20
29.054802
11
24.334850
21
29.665550
0
LINE
8
Layer 1
10
24.334850
20
29.665550
11
24.945598
21
30.405654
0
LINE
8
Layer 1
10
24.945598
20
30.405654
11
25.406819
21
31.254944
0
LINE
8
Layer 1
10
25.406819
20
31.254944
11
25.698343
21
32.193249
0
LINE
8
Layer 1
10
25.698343
20
32.193249
11
25.800000
21
33.200400
0
LINE
8
Layer 1
10
25.800000
20
33.200400
11
25.698343
21
34.207551
0
LINE
8
Layer 1
10
25.698343
20
34.207551
11
25.406819
21
35.145856
0
LINE
8
Layer 1
10
25.406819
20
35.145856
11
24.945598
21
35.995146
0
LINE
8
Layer 1
10
24.945598
20
35.995146
11
24.334850
21
36.735250
0
LINE
8
Layer 1
10
24.334850
20
36.735250
11
23.594746
21
37.345998
0
LINE
8
Layer 1
10
23.594746
20
37.345998
11
22.745456
21
37.807219
0
LINE
8
Layer 1
10
22.745456
20
37.807219
11
21.807151
21
38.098743
0
LINE
8
Layer 1
10
21.807151
20
38.098743
11
20.800000
21
38.200400
0
LINE
8
Layer 1
10
20.800000
20
38.200400
11
19.792849
21
38.098743
0
LINE
8
Layer 1
10
19.792849
20
38.098743
11
18.854544
21
37.807219
0
LINE
8
Layer 1
10
18.854544
20
37.807219
11
18.005254
21
37.345998
0
LINE
8
Layer 1
10
18.005254
20
37.345998
11
17.265150
21
36.735250
0
LINE
8
Layer 1
10
17.265150
20
36.735250
11
16.654402
21
35.995146
0
LINE
8
Layer 1
10
16.654402
20
35.995146
11
16.193181
21
35.145856
0
LINE
8
Layer 1
10
16.193181
20
35.145856
11
15.901657
21
34.207551
0
LINE
8
Layer 1
10
15.901657
20
34.207551
11
15.800000
21
33.200400
0
LINE
8
Layer 1
10
15.800000
20
33.200400
11
15.901657
21
32.193249
0
LINE
8
Layer 1
10
15.901657
20
32.193249
11
16.193181
21
31.254944
0
LINE
8
Layer 1
10
16.193181
20
31.254944
11
16.654402
21
30.405654
0
LINE
8
Layer 1
10
16.654402
20
30.405654
11
17.265150
21
29.665550
0
LINE
8
Layer 1
10
17.265150
20
29.665550
11
18.005254
21
29.054802
0
LINE
8
Layer 1
10
18.005254
20
29.054802
11
18.854544
21
28.593581
0
LINE
8
Layer 1
10
18.854544
20
28.593581
11
19.792849
21
28.302057
0
LINE
8
Layer 1
10
19.792849
20
28.302057
11
20.800000
21
28.200400
0
LINE
8
Layer 1
10
20.800000
20
28.200400
11
20.800000
21
28.200400
0
LINE
8
Layer 1
10
296.000000
20
38.000400
11
286.000000
21
38.000400
0
LINE
8
Layer 1
10
286.000000
20
38.000400
11
286.000000
21
28.000400
0
LINE
8
Layer 1
10
286.000000
20
28.000400
11
296.000000
21
28.000400
0
LINE
8
Layer 1
10
296.000000
20
28.000400
11
296.000000
21
38.000400
0
LINE
8
Layer 1
10
296.000000
20
38.000400
11
296.000000
21
38.000400
0
LINE
8
Layer 1
10
36.000000
20
37.000400
11
46.000000
21
37.000400
0
LINE
8
Layer 1
10
46.000000
20
37.000400
11
46.000000
21
27.000400
0
LINE
8
Layer 1
10
46.000000
20
27.000400
11
36.000000
21
27.000400
0
LINE
8
Layer 1
10
36.000000
20
27.000400
11
36.000000
21
37.000400
0
LINE
8
Layer 1
10
36.000000
20
37.000400
11
36.000000
21
37.000400
0
LINE
8
Layer 1
10
310.800000
20
30.200400
11
310.698359
21
29.193249
0
LINE
8
Layer 1
10
310.698359
20
29.193249
11
310.406875
21
28.254944
0
LINE
8
Layer 1
10
310.406875
20
28.254944
11
309.945703
21
27.405654
0
LINE
8
Layer 1
10
309.945703
20
27.405654
11
309.335000
21
26.665550
0
LINE
8
Layer 1
10
309.335000
20
26.665550
11
308.594922
21
26.054802
0
LINE
8
Layer 1
10
308.594922
20
26.054802
11
307.745625
21
25.593581
0
LINE
8
Layer 1
10
307.745625
20
25.593581
11
306.807266
21
25.302057
0
LINE
8
Layer 1
10
306.807266
20
25.302057
11
305.800000
21
25.200400
0
LINE
8
Layer 1
10
305.800000
20
25.200400
11
304.793021
21
25.302057
0
LINE
8
Layer 1
10
304.793021
20
25.302057
11
303.854797
21
25.593581
0
LINE
8
Layer 1
10
303.854797
20
25.593581
11
303.005518
21
26.054802
0
LINE
8
Layer 1
10
303.005518
20
26.054802
11
302.265375
21
26.665550
0
LINE
8
Layer 1
10
302.265375
20
26.665550
11
301.654561
21
27.405654
0
LINE
8
Layer 1
10
301.654561
20
27.405654
11
301.193266
21
28.254944
0
LINE
8
Layer 1
10
301.193266
20
28.254944
11
300.901682
21
29.193249
0
LINE
8
Layer 1
10
300.901682
20
29.193249
11
300.800000
21
30.200400
0
LINE
8
Layer 1
10
300.800000
20
30.200400
11
300.901682
21
31.207551
0
LINE
8
Layer 1
10
300.901682
20
31.207551
11
301.193266
21
32.145856
0
LINE
8
Layer 1
10
301.193266
20
32.145856
11
301.654561
21
32.995146
0
LINE
8
Layer 1
10
301.654561
20
32.995146
11
302.265375
21
33.735250
0
LINE
8
Layer 1
10
302.265375
20
33.735250
11
303.005518
21
34.345998
0
LINE
8
Layer 1
10
303.005518
20
34.345998
11
303.854797
21
34.807219
0
LINE
8
Layer 1
10
303.854797
20
34.807219
11
304.793021
21
35.098743
0
LINE
8
Layer 1
10
304.793021
20
35.098743
11
305.800000
21
35.200400
0
LINE
8
Layer 1
10
305.800000
20
35.200400
11
306.807266
21
35.098743
0
LINE
8
Layer 1
10
306.807266
20
35.098743
11
307.745625
21
34.807219
0
LINE
8
Layer 1
10
307.745625
20
34.807219
11
308.594922
21
34.345998
0
LINE
8
Layer 1
10
308.594922
20
34.345998
11
309.335000
21
33.735250
0
LINE
8
Layer 1
10
309.335000
20
33.735250
11
309.945703
21
32.995146
0
LINE
8
Layer 1
10
309.945703
20
32.995146
11
310.406875
21
32.145856
0
LINE
8
Layer 1
10
310.406875
20
32.145856
11
310.698359
21
31.207551
0
LINE
8
Layer 1
10
310.698359
20
31.207551
11
310.800000
21
30.200400
0
LINE
8
Layer 1
10
310.800000
20
30.200400
11
310.800000
21
30.200400
0
LINE
8
Layer 1
10
40.400000
20
15.900400
11
40.298343
21
14.893249
0
LINE
8
Layer 1
10
40.298343
20
14.893249
11
40.006819
21
13.954944
0
LINE
8
Layer 1
10
40.006819
20
13.954944
11
39.545598
21
13.105654
0
LINE
8
Layer 1
10
39.545598
20
13.105654
11
38.934850
21
12.365550
0
LINE
8
Layer 1
10
38.934850
20
12.365550
11
38.194746
21
11.754802
0
LINE
8
Layer 1
10
38.194746
20
11.754802
11
37.345456
21
11.293581
0
LINE
8
Layer 1
10
37.345456
20
11.293581
11
36.407151
21
11.002057
0
LINE
8
Layer 1
10
36.407151
20
11.002057
11
35.400000
21
10.900400
0
LINE
8
Layer 1
10
35.400000
20
10.900400
11
34.392849
21
11.002057
0
LINE
8
Layer 1
10
34.392849
20
11.002057
11
33.454544
21
11.293581
0
LINE
8
Layer 1
10
33.454544
20
11.293581
11
32.605254
21
11.754802
0
LINE
8
Layer 1
10
32.605254
20
11.754802
11
31.865150
21
12.365550
0
LINE
8
Layer 1
10
31.865150
20
12.365550
11
31.254402
21
13.105654
0
LINE
8
Layer 1
10
31.254402
20
13.105654
11
30.793181
21
13.954944
0
LINE
8
Layer 1
10
30.793181
20
13.954944
11
30.501657
21
14.893249
0
LINE
8
Layer 1
10
30.501657
20
14.893249
11
30.400000
21
15.900400
0
LINE
8
Layer 1
10
30.400000
20
15.900400
11
30.501657
21
16.907522
0
LINE
8
Layer 1
10
30.501657
20
16.907522
11
30.793181
21
17.845814
0
LINE
8
Layer 1
10
30.793181
20
17.845814
11
31.254402
21
18.695102
0
LINE
8
Layer 1
10
31.254402
20
18.695102
11
31.865150
21
19.435212
0
LINE
8
Layer 1
10
31.865150
20
19.435212
11
32.605254
21
20.045971
0
LINE
8
Layer 1
10
32.605254
20
20.045971
11
33.454544
21
20.507205
0
LINE
8
Layer 1
10
33.454544
20
20.507205
11
34.392849
21
20.798739
0
LINE
8
Layer 1
10
34.392849
20
20.798739
11
35.400000
21
20.900400
0
LINE
8
Layer 1
10
35.400000
20
20.900400
11
36.407151
21
20.798739
0
LINE
8
Layer 1
10
36.407151
20
20.798739
11
37.345456
21
20.507205
0
LINE
8
Layer 1
10
37.345456
20
20.507205
11
38.194746
21
20.045971
0
LINE
8
Layer 1
10
38.194746
20
20.045971
11
38.934850
21
19.435212
0
LINE
8
Layer 1
10
38.934850
20
19.435212
11
39.545598
21
18.695102
0
LINE
8
Layer 1
10
39.545598
20
18.695102
11
40.006819
21
17.845814
0
LINE
8
Layer 1
10
40.006819
20
17.845814
11
40.298343
21
16.907522
0
LINE
8
Layer 1
10
40.298343
20
16.907522
11
40.400000
21
15.900400
0
LINE
8
Layer 1
10
40.400000
20
15.900400
11
40.400000
21
15.900400
0
LINE
8
Layer 1
10
295.400000
20
14.900400
11
295.298359
21
13.893248
0
LINE
8
Layer 1
10
295.298359
20
13.893248
11
295.006875
21
12.954939
0
LINE
8
Layer 1
10
295.006875
20
12.954939
11
294.545703
21
12.105644
0
LINE
8
Layer 1
10
294.545703
20
12.105644
11
293.935000
21
11.365535
0
LINE
8
Layer 1
10
293.935000
20
11.365535
11
293.194922
21
10.754782
0
LINE
8
Layer 1
10
293.194922
20
10.754782
11
292.345625
21
10.293556
0
LINE
8
Layer 1
10
292.345625
20
10.293556
11
291.407266
21
10.002028
0
LINE
8
Layer 1
10
291.407266
20
10.002028
11
290.400000
21
9.900370
0
LINE
8
Layer 1
10
290.400000
20
9.900370
11
289.393021
21
10.002028
0
LINE
8
Layer 1
10
289.393021
20
10.002028
11
288.454797
21
10.293556
0
LINE
8
Layer 1
10
288.454797
20
10.293556
11
287.605518
21
10.754782
0
LINE
8
Layer 1
10
287.605518
20
10.754782
11
286.865375
21
11.365535
0
LINE
8
Layer 1
10
286.865375
20
11.365535
11
286.254561
21
12.105644
0
LINE
8
Layer 1
10
286.254561
20
12.105644
11
285.793266
21
12.954939
0
LINE
8
Layer 1
10
285.793266
20
12.954939
11
285.501682
21
13.893248
0
LINE
8
Layer 1
10
285.501682
20
13.893248
11
285.400000
21
14.900400
0
LINE
8
Layer 1
10
285.400000
20
14.900400
11
285.501682
21
15.907522
0
LINE
8
Layer 1
10
285.501682
20
15.907522
11
285.793266
21
16.845814
0
LINE
8
Layer 1
10
285.793266
20
16.845814
11
286.254561
21
17.695102
0
LINE
8
Layer 1
10
286.254561
20
17.695102
11
286.865375
21
18.435212
0
LINE
8
Layer 1
10
286.865375
20
18.435212
11
287.605518
21
19.045971
0
LINE
8
Layer 1
10
287.605518
20
19.045971
11
288.454797
21
19.507205
0
LINE
8
Layer 1
10
288.454797
20
19.507205
11
289.393021
21
19.798739
0
LINE
8
Layer 1
10
289.393021
20
19.798739
11
290.400000
21
19.900400
0
LINE
8
Layer 1
10
290.400000
20
19.900400
11
291.407266
21
19.798739
0
LINE
8
Layer 1
10
291.407266
20
19.798739
11
292.345625
21
19.507205
0
LINE
8
Layer 1
10
292.345625
20
19.507205
11
293.194922
21
19.045971
0
LINE
8
Layer 1
10
293.194922
20
19.045971
11
293.935000
21
18.435212
0
LINE
8
Layer 1
10
293.935000
20
18.435212
11
294.545703
21
17.695102
0
LINE
8
Layer 1
10
294.545703
20
17.695102
11
295.006875
21
16.845814
0
LINE
8
Layer 1
10
295.006875
20
16.845814
11
295.298359
21
15.907522
0
LINE
8
Layer 1
10
295.298359
20
15.907522
11
295.400000
21
14.900400
0
LINE
8
Layer 1
10
295.400000
20
14.900400
11
295.400000
21
14.900400
 0 
ENDSEC
 0 
EOF