999
"DXF R12 Output" (www.mydxf.blogspot.com)
 0 
SECTION
 2 
HEADER
 9 
$ACADVER
 1 
AC1009
 9 
$EXTMIN
 10 
 0 
 20 
 0 
 9 
$EXTMAX
 10 
 8.5 
 20 
 11 
 0 
ENDSEC
 0 
SECTION
 2 
ENTITIES
0
LINE
8
Image
10
37.887100
20
77.521400
11
35.321996
21
77.433233
0
LINE
8
Image
10
35.321996
20
77.433233
11
32.904920
21
77.182777
0
LINE
8
Image
10
32.904920
20
77.182777
11
30.685503
21
76.785949
0
LINE
8
Image
10
30.685503
20
76.785949
11
28.713376
21
76.258665
0
LINE
8
Image
10
28.713376
20
76.258665
11
27.038171
21
75.616842
0
LINE
8
Image
10
27.038171
20
75.616842
11
25.709519
21
74.876397
0
LINE
8
Image
10
25.709519
20
74.876397
11
24.777052
21
74.053248
0
LINE
8
Image
10
24.777052
20
74.053248
11
24.290400
21
73.163310
0
LINE
8
Image
10
24.290400
20
73.163310
11
23.927322
21
72.386605
0
LINE
8
Image
10
23.927322
20
72.386605
11
22.552182
21
71.220595
0
LINE
8
Image
10
22.552182
20
71.220595
11
21.707855
21
70.304462
0
LINE
8
Image
10
21.707855
20
70.304462
11
21.338076
21
69.535170
0
LINE
8
Image
10
21.338076
20
69.535170
11
21.412910
21
68.755588
0
LINE
8
Image
10
21.412910
20
68.755588
11
21.902423
21
67.808585
0
LINE
8
Image
10
21.902423
20
67.808585
11
22.526835
21
66.975225
0
LINE
8
Image
10
22.526835
20
66.975225
11
23.195406
21
66.366644
0
LINE
8
Image
10
23.195406
20
66.366644
11
23.894060
21
65.992969
0
LINE
8
Image
10
23.894060
20
65.992969
11
24.608723
21
65.864325
0
LINE
8
Image
10
24.608723
20
65.864325
11
26.172895
21
65.670742
0
LINE
8
Image
10
26.172895
20
65.670742
11
26.767845
21
65.432094
0
LINE
8
Image
10
26.767845
20
65.432094
11
27.117913
21
65.097815
0
LINE
8
Image
10
27.117913
20
65.097815
11
27.267829
21
64.527933
0
LINE
8
Image
10
27.267829
20
64.527933
11
27.118971
21
63.872605
0
LINE
8
Image
10
27.118971
20
63.872605
11
26.942890
21
63.244042
0
LINE
8
Image
10
26.942890
20
63.244042
11
27.261346
21
62.401775
0
LINE
8
Image
10
27.261346
20
62.401775
11
28.021220
21
61.350599
0
LINE
8
Image
10
28.021220
20
61.350599
11
28.470372
21
61.092137
0
LINE
8
Image
10
28.470372
20
61.092137
11
28.974725
21
61.011918
0
LINE
8
Image
10
28.974725
20
61.011918
11
29.541073
21
61.110061
0
LINE
8
Image
10
29.541073
20
61.110061
11
30.176209
21
61.386686
0
LINE
8
Image
10
30.176209
20
61.386686
11
31.680016
21
62.475858
0
LINE
8
Image
10
31.680016
20
62.475858
11
32.835636
21
63.373597
0
LINE
8
Image
10
32.835636
20
63.373597
11
34.055566
21
64.122998
0
LINE
8
Image
10
34.055566
20
64.122998
11
35.344122
21
64.726367
0
LINE
8
Image
10
35.344122
20
64.726367
11
36.705616
21
65.186008
0
LINE
8
Image
10
36.705616
20
65.186008
11
38.007800
21
65.434185
0
LINE
8
Image
10
38.007800
20
65.434185
11
39.570106
21
65.188866
0
LINE
8
Image
10
39.570106
20
65.188866
11
41.125646
21
64.749765
0
LINE
8
Image
10
41.125646
20
64.749765
11
42.816016
21
64.065736
0
LINE
8
Image
10
42.816016
20
64.065736
11
46.617136
21
61.955506
0
LINE
8
Image
10
46.617136
20
61.955506
11
48.196701
21
60.877344
0
LINE
8
Image
10
48.196701
20
60.877344
11
48.360470
21
60.661299
0
LINE
8
Image
10
48.360470
20
60.661299
11
48.197546
21
60.581906
0
LINE
8
Image
10
48.197546
20
60.581906
11
45.618196
21
60.220493
0
LINE
8
Image
10
45.618196
20
60.220493
11
43.507920
21
59.693081
0
LINE
8
Image
10
43.507920
20
59.693081
11
41.779580
21
58.971318
0
LINE
8
Image
10
41.779580
20
58.971318
11
40.346036
21
58.026856
0
LINE
8
Image
10
40.346036
20
58.026856
11
39.555183
21
57.245385
0
LINE
8
Image
10
39.555183
20
57.245385
11
38.938338
21
56.349002
0
LINE
8
Image
10
38.938338
20
56.349002
11
38.502337
21
55.382190
0
LINE
8
Image
10
38.502337
20
55.382190
11
38.254013
21
54.389429
0
LINE
8
Image
10
38.254013
20
54.389429
11
38.200199
21
53.415201
0
LINE
8
Image
10
38.200199
20
53.415201
11
38.347731
21
52.503985
0
LINE
8
Image
10
38.347731
20
52.503985
11
38.703442
21
51.700263
0
LINE
8
Image
10
38.703442
20
51.700263
11
39.274166
21
51.048516
0
LINE
8
Image
10
39.274166
20
51.048516
11
40.068138
21
50.563569
0
LINE
8
Image
10
40.068138
20
50.563569
11
41.142416
21
50.458176
0
LINE
8
Image
10
41.142416
20
50.458176
11
42.256868
21
50.574917
0
LINE
8
Image
10
42.256868
20
50.574917
11
43.245646
21
51.080539
0
LINE
8
Image
10
43.245646
20
51.080539
11
43.981386
21
51.642348
0
LINE
8
Image
10
43.981386
20
51.642348
11
44.475079
21
52.221839
0
LINE
8
Image
10
44.475079
20
52.221839
11
44.752438
21
52.859606
0
LINE
8
Image
10
44.752438
20
52.859606
11
44.839176
21
53.596239
0
LINE
8
Image
10
44.839176
20
53.596239
11
44.925786
21
54.279317
0
LINE
8
Image
10
44.925786
20
54.279317
11
45.323411
21
54.523034
0
LINE
8
Image
10
45.323411
20
54.523034
11
46.055710
21
54.518012
0
LINE
8
Image
10
46.055710
20
54.518012
11
47.163355
21
54.305792
0
LINE
8
Image
10
47.163355
20
54.305792
11
49.580401
21
53.485114
0
LINE
8
Image
10
49.580401
20
53.485114
11
52.838280
21
52.139229
0
LINE
8
Image
10
52.838280
20
52.139229
11
55.777781
21
51.286156
0
LINE
8
Image
10
55.777781
20
51.286156
11
58.427618
21
50.919650
0
LINE
8
Image
10
58.427618
20
50.919650
11
60.816501
21
51.033464
0
LINE
8
Image
10
60.816501
20
51.033464
11
62.898570
21
51.609518
0
LINE
8
Image
10
62.898570
20
51.609518
11
63.696286
21
52.045196
0
LINE
8
Image
10
63.696286
20
52.045196
11
64.318411
21
52.573364
0
LINE
8
Image
10
64.318411
20
52.573364
11
64.779622
21
52.934380
0
LINE
8
Image
10
64.779622
20
52.934380
11
65.232085
21
52.944159
0
LINE
8
Image
10
65.232085
20
52.944159
11
68.364932
21
52.096385
0
LINE
8
Image
10
68.364932
20
52.096385
11
71.048833
21
51.645432
0
LINE
8
Image
10
71.048833
20
51.645432
11
74.396285
21
51.477003
0
LINE
8
Image
10
74.396285
20
51.477003
11
79.519785
21
51.476799
0
LINE
8
Image
10
79.519785
20
51.476799
11
87.036775
21
51.530456
0
LINE
8
Image
10
87.036775
20
51.530456
11
88.138355
21
50.991818
0
LINE
8
Image
10
88.138355
20
50.991818
11
89.067992
21
50.472225
0
LINE
8
Image
10
89.067992
20
50.472225
11
89.787223
21
49.860535
0
LINE
8
Image
10
89.787223
20
49.860535
11
90.464990
21
48.975858
0
LINE
8
Image
10
90.464990
20
48.975858
11
91.270235
21
47.637308
0
LINE
8
Image
10
91.270235
20
47.637308
11
93.501489
21
44.258067
0
LINE
8
Image
10
93.501489
20
44.258067
11
94.634845
21
42.922783
0
LINE
8
Image
10
94.634845
20
42.922783
11
95.741375
21
41.873588
0
LINE
8
Image
10
95.741375
20
41.873588
11
97.945893
21
40.395272
0
LINE
8
Image
10
97.945893
20
40.395272
11
100.153485
21
39.413838
0
LINE
8
Image
10
100.153485
20
39.413838
11
101.536345
21
38.975138
0
LINE
8
Image
10
101.536345
20
38.975138
11
103.664803
21
38.780563
0
LINE
8
Image
10
103.664803
20
38.780563
11
108.746965
21
38.674180
0
LINE
8
Image
10
108.746965
20
38.674180
11
113.761339
21
38.563972
0
LINE
8
Image
10
113.761339
20
38.563972
11
116.550245
21
38.384795
0
LINE
8
Image
10
116.550245
20
38.384795
11
117.845152
21
38.062181
0
LINE
8
Image
10
117.845152
20
38.062181
11
119.079015
21
37.519567
0
LINE
8
Image
10
119.079015
20
37.519567
11
120.419199
21
36.666146
0
LINE
8
Image
10
120.419199
20
36.666146
11
122.033065
21
35.411105
0
LINE
8
Image
10
122.033065
20
35.411105
11
124.160234
21
33.770925
0
LINE
8
Image
10
124.160234
20
33.770925
11
126.115202
21
32.491230
0
LINE
8
Image
10
126.115202
20
32.491230
11
127.893299
21
31.574813
0
LINE
8
Image
10
127.893299
20
31.574813
11
129.489855
21
31.024465
0
LINE
8
Image
10
129.489855
20
31.024465
11
131.627815
21
30.963889
0
LINE
8
Image
10
131.627815
20
30.963889
11
133.370665
21
30.999372
0
LINE
8
Image
10
133.370665
20
30.999372
11
134.160485
21
31.846300
0
LINE
8
Image
10
134.160485
20
31.846300
11
134.829754
21
32.733532
0
LINE
8
Image
10
134.829754
20
32.733532
11
134.897444
21
33.821810
0
LINE
8
Image
10
134.897444
20
33.821810
11
134.844589
21
34.950400
0
LINE
8
Image
10
134.844589
20
34.950400
11
137.007239
21
35.065763
0
LINE
8
Image
10
137.007239
20
35.065763
11
139.148065
21
35.274721
0
LINE
8
Image
10
139.148065
20
35.274721
11
140.819217
21
35.678806
0
LINE
8
Image
10
140.819217
20
35.678806
11
142.178488
21
36.333044
0
LINE
8
Image
10
142.178488
20
36.333044
11
143.383669
21
37.292463
0
LINE
8
Image
10
143.383669
20
37.292463
11
144.316525
21
38.343518
0
LINE
8
Image
10
144.316525
20
38.343518
11
144.756219
21
39.255858
0
LINE
8
Image
10
144.756219
20
39.255858
11
144.710372
21
40.062846
0
LINE
8
Image
10
144.710372
20
40.062846
11
144.186604
21
40.797843
0
LINE
8
Image
10
144.186604
20
40.797843
11
143.478200
21
41.242110
0
LINE
8
Image
10
143.478200
20
41.242110
11
142.614499
21
41.387716
0
LINE
8
Image
10
142.614499
20
41.387716
11
141.581505
21
41.234615
0
LINE
8
Image
10
141.581505
20
41.234615
11
140.365224
21
40.782762
0
LINE
8
Image
10
140.365224
20
40.782762
11
138.101058
21
40.029374
0
LINE
8
Image
10
138.101058
20
40.029374
11
136.976912
21
39.883154
0
LINE
8
Image
10
136.976912
20
39.883154
11
135.834551
21
39.892361
0
LINE
8
Image
10
135.834551
20
39.892361
11
133.424663
21
40.382377
0
LINE
8
Image
10
133.424663
20
40.382377
11
130.730354
21
41.510074
0
LINE
8
Image
10
130.730354
20
41.510074
11
127.328317
21
43.376981
0
LINE
8
Image
10
127.328317
20
43.376981
11
124.155984
21
45.319894
0
LINE
8
Image
10
124.155984
20
45.319894
11
119.380025
21
48.019143
0
LINE
8
Image
10
119.380025
20
48.019143
11
111.116862
21
52.321321
0
LINE
8
Image
10
111.116862
20
52.321321
11
101.940385
21
56.913685
0
LINE
8
Image
10
101.940385
20
56.913685
11
94.424484
21
60.483494
0
LINE
8
Image
10
94.424484
20
60.483494
11
91.895284
21
61.641794
0
LINE
8
Image
10
91.895284
20
61.641794
11
90.365034
21
62.311226
0
LINE
8
Image
10
90.365034
20
62.311226
11
88.780764
21
63.002655
0
LINE
8
Image
10
88.780764
20
63.002655
11
87.197274
21
63.694087
0
LINE
8
Image
10
87.197274
20
63.694087
11
86.273178
21
64.073369
0
LINE
8
Image
10
86.273178
20
64.073369
11
82.275078
21
65.776089
0
LINE
8
Image
10
82.275078
20
65.776089
11
78.422828
21
67.396239
0
LINE
8
Image
10
78.422828
20
67.396239
11
77.138748
21
67.945294
0
LINE
8
Image
10
77.138748
20
67.945294
11
68.708566
21
71.044969
0
LINE
8
Image
10
68.708566
20
71.044969
11
60.149348
21
73.778464
0
LINE
8
Image
10
60.149348
20
73.778464
11
56.889748
21
74.658957
0
LINE
8
Image
10
56.889748
20
74.658957
11
54.124028
21
75.349998
0
LINE
8
Image
10
54.124028
20
75.349998
11
50.370558
21
76.101236
0
LINE
8
Image
10
50.370558
20
76.101236
11
43.719090
21
77.163144
0
LINE
8
Image
10
43.719090
20
77.163144
11
40.684904
21
77.431939
0
LINE
8
Image
10
40.684904
20
77.431939
11
37.887058
21
77.521136
0
LINE
8
Image
10
37.887058
20
77.521136
11
37.887100
21
77.521400
0
LINE
8
Image
10
34.785340
20
76.753490
11
37.512430
21
76.832590
0
LINE
8
Image
10
37.512430
20
76.832590
11
38.362014
21
76.583189
0
LINE
8
Image
10
38.362014
20
76.583189
11
38.891590
21
76.114636
0
LINE
8
Image
10
38.891590
20
76.114636
11
39.240220
21
75.355180
0
LINE
8
Image
10
39.240220
20
75.355180
11
38.971241
21
74.971914
0
LINE
8
Image
10
38.971241
20
74.971914
11
38.305781
21
74.392805
0
LINE
8
Image
10
38.305781
20
74.392805
11
37.455457
21
73.809966
0
LINE
8
Image
10
37.455457
20
73.809966
11
36.631890
21
73.415510
0
LINE
8
Image
10
36.631890
20
73.415510
11
35.628566
21
73.448992
0
LINE
8
Image
10
35.628566
20
73.448992
11
34.544930
21
73.636344
0
LINE
8
Image
10
34.544930
20
73.636344
11
33.802530
21
73.662070
0
LINE
8
Image
10
33.802530
20
73.662070
11
33.452230
21
73.526764
0
LINE
8
Image
10
33.452230
20
73.526764
11
33.534885
21
73.175844
0
LINE
8
Image
10
33.534885
20
73.175844
11
34.019540
21
72.736555
0
LINE
8
Image
10
34.019540
20
72.736555
11
34.757342
21
72.313857
0
LINE
8
Image
10
34.757342
20
72.313857
11
35.599440
21
72.012714
0
LINE
8
Image
10
35.599440
20
72.012714
11
37.386336
21
71.482666
0
LINE
8
Image
10
37.386336
20
71.482666
11
39.098330
21
70.753186
0
LINE
8
Image
10
39.098330
20
70.753186
11
40.893341
21
69.746066
0
LINE
8
Image
10
40.893341
20
69.746066
11
42.929290
21
68.383094
0
LINE
8
Image
10
42.929290
20
68.383094
11
44.466100
21
67.487938
0
LINE
8
Image
10
44.466100
20
67.487938
11
44.347344
21
67.902437
0
LINE
8
Image
10
44.347344
20
67.902437
11
43.720674
21
68.810660
0
LINE
8
Image
10
43.720674
20
68.810660
11
41.837740
21
70.935438
0
LINE
8
Image
10
41.837740
20
70.935438
11
40.714908
21
71.834971
0
LINE
8
Image
10
40.714908
20
71.834971
11
39.536960
21
72.567938
0
LINE
8
Image
10
39.536960
20
72.567938
11
38.320010
21
73.373188
0
LINE
8
Image
10
38.320010
20
73.373188
11
38.829214
21
73.826172
0
LINE
8
Image
10
38.829214
20
73.826172
11
40.053857
21
74.346963
0
LINE
8
Image
10
40.053857
20
74.346963
11
41.539490
21
74.776259
0
LINE
8
Image
10
41.539490
20
74.776259
11
42.831660
21
74.954758
0
LINE
8
Image
10
42.831660
20
74.954758
11
45.902270
21
74.559201
0
LINE
8
Image
10
45.902270
20
74.559201
11
49.638700
21
73.775618
0
LINE
8
Image
10
49.638700
20
73.775618
11
52.585069
21
72.832931
0
LINE
8
Image
10
52.585069
20
72.832931
11
55.281924
21
71.638231
0
LINE
8
Image
10
55.281924
20
71.638231
11
57.772316
21
70.169398
0
LINE
8
Image
10
57.772316
20
70.169398
11
60.099300
21
68.404308
0
LINE
8
Image
10
60.099300
20
68.404308
11
60.950471
21
67.886503
0
LINE
8
Image
10
60.950471
20
67.886503
11
60.457360
21
69.330713
0
LINE
8
Image
10
60.457360
20
69.330713
11
59.853129
21
70.734793
0
LINE
8
Image
10
59.853129
20
70.734793
11
60.562805
21
70.799413
0
LINE
8
Image
10
60.562805
20
70.799413
11
61.715979
21
70.623282
0
LINE
8
Image
10
61.715979
20
70.623282
11
64.199259
21
69.929926
0
LINE
8
Image
10
64.199259
20
69.929926
11
69.876591
21
68.201149
0
LINE
8
Image
10
69.876591
20
68.201149
11
78.422959
21
65.149336
0
LINE
8
Image
10
78.422959
20
65.149336
11
89.485859
21
60.788546
0
LINE
8
Image
10
89.485859
20
60.788546
11
90.967489
21
60.147276
0
LINE
8
Image
10
90.967489
20
60.147276
11
92.054019
21
59.683494
0
LINE
8
Image
10
92.054019
20
59.683494
11
94.029529
21
58.853931
0
LINE
8
Image
10
94.029529
20
58.853931
11
96.562199
21
57.748491
0
LINE
8
Image
10
96.562199
20
57.748491
11
97.890659
21
57.175132
0
LINE
8
Image
10
97.890659
20
57.175132
11
99.210239
21
56.608713
0
LINE
8
Image
10
99.210239
20
56.608713
11
101.437709
21
55.602053
0
LINE
8
Image
10
101.437709
20
55.602053
11
109.734869
21
51.632123
0
LINE
8
Image
10
109.734869
20
51.632123
11
119.704094
21
46.502441
0
LINE
8
Image
10
119.704094
20
46.502441
11
124.946369
21
43.644803
0
LINE
8
Image
10
124.946369
20
43.644803
11
129.528993
21
41.115239
0
LINE
8
Image
10
129.528993
20
41.115239
11
132.781524
21
39.623040
0
LINE
8
Image
10
132.781524
20
39.623040
11
135.302002
21
38.943200
0
LINE
8
Image
10
135.302002
20
38.943200
11
137.688469
21
38.850713
0
LINE
8
Image
10
137.688469
20
38.850713
11
139.335437
21
39.046884
0
LINE
8
Image
10
139.335437
20
39.046884
11
140.911799
21
39.488125
0
LINE
8
Image
10
140.911799
20
39.488125
11
142.272129
21
39.901063
0
LINE
8
Image
10
142.272129
20
39.901063
11
142.936699
21
39.783675
0
LINE
8
Image
10
142.936699
20
39.783675
11
143.257995
21
39.528590
0
LINE
8
Image
10
143.257995
20
39.528590
11
143.404940
21
39.212436
0
LINE
8
Image
10
143.404940
20
39.212436
11
143.208869
21
38.450595
0
LINE
8
Image
10
143.208869
20
38.450595
11
142.414668
21
37.605507
0
LINE
8
Image
10
142.414668
20
37.605507
11
141.088519
21
36.784525
0
LINE
8
Image
10
141.088519
20
36.784525
11
139.603065
21
36.223138
0
LINE
8
Image
10
139.603065
20
36.223138
11
137.199229
21
36.135924
0
LINE
8
Image
10
137.199229
20
36.135924
11
134.922392
21
36.210481
0
LINE
8
Image
10
134.922392
20
36.210481
11
133.737449
21
36.560352
0
LINE
8
Image
10
133.737449
20
36.560352
11
131.386899
21
37.497177
0
LINE
8
Image
10
131.386899
20
37.497177
11
129.917243
21
38.083539
0
LINE
8
Image
10
129.917243
20
38.083539
11
128.688165
21
38.793607
0
LINE
8
Image
10
128.688165
20
38.793607
11
127.415372
21
39.825369
0
LINE
8
Image
10
127.415372
20
39.825369
11
125.814569
21
41.376817
0
LINE
8
Image
10
125.814569
20
41.376817
11
123.825581
21
43.284040
0
LINE
8
Image
10
123.825581
20
43.284040
11
122.237043
21
44.376935
0
LINE
8
Image
10
122.237043
20
44.376935
11
120.442268
21
44.955021
0
LINE
8
Image
10
120.442268
20
44.955021
11
117.834569
21
45.317817
0
LINE
8
Image
10
117.834569
20
45.317817
11
113.234864
21
45.980685
0
LINE
8
Image
10
113.234864
20
45.980685
11
111.717359
21
46.343635
0
LINE
8
Image
10
111.717359
20
46.343635
11
110.707679
21
46.730387
0
LINE
8
Image
10
110.707679
20
46.730387
11
109.018020
21
48.025141
0
LINE
8
Image
10
109.018020
20
48.025141
11
107.154069
21
50.186377
0
LINE
8
Image
10
107.154069
20
50.186377
11
105.520913
21
52.020755
0
LINE
8
Image
10
105.520913
20
52.020755
11
104.808296
21
52.608495
0
LINE
8
Image
10
104.808296
20
52.608495
11
104.323139
21
52.829007
0
LINE
8
Image
10
104.323139
20
52.829007
11
104.145945
21
52.775929
0
LINE
8
Image
10
104.145945
20
52.775929
11
104.123320
21
52.628271
0
LINE
8
Image
10
104.123320
20
52.628271
11
104.522232
21
52.118670
0
LINE
8
Image
10
104.522232
20
52.118670
11
106.083352
21
49.462530
0
LINE
8
Image
10
106.083352
20
49.462530
11
107.022024
21
47.768746
0
LINE
8
Image
10
107.022024
20
47.768746
11
107.927093
21
46.539542
0
LINE
8
Image
10
107.927093
20
46.539542
11
108.872777
21
45.691665
0
LINE
8
Image
10
108.872777
20
45.691665
11
109.933292
21
45.141860
0
LINE
8
Image
10
109.933292
20
45.141860
11
110.832102
21
44.872582
0
LINE
8
Image
10
110.832102
20
44.872582
11
112.073487
21
44.676648
0
LINE
8
Image
10
112.073487
20
44.676648
11
117.100312
21
44.333519
0
LINE
8
Image
10
117.100312
20
44.333519
11
119.792092
21
44.123991
0
LINE
8
Image
10
119.792092
20
44.123991
11
121.567369
21
43.744884
0
LINE
8
Image
10
121.567369
20
43.744884
11
122.848401
21
43.047475
0
LINE
8
Image
10
122.848401
20
43.047475
11
124.057442
21
41.883039
0
LINE
8
Image
10
124.057442
20
41.883039
11
127.468396
21
38.404544
0
LINE
8
Image
10
127.468396
20
38.404544
11
128.761240
21
37.391029
0
LINE
8
Image
10
128.761240
20
37.391029
11
130.022182
21
36.647929
0
LINE
8
Image
10
130.022182
20
36.647929
11
131.412330
21
35.846956
0
LINE
8
Image
10
131.412330
20
35.846956
11
131.970682
21
35.220309
0
LINE
8
Image
10
131.970682
20
35.220309
11
132.109657
21
34.647031
0
LINE
8
Image
10
132.109657
20
34.647031
11
132.042170
21
34.118292
0
LINE
8
Image
10
132.042170
20
34.118292
11
131.774284
21
33.651990
0
LINE
8
Image
10
131.774284
20
33.651990
11
131.312056
21
33.266019
0
LINE
8
Image
10
131.312056
20
33.266019
11
130.136249
21
32.897807
0
LINE
8
Image
10
130.136249
20
32.897807
11
128.674631
21
32.980364
0
LINE
8
Image
10
128.674631
20
32.980364
11
127.062630
21
33.487701
0
LINE
8
Image
10
127.062630
20
33.487701
11
125.435676
21
34.393829
0
LINE
8
Image
10
125.435676
20
34.393829
11
122.296846
21
36.900649
0
LINE
8
Image
10
122.296846
20
36.900649
11
120.819620
21
38.076606
0
LINE
8
Image
10
120.819620
20
38.076606
11
119.429843
21
39.007651
0
LINE
8
Image
10
119.429843
20
39.007651
11
118.027510
21
39.720991
0
LINE
8
Image
10
118.027510
20
39.720991
11
116.512616
21
40.243834
0
LINE
8
Image
10
116.512616
20
40.243834
11
114.785157
21
40.603386
0
LINE
8
Image
10
114.785157
20
40.603386
11
112.745129
21
40.826857
0
LINE
8
Image
10
112.745129
20
40.826857
11
107.327346
21
40.974379
0
LINE
8
Image
10
107.327346
20
40.974379
11
104.143865
21
41.019182
0
LINE
8
Image
10
104.143865
20
41.019182
11
101.962716
21
41.198416
0
LINE
8
Image
10
101.962716
20
41.198416
11
100.301234
21
41.582888
0
LINE
8
Image
10
100.301234
20
41.582888
11
98.676756
21
42.243409
0
LINE
8
Image
10
98.676756
20
42.243409
11
96.426434
21
43.598809
0
LINE
8
Image
10
96.426434
20
43.598809
11
94.300146
21
45.506479
0
LINE
8
Image
10
94.300146
20
45.506479
11
92.762726
21
47.393808
0
LINE
8
Image
10
92.762726
20
47.393808
11
91.856606
21
48.792319
0
LINE
8
Image
10
91.856606
20
48.792319
11
91.474321
21
49.566616
0
LINE
8
Image
10
91.474321
20
49.566616
11
90.521237
21
50.902529
0
LINE
8
Image
10
90.521237
20
50.902529
11
88.065316
21
53.741519
0
LINE
8
Image
10
88.065316
20
53.741519
11
86.388967
21
55.250449
0
LINE
8
Image
10
86.388967
20
55.250449
11
85.221394
21
56.082077
0
LINE
8
Image
10
85.221394
20
56.082077
11
84.915210
21
56.197040
0
LINE
8
Image
10
84.915210
20
56.197040
11
84.840394
21
56.086439
0
LINE
8
Image
10
84.840394
20
56.086439
11
85.523766
21
55.113569
0
LINE
8
Image
10
85.523766
20
55.113569
11
86.477130
21
53.873800
0
LINE
8
Image
10
86.477130
20
53.873800
11
86.678596
21
53.198249
0
LINE
8
Image
10
86.678596
20
53.198249
11
85.435122
21
53.002218
0
LINE
8
Image
10
85.435122
20
53.002218
11
82.551704
21
52.892382
0
LINE
8
Image
10
82.551704
20
52.892382
11
76.015496
21
53.006098
0
LINE
8
Image
10
76.015496
20
53.006098
11
72.323072
21
53.441053
0
LINE
8
Image
10
72.323072
20
53.441053
11
69.250906
21
54.238478
0
LINE
8
Image
10
69.250906
20
54.238478
11
66.441976
21
55.295688
0
LINE
8
Image
10
66.441976
20
55.295688
11
65.622062
21
55.636773
0
LINE
8
Image
10
65.622062
20
55.636773
11
65.526762
21
57.146573
0
LINE
8
Image
10
65.526762
20
57.146573
11
65.277890
21
59.132503
0
LINE
8
Image
10
65.277890
20
59.132503
11
65.223575
21
59.509399
0
LINE
8
Image
10
65.223575
20
59.509399
11
65.600454
21
59.455456
0
LINE
8
Image
10
65.600454
20
59.455456
11
70.718654
21
58.145136
0
LINE
8
Image
10
70.718654
20
58.145136
11
74.493090
21
57.766621
0
LINE
8
Image
10
74.493090
20
57.766621
11
77.781114
21
57.707592
0
LINE
8
Image
10
77.781114
20
57.707592
11
78.519633
21
57.838878
0
LINE
8
Image
10
78.519633
20
57.838878
11
78.788651
21
57.988732
0
LINE
8
Image
10
78.788651
20
57.988732
11
78.578593
21
58.112708
0
LINE
8
Image
10
78.578593
20
58.112708
11
77.879888
21
58.166358
0
LINE
8
Image
10
77.879888
20
58.166358
11
76.028127
21
58.350985
0
LINE
8
Image
10
76.028127
20
58.350985
11
73.563638
21
58.825366
0
LINE
8
Image
10
73.563638
20
58.825366
11
70.947334
21
59.486501
0
LINE
8
Image
10
70.947334
20
59.486501
11
68.640128
21
60.231388
0
LINE
8
Image
10
68.640128
20
60.231388
11
66.075210
21
61.366048
0
LINE
8
Image
10
66.075210
20
61.366048
11
63.745328
21
62.714668
0
LINE
8
Image
10
63.745328
20
62.714668
11
62.476298
21
63.496773
0
LINE
8
Image
10
62.476298
20
63.496773
11
62.457265
21
63.054796
0
LINE
8
Image
10
62.457265
20
63.054796
11
62.902266
21
60.247983
0
LINE
8
Image
10
62.902266
20
60.247983
11
63.116393
21
58.454064
0
LINE
8
Image
10
63.116393
20
58.454064
11
62.999881
21
57.185933
0
LINE
8
Image
10
62.999881
20
57.185933
11
62.621795
21
55.998962
0
LINE
8
Image
10
62.621795
20
55.998962
11
61.992277
21
55.104474
0
LINE
8
Image
10
61.992277
20
55.104474
11
61.037868
21
54.429738
0
LINE
8
Image
10
61.037868
20
54.429738
11
59.685111
21
53.902023
0
LINE
8
Image
10
59.685111
20
53.902023
11
58.320107
21
53.659481
0
LINE
8
Image
10
58.320107
20
53.659481
11
56.713974
21
53.703729
0
LINE
8
Image
10
56.713974
20
53.703729
11
54.806667
21
54.041300
0
LINE
8
Image
10
54.806667
20
54.041300
11
52.538141
21
54.678728
0
LINE
8
Image
10
52.538141
20
54.678728
11
49.021945
21
55.678991
0
LINE
8
Image
10
49.021945
20
55.678991
11
46.397510
21
56.124718
0
LINE
8
Image
10
46.397510
20
56.124718
11
44.533835
21
56.025998
0
LINE
8
Image
10
44.533835
20
56.025998
11
43.846346
21
55.775624
0
LINE
8
Image
10
43.846346
20
55.775624
11
43.299921
21
55.392922
0
LINE
8
Image
10
43.299921
20
55.392922
11
42.992554
21
55.006198
0
LINE
8
Image
10
42.992554
20
55.006198
11
42.883134
21
54.608802
0
LINE
8
Image
10
42.883134
20
54.608802
11
42.971889
21
54.209424
0
LINE
8
Image
10
42.971889
20
54.209424
11
43.259048
21
53.816752
0
LINE
8
Image
10
43.259048
20
53.816752
11
43.654152
21
53.241078
0
LINE
8
Image
10
43.654152
20
53.241078
11
42.733530
21
52.249847
0
LINE
8
Image
10
42.733530
20
52.249847
11
42.117587
21
51.762697
0
LINE
8
Image
10
42.117587
20
51.762697
11
41.631554
21
51.564705
0
LINE
8
Image
10
41.631554
20
51.564705
11
41.146589
21
51.639543
0
LINE
8
Image
10
41.146589
20
51.639543
11
40.533850
21
51.970881
0
LINE
8
Image
10
40.533850
20
51.970881
11
40.074518
21
52.380300
0
LINE
8
Image
10
40.074518
20
52.380300
11
39.837937
21
52.900818
0
LINE
8
Image
10
39.837937
20
52.900818
11
39.819284
21
53.554423
0
LINE
8
Image
10
39.819284
20
53.554423
11
40.013733
21
54.363101
0
LINE
8
Image
10
40.013733
20
54.363101
11
40.378859
21
55.208813
0
LINE
8
Image
10
40.378859
20
55.208813
11
40.879001
21
55.968295
0
LINE
8
Image
10
40.879001
20
55.968295
11
41.514852
21
56.641995
0
LINE
8
Image
10
41.514852
20
56.641995
11
42.287105
21
57.230356
0
LINE
8
Image
10
42.287105
20
57.230356
11
44.243593
21
58.152846
0
LINE
8
Image
10
44.243593
20
58.152846
11
46.754013
21
58.739331
0
LINE
8
Image
10
46.754013
20
58.739331
11
48.740635
21
58.919843
0
LINE
8
Image
10
48.740635
20
58.919843
11
51.039691
21
58.899216
0
LINE
8
Image
10
51.039691
20
58.899216
11
53.736483
21
58.673247
0
LINE
8
Image
10
53.736483
20
58.673247
11
56.916313
21
58.237737
0
LINE
8
Image
10
56.916313
20
58.237737
11
57.472148
21
58.216195
0
LINE
8
Image
10
57.472148
20
58.216195
11
57.767482
21
58.341528
0
LINE
8
Image
10
57.767482
20
58.341528
11
57.698226
21
58.503760
0
LINE
8
Image
10
57.698226
20
58.503760
11
57.247367
21
58.564159
0
LINE
8
Image
10
57.247367
20
58.564159
11
56.210227
21
58.860487
0
LINE
8
Image
10
56.210227
20
58.860487
11
55.502981
21
59.150642
0
LINE
8
Image
10
55.502981
20
59.150642
11
54.021928
21
59.639725
0
LINE
8
Image
10
54.021928
20
59.639725
11
52.226011
21
60.592152
0
LINE
8
Image
10
52.226011
20
60.592152
11
51.291443
21
61.447368
0
LINE
8
Image
10
51.291443
20
61.447368
11
50.387509
21
62.685193
0
LINE
8
Image
10
50.387509
20
62.685193
11
49.580501
21
64.198972
0
LINE
8
Image
10
49.580501
20
64.198972
11
48.936711
21
65.882052
0
LINE
8
Image
10
48.936711
20
65.882052
11
48.678693
21
66.453264
0
LINE
8
Image
10
48.678693
20
66.453264
11
48.395372
21
66.611293
0
LINE
8
Image
10
48.395372
20
66.611293
11
48.162491
21
66.210607
0
LINE
8
Image
10
48.162491
20
66.210607
11
48.036268
21
65.331360
0
LINE
8
Image
10
48.036268
20
65.331360
11
48.037895
21
64.298788
0
LINE
8
Image
10
48.037895
20
64.298788
11
48.188563
21
63.438123
0
LINE
8
Image
10
48.188563
20
63.438123
11
48.300458
21
62.743608
0
LINE
8
Image
10
48.300458
20
62.743608
11
47.231678
21
63.556190
0
LINE
8
Image
10
47.231678
20
63.556190
11
45.799301
21
64.715639
0
LINE
8
Image
10
45.799301
20
64.715639
11
44.180578
21
65.696226
0
LINE
8
Image
10
44.180578
20
65.696226
11
42.402818
21
66.483720
0
LINE
8
Image
10
42.402818
20
66.483720
11
40.493328
21
67.063890
0
LINE
8
Image
10
40.493328
20
67.063890
11
39.684170
21
67.284814
0
LINE
8
Image
10
39.684170
20
67.284814
11
39.152198
21
67.557224
0
LINE
8
Image
10
39.152198
20
67.557224
11
38.173258
21
68.822170
0
LINE
8
Image
10
38.173258
20
68.822170
11
37.163442
21
70.159898
0
LINE
8
Image
10
37.163442
20
70.159898
11
36.079288
21
70.938510
0
LINE
8
Image
10
36.079288
20
70.938510
11
35.648275
21
71.117031
0
LINE
8
Image
10
35.648275
20
71.117031
11
35.419247
21
71.086092
0
LINE
8
Image
10
35.419247
20
71.086092
11
35.516729
21
70.342775
0
LINE
8
Image
10
35.516729
20
70.342775
11
35.752091
21
68.605325
0
LINE
8
Image
10
35.752091
20
68.605325
11
35.635240
21
67.567963
0
LINE
8
Image
10
35.635240
20
67.567963
11
35.067993
21
66.719715
0
LINE
8
Image
10
35.067993
20
66.719715
11
34.251950
21
65.995054
0
LINE
8
Image
10
34.251950
20
65.995054
11
33.240643
21
65.380455
0
LINE
8
Image
10
33.240643
20
65.380455
11
32.131846
21
64.714299
0
LINE
8
Image
10
32.131846
20
64.714299
11
31.071443
21
63.871415
0
LINE
8
Image
10
31.071443
20
63.871415
11
29.682920
21
62.797950
0
LINE
8
Image
10
29.682920
20
62.797950
11
29.159119
21
62.604122
0
LINE
8
Image
10
29.159119
20
62.604122
11
28.740563
21
62.634415
0
LINE
8
Image
10
28.740563
20
62.634415
11
28.490169
21
62.824437
0
LINE
8
Image
10
28.490169
20
62.824437
11
28.561081
21
63.142509
0
LINE
8
Image
10
28.561081
20
63.142509
11
29.853723
21
64.471795
0
LINE
8
Image
10
29.853723
20
64.471795
11
31.104602
21
65.768897
0
LINE
8
Image
10
31.104602
20
65.768897
11
31.789338
21
66.943327
0
LINE
8
Image
10
31.789338
20
66.943327
11
31.952495
21
68.118519
0
LINE
8
Image
10
31.952495
20
68.118519
11
31.638633
21
69.417905
0
LINE
8
Image
10
31.638633
20
69.417905
11
31.090827
21
70.250811
0
LINE
8
Image
10
31.090827
20
70.250811
11
30.356157
21
70.530492
0
LINE
8
Image
10
30.356157
20
70.530492
11
29.472170
21
70.387568
0
LINE
8
Image
10
29.472170
20
70.387568
11
28.476413
21
69.952656
0
LINE
8
Image
10
28.476413
20
69.952656
11
27.765354
21
69.575915
0
LINE
8
Image
10
27.765354
20
69.575915
11
27.324541
21
69.218343
0
LINE
8
Image
10
27.324541
20
69.218343
11
26.896923
21
68.679046
0
LINE
8
Image
10
26.896923
20
68.679046
11
25.968955
21
67.520536
0
LINE
8
Image
10
25.968955
20
67.520536
11
25.106533
21
67.076586
0
LINE
8
Image
10
25.106533
20
67.076586
11
24.282182
21
67.226082
0
LINE
8
Image
10
24.282182
20
67.226082
11
23.468423
21
67.847911
0
LINE
8
Image
10
23.468423
20
67.847911
11
23.014777
21
68.433846
0
LINE
8
Image
10
23.014777
20
68.433846
11
23.003869
21
68.983831
0
LINE
8
Image
10
23.003869
20
68.983831
11
23.424968
21
69.767806
0
LINE
8
Image
10
23.424968
20
69.767806
11
24.173254
21
70.328048
0
LINE
8
Image
10
24.173254
20
70.328048
11
25.140728
21
70.665807
0
LINE
8
Image
10
25.140728
20
70.665807
11
26.219389
21
70.782331
0
LINE
8
Image
10
26.219389
20
70.782331
11
27.498559
21
71.065876
0
LINE
8
Image
10
27.498559
20
71.065876
11
29.114602
21
71.772903
0
LINE
8
Image
10
29.114602
20
71.772903
11
30.433476
21
72.703596
0
LINE
8
Image
10
30.433476
20
72.703596
11
30.783337
21
73.190375
0
LINE
8
Image
10
30.783337
20
73.190375
11
30.821139
21
73.658141
0
LINE
8
Image
10
30.821139
20
73.658141
11
30.177225
21
74.027777
0
LINE
8
Image
10
30.177225
20
74.027777
11
30.114705
21
74.313725
0
LINE
8
Image
10
30.114705
20
74.313725
11
27.906645
21
73.635451
0
LINE
8
Image
10
27.906645
20
73.635451
11
26.874645
21
72.996573
0
LINE
8
Image
10
26.874645
20
72.996573
11
25.899246
21
71.955811
0
LINE
8
Image
10
25.899246
20
71.955811
11
25.504675
21
71.703002
0
LINE
8
Image
10
25.504675
20
71.703002
11
25.210715
21
71.753853
0
LINE
8
Image
10
25.210715
20
71.753853
11
25.057339
21
72.132102
0
LINE
8
Image
10
25.057339
20
72.132102
11
24.998544
21
72.718766
0
LINE
8
Image
10
24.998544
20
72.718766
11
25.139471
21
73.662053
0
LINE
8
Image
10
25.139471
20
73.662053
11
25.708387
21
74.179003
0
LINE
8
Image
10
25.708387
20
74.179003
11
26.548907
21
74.706265
0
LINE
8
Image
10
26.548907
20
74.706265
11
28.865466
21
75.696514
0
LINE
8
Image
10
28.865466
20
75.696514
11
31.730559
21
76.442385
0
LINE
8
Image
10
31.730559
20
76.442385
11
34.785601
21
76.753463
0
LINE
8
Image
10
34.785601
20
76.753463
11
34.785340
21
76.753490
0
LINE
8
Image
10
36.091040
20
75.481130
11
35.226266
21
75.392230
0
LINE
8
Image
10
35.226266
20
75.392230
11
34.202108
21
75.185547
0
LINE
8
Image
10
34.202108
20
75.185547
11
33.993726
21
75.056445
0
LINE
8
Image
10
33.993726
20
75.056445
11
34.020956
21
74.856905
0
LINE
8
Image
10
34.020956
20
74.856905
11
34.428704
21
74.720358
0
LINE
8
Image
10
34.428704
20
74.720358
11
34.976606
21
74.672401
0
LINE
8
Image
10
34.976606
20
74.672401
11
36.036726
21
74.720342
0
LINE
8
Image
10
36.036726
20
74.720342
11
36.513656
21
74.900112
0
LINE
8
Image
10
36.513656
20
74.900112
11
36.477899
21
75.611460
0
LINE
8
Image
10
36.477899
20
75.611460
11
36.410797
21
75.543618
0
LINE
8
Image
10
36.410797
20
75.543618
11
36.091043
21
75.481131
0
LINE
8
Image
10
36.091043
20
75.481131
11
36.091040
21
75.481130
0
LINE
8
Image
10
29.093180
20
73.099630
11
29.204774
21
72.928375
0
LINE
8
Image
10
29.204774
20
72.928375
11
29.176230
21
72.697696
0
LINE
8
Image
10
29.176230
20
72.697696
11
28.865075
21
72.311228
0
LINE
8
Image
10
28.865075
20
72.311228
11
27.152995
21
71.513645
0
LINE
8
Image
10
27.152995
20
71.513645
11
26.993453
21
71.552688
0
LINE
8
Image
10
26.993453
20
71.552688
11
26.961665
21
71.751916
0
LINE
8
Image
10
26.961665
20
71.751916
11
27.015878
21
72.233337
0
LINE
8
Image
10
27.015878
20
72.233337
11
27.424188
21
72.675747
0
LINE
8
Image
10
27.424188
20
72.675747
11
28.040018
21
73.044070
0
LINE
8
Image
10
28.040018
20
73.044070
11
28.810330
21
73.273868
0
LINE
8
Image
10
28.810330
20
73.273868
11
29.093180
21
73.099630
0
LINE
8
Image
10
28.886162
20
69.393630
11
29.537851
21
68.938333
0
LINE
8
Image
10
29.537851
20
68.938333
11
29.925028
21
68.351644
0
LINE
8
Image
10
29.925028
20
68.351644
11
30.022855
21
67.463643
0
LINE
8
Image
10
30.022855
20
67.463643
11
29.908043
21
66.528424
0
LINE
8
Image
10
29.908043
20
66.528424
11
29.409750
21
65.775583
0
LINE
8
Image
10
29.409750
20
65.775583
11
28.570157
21
65.098041
0
LINE
8
Image
10
28.570157
20
65.098041
11
27.614526
21
65.460646
0
LINE
8
Image
10
27.614526
20
65.460646
11
26.960037
21
66.263671
0
LINE
8
Image
10
26.960037
20
66.263671
11
26.733565
21
66.981215
0
LINE
8
Image
10
26.733565
20
66.981215
11
26.934584
21
67.663121
0
LINE
8
Image
10
26.934584
20
67.663121
11
27.494428
21
68.635349
0
LINE
8
Image
10
27.494428
20
68.635349
11
28.182394
21
69.193371
0
LINE
8
Image
10
28.182394
20
69.193371
11
28.886172
21
69.393623
0
LINE
8
Image
10
28.886172
20
69.393623
11
28.886162
21
69.393630
0
LINE
8
Image
10
100.851000
20
20.093700
11
101.368802
21
19.832871
0
LINE
8
Image
10
101.368802
20
19.832871
11
100.851000
21
20.093700
0
LINE
8
Image
10
100.851000
20
20.093700
11
100.851000
21
20.093700
0
LINE
8
Image
10
15.169100
20
9.572960
11
14.795991
21
9.373864
0
LINE
8
Image
10
14.795991
20
9.373864
11
15.238938
21
9.276627
0
LINE
8
Image
10
15.238938
20
9.276627
11
15.169100
21
9.572960
0
LINE
8
Image
10
15.169100
20
9.572960
11
15.169100
21
9.572960
 0 
ENDSEC
 0 
EOF