999
"DXF R12 Output" (www.mydxf.blogspot.com)
 0 
SECTION
 2 
HEADER
 9 
$ACADVER
 1 
AC1009
 9 
$EXTMIN
 10 
 0 
 20 
 0 
 9 
$EXTMAX
 10 
 8.5 
 20 
 11 
 0 
ENDSEC
 0 
SECTION
 2 
ENTITIES
0
LINE
8
Image
10
115.434000
20
117.915000
11
115.009459
21
117.571687
0
LINE
8
Image
10
115.009459
20
117.571687
11
114.636632
21
116.598800
0
LINE
8
Image
10
114.636632
20
116.598800
11
113.396236
21
111.461214
0
LINE
8
Image
10
113.396236
20
111.461214
11
111.743792
21
103.138700
0
LINE
8
Image
10
111.743792
20
103.138700
11
110.555232
21
97.582460
0
LINE
8
Image
10
110.555232
20
97.582460
11
110.181795
21
95.785527
0
LINE
8
Image
10
110.181795
20
95.785527
11
110.225085
21
94.726866
0
LINE
8
Image
10
110.225085
20
94.726866
11
110.396021
21
94.493494
0
LINE
8
Image
10
110.396021
20
94.493494
11
110.662762
21
94.467618
0
LINE
8
Image
10
110.662762
20
94.467618
11
111.472488
21
95.068920
0
LINE
8
Image
10
111.472488
20
95.068920
11
112.246084
21
95.730377
0
LINE
8
Image
10
112.246084
20
95.730377
11
112.386929
21
97.114827
0
LINE
8
Image
10
112.386929
20
97.114827
11
112.464165
21
98.895575
0
LINE
8
Image
10
112.464165
20
98.895575
11
112.476250
21
98.985624
0
LINE
8
Image
10
112.476250
20
98.985624
11
112.486170
21
98.822403
0
LINE
8
Image
10
112.486170
20
98.822403
11
112.500961
21
97.513719
0
LINE
8
Image
10
112.500961
20
97.513719
11
112.520486
21
89.410357
0
LINE
8
Image
10
112.520486
20
89.410357
11
112.577923
21
79.425270
0
LINE
8
Image
10
112.577923
20
79.425270
11
112.750099
21
72.961057
0
LINE
8
Image
10
112.750099
20
72.961057
11
113.090269
21
68.926245
0
LINE
8
Image
10
113.090269
20
68.926245
11
113.651686
21
66.229357
0
LINE
8
Image
10
113.651686
20
66.229357
11
114.257883
21
64.729536
0
LINE
8
Image
10
114.257883
20
64.729536
11
115.124662
21
63.379742
0
LINE
8
Image
10
115.124662
20
63.379742
11
116.148825
21
62.311933
0
LINE
8
Image
10
116.148825
20
62.311933
11
117.227176
21
61.658067
0
LINE
8
Image
10
117.227176
20
61.658067
11
118.860146
21
61.046735
0
LINE
8
Image
10
118.860146
20
61.046735
11
119.483913
21
60.658865
0
LINE
8
Image
10
119.483913
20
60.658865
11
119.487496
21
59.858185
0
LINE
8
Image
10
119.487496
20
59.858185
11
119.472819
21
59.096099
0
LINE
8
Image
10
119.472819
20
59.096099
11
119.672498
21
58.559045
0
LINE
8
Image
10
119.672498
20
58.559045
11
120.189779
21
58.159586
0
LINE
8
Image
10
120.189779
20
58.159586
11
120.979888
21
58.834070
0
LINE
8
Image
10
120.979888
20
58.834070
11
121.887349
21
60.186846
0
LINE
8
Image
10
121.887349
20
60.186846
11
122.325482
21
60.800561
0
LINE
8
Image
10
122.325482
20
60.800561
11
122.799954
21
60.895330
0
LINE
8
Image
10
122.799954
20
60.895330
11
124.227219
21
60.939992
0
LINE
8
Image
10
124.227219
20
60.939992
11
126.475526
21
61.372346
0
LINE
8
Image
10
126.475526
20
61.372346
11
128.840447
21
62.026499
0
LINE
8
Image
10
128.840447
20
62.026499
11
130.617554
21
62.736560
0
LINE
8
Image
10
130.617554
20
62.736560
11
131.766179
21
63.485422
0
LINE
8
Image
10
131.766179
20
63.485422
11
132.855701
21
64.437732
0
LINE
8
Image
10
132.855701
20
64.437732
11
133.877701
21
65.580426
0
LINE
8
Image
10
133.877701
20
65.580426
11
134.823758
21
66.900443
0
LINE
8
Image
10
134.823758
20
66.900443
11
135.685452
21
68.384717
0
LINE
8
Image
10
135.685452
20
68.384717
11
136.454365
21
70.020187
0
LINE
8
Image
10
136.454365
20
70.020187
11
137.680164
21
73.692460
0
LINE
8
Image
10
137.680164
20
73.692460
11
138.060367
21
76.174632
0
LINE
8
Image
10
138.060367
20
76.174632
11
138.210804
21
79.325805
0
LINE
8
Image
10
138.210804
20
79.325805
11
138.124731
21
82.483781
0
LINE
8
Image
10
138.124731
20
82.483781
11
137.795403
21
84.986360
0
LINE
8
Image
10
137.795403
20
84.986360
11
137.084300
21
87.283320
0
LINE
8
Image
10
137.084300
20
87.283320
11
136.028589
21
89.495563
0
LINE
8
Image
10
136.028589
20
89.495563
11
134.609335
21
91.656426
0
LINE
8
Image
10
134.609335
20
91.656426
11
132.807603
21
93.799250
0
LINE
8
Image
10
132.807603
20
93.799250
11
132.020224
21
94.513917
0
LINE
8
Image
10
132.020224
20
94.513917
11
131.252934
21
94.958053
0
LINE
8
Image
10
131.252934
20
94.958053
11
130.530984
21
95.121347
0
LINE
8
Image
10
130.530984
20
95.121347
11
129.879623
21
94.993490
0
LINE
8
Image
10
129.879623
20
94.993490
11
129.274163
21
94.445404
0
LINE
8
Image
10
129.274163
20
94.445404
11
128.575146
21
93.410779
0
LINE
8
Image
10
128.575146
20
93.410779
11
127.902436
21
92.094968
0
LINE
8
Image
10
127.902436
20
92.094968
11
127.375903
21
90.703320
0
LINE
8
Image
10
127.375903
20
90.703320
11
126.662254
21
88.454360
0
LINE
8
Image
10
126.662254
20
88.454360
11
125.089224
21
82.898120
0
LINE
8
Image
10
125.089224
20
82.898120
11
124.430878
21
80.245322
0
LINE
8
Image
10
124.430878
20
80.245322
11
123.509994
21
77.209590
0
LINE
8
Image
10
123.509994
20
77.209590
11
123.295214
21
76.702641
0
LINE
8
Image
10
123.295214
20
76.702641
11
123.047363
21
76.420691
0
LINE
8
Image
10
123.047363
20
76.420691
11
122.018614
21
76.253578
0
LINE
8
Image
10
122.018614
20
76.253578
11
120.708634
21
76.456571
0
LINE
8
Image
10
120.708634
20
76.456571
11
120.156346
21
76.758256
0
LINE
8
Image
10
120.156346
20
76.758256
11
119.657214
21
77.210496
0
LINE
8
Image
10
119.657214
20
77.210496
11
118.772474
21
78.617933
0
LINE
8
Image
10
118.772474
20
78.617933
11
117.962534
21
80.781458
0
LINE
8
Image
10
117.962534
20
80.781458
11
116.983551
21
83.726557
0
LINE
8
Image
10
116.983551
20
83.726557
11
116.629818
21
85.011984
0
LINE
8
Image
10
116.629818
20
85.011984
11
116.366374
21
86.523600
0
LINE
8
Image
10
116.366374
20
86.523600
11
116.109707
21
91.278223
0
LINE
8
Image
10
116.109707
20
91.278223
11
116.212254
21
100.096058
0
LINE
8
Image
10
116.212254
20
100.096058
11
116.324579
21
107.241985
0
LINE
8
Image
10
116.324579
20
107.241985
11
116.277895
21
112.691046
0
LINE
8
Image
10
116.277895
20
112.691046
11
116.077209
21
116.262238
0
LINE
8
Image
10
116.077209
20
116.262238
11
115.920681
21
117.287070
0
LINE
8
Image
10
115.920681
20
117.287070
11
115.727530
21
117.774558
0
LINE
8
Image
10
115.727530
20
117.774558
11
115.434010
21
117.915118
0
LINE
8
Image
10
115.434010
20
117.915118
11
115.434000
21
117.915000
0
LINE
8
Image
10
46.420400
20
123.846000
11
31.188716
21
135.298809
0
LINE
8
Image
10
31.188716
20
135.298809
11
28.740761
21
137.139439
0
LINE
8
Image
10
28.740761
20
137.139439
11
28.570762
21
137.267261
0
LINE
8
Image
10
28.570762
20
137.267261
11
29.012750
21
136.934925
0
LINE
8
Image
10
29.012750
20
136.934925
11
46.420400
21
123.846000
0
LINE
8
Image
10
46.420400
20
123.846000
11
46.420400
21
123.846000
0
LINE
8
Image
10
65.710200
20
117.425730
11
65.060389
21
115.631329
0
LINE
8
Image
10
65.060389
20
115.631329
11
63.773890
21
112.060170
0
LINE
8
Image
10
63.773890
20
112.060170
11
62.360341
21
108.107851
0
LINE
8
Image
10
62.360341
20
108.107851
11
61.985304
21
106.491624
0
LINE
8
Image
10
61.985304
20
106.491624
11
61.784164
21
104.890347
0
LINE
8
Image
10
61.784164
20
104.890347
11
61.761792
21
101.057631
0
LINE
8
Image
10
61.761792
20
101.057631
11
62.009660
21
95.259670
0
LINE
8
Image
10
62.009660
20
95.259670
11
62.223956
21
92.908769
0
LINE
8
Image
10
62.223956
20
92.908769
11
62.532317
21
91.240551
0
LINE
8
Image
10
62.532317
20
91.240551
11
62.821195
21
88.600043
0
LINE
8
Image
10
62.821195
20
88.600043
11
62.977042
21
83.332270
0
LINE
8
Image
10
62.977042
20
83.332270
11
62.876282
21
76.305151
0
LINE
8
Image
10
62.876282
20
76.305151
11
62.596103
21
70.127800
0
LINE
8
Image
10
62.596103
20
70.127800
11
62.247888
21
64.149970
0
LINE
8
Image
10
62.247888
20
64.149970
11
62.958982
21
65.373781
0
LINE
8
Image
10
62.958982
20
65.373781
11
64.167272
21
67.850654
0
LINE
8
Image
10
64.167272
20
67.850654
11
65.379117
21
70.782855
0
LINE
8
Image
10
65.379117
20
70.782855
11
66.100878
21
73.372650
0
LINE
8
Image
10
66.100878
20
73.372650
11
66.273133
21
75.105627
0
LINE
8
Image
10
66.273133
20
75.105627
11
66.278591
21
76.695024
0
LINE
8
Image
10
66.278591
20
76.695024
11
65.965403
21
80.156484
0
LINE
8
Image
10
65.965403
20
80.156484
11
65.513893
21
85.183852
0
LINE
8
Image
10
65.513893
20
85.183852
11
65.276638
21
93.203950
0
LINE
8
Image
10
65.276638
20
93.203950
11
65.285142
21
97.193584
0
LINE
8
Image
10
65.285142
20
97.193584
11
65.302319
21
97.594819
0
LINE
8
Image
10
65.302319
20
97.594819
11
65.328337
21
97.291312
0
LINE
8
Image
10
65.328337
20
97.291312
11
65.524169
21
94.394570
0
LINE
8
Image
10
65.524169
20
94.394570
11
66.365790
21
92.545116
0
LINE
8
Image
10
66.365790
20
92.545116
11
66.641806
21
92.193329
0
LINE
8
Image
10
66.641806
20
92.193329
11
66.833136
21
92.243454
0
LINE
8
Image
10
66.833136
20
92.243454
11
66.997269
21
93.609302
0
LINE
8
Image
10
66.997269
20
93.609302
11
66.929249
21
96.762380
0
LINE
8
Image
10
66.929249
20
96.762380
11
66.247170
21
111.538755
0
LINE
8
Image
10
66.247170
20
111.538755
11
65.949903
21
115.863811
0
LINE
8
Image
10
65.949903
20
115.863811
11
65.710199
21
117.425680
0
LINE
8
Image
10
65.710199
20
117.425680
11
65.710200
21
117.425730
0
LINE
8
Image
10
75.697170
20
117.853095
11
74.987654
21
115.110625
0
LINE
8
Image
10
74.987654
20
115.110625
11
74.126209
21
111.472605
0
LINE
8
Image
10
74.126209
20
111.472605
11
73.247711
21
108.562195
0
LINE
8
Image
10
73.247711
20
108.562195
11
71.909291
21
104.064285
0
LINE
8
Image
10
71.909291
20
104.064285
11
71.279728
21
101.377070
0
LINE
8
Image
10
71.279728
20
101.377070
11
71.232607
21
100.492520
0
LINE
8
Image
10
71.232607
20
100.492520
11
71.377543
21
100.017505
0
LINE
8
Image
10
71.377543
20
100.017505
11
72.299950
21
100.398351
0
LINE
8
Image
10
72.299950
20
100.398351
11
73.107663
21
101.078935
0
LINE
8
Image
10
73.107663
20
101.078935
11
73.408420
21
101.286156
0
LINE
8
Image
10
73.408420
20
101.286156
11
73.584239
21
100.233377
0
LINE
8
Image
10
73.584239
20
100.233377
11
73.568923
21
97.133779
0
LINE
8
Image
10
73.568923
20
97.133779
11
72.974337
21
85.146556
0
LINE
8
Image
10
72.974337
20
85.146556
11
72.717273
21
79.815921
0
LINE
8
Image
10
72.717273
20
79.815921
11
72.706137
21
76.845266
0
LINE
8
Image
10
72.706137
20
76.845266
11
72.992424
21
72.992796
0
LINE
8
Image
10
72.992424
20
72.992796
11
73.190287
21
70.504261
0
LINE
8
Image
10
73.190287
20
70.504261
11
73.531938
21
68.251557
0
LINE
8
Image
10
73.531938
20
68.251557
11
74.012052
21
66.247326
0
LINE
8
Image
10
74.012052
20
66.247326
11
74.625304
21
64.504209
0
LINE
8
Image
10
74.625304
20
64.504209
11
75.366370
21
63.034846
0
LINE
8
Image
10
75.366370
20
63.034846
11
76.229925
21
61.851879
0
LINE
8
Image
10
76.229925
20
61.851879
11
77.210644
21
60.967949
0
LINE
8
Image
10
77.210644
20
60.967949
11
78.303204
21
60.395696
0
LINE
8
Image
10
78.303204
20
60.395696
11
79.063110
21
60.204427
0
LINE
8
Image
10
79.063110
20
60.204427
11
79.846909
21
60.169308
0
LINE
8
Image
10
79.846909
20
60.169308
11
81.493175
21
60.570443
0
LINE
8
Image
10
81.493175
20
60.570443
11
83.255979
21
61.604960
0
LINE
8
Image
10
83.255979
20
61.604960
11
85.149294
21
63.278716
0
LINE
8
Image
10
85.149294
20
63.278716
11
86.793950
21
65.180146
0
LINE
8
Image
10
86.793950
20
65.180146
11
88.069524
21
67.028866
0
LINE
8
Image
10
88.069524
20
67.028866
11
88.806757
21
68.235223
0
LINE
8
Image
10
88.806757
20
68.235223
11
89.156794
21
68.592596
0
LINE
8
Image
10
89.156794
20
68.592596
11
89.479773
21
66.280596
0
LINE
8
Image
10
89.479773
20
66.280596
11
89.834879
21
64.412960
0
LINE
8
Image
10
89.834879
20
64.412960
11
90.390731
21
62.865188
0
LINE
8
Image
10
90.390731
20
62.865188
11
91.113385
21
61.661287
0
LINE
8
Image
10
91.113385
20
61.661287
11
91.968895
21
60.825262
0
LINE
8
Image
10
91.968895
20
60.825262
11
92.923317
21
60.381121
0
LINE
8
Image
10
92.923317
20
60.381121
11
93.942705
21
60.352868
0
LINE
8
Image
10
93.942705
20
60.352868
11
94.993115
21
60.764511
0
LINE
8
Image
10
94.993115
20
60.764511
11
96.040603
21
61.640056
0
LINE
8
Image
10
96.040603
20
61.640056
11
96.675089
21
62.510096
0
LINE
8
Image
10
96.675089
20
62.510096
11
97.311685
21
63.671568
0
LINE
8
Image
10
97.311685
20
63.671568
11
97.822528
21
64.862309
0
LINE
8
Image
10
97.822528
20
64.862309
11
98.079753
21
65.820156
0
LINE
8
Image
10
98.079753
20
65.820156
11
98.198092
21
66.518331
0
LINE
8
Image
10
98.198092
20
66.518331
11
98.341656
21
66.728434
0
LINE
8
Image
10
98.341656
20
66.728434
11
98.751029
21
65.674429
0
LINE
8
Image
10
98.751029
20
65.674429
11
99.380826
21
63.893487
0
LINE
8
Image
10
99.380826
20
63.893487
11
100.285545
21
62.373375
0
LINE
8
Image
10
100.285545
20
62.373375
11
101.415321
21
61.180618
0
LINE
8
Image
10
101.415321
20
61.180618
11
102.720289
21
60.381739
0
LINE
8
Image
10
102.720289
20
60.381739
11
103.660798
21
60.161304
0
LINE
8
Image
10
103.660798
20
60.161304
11
104.583678
21
60.335205
0
LINE
8
Image
10
104.583678
20
60.335205
11
105.552838
21
60.929378
0
LINE
8
Image
10
105.552838
20
60.929378
11
106.632189
21
61.969759
0
LINE
8
Image
10
106.632189
20
61.969759
11
108.498238
21
64.525595
0
LINE
8
Image
10
108.498238
20
64.525595
11
109.113493
21
65.636456
0
LINE
8
Image
10
109.113493
20
65.636456
11
109.183449
21
66.096629
0
LINE
8
Image
10
109.183449
20
66.096629
11
109.402555
21
66.559649
0
LINE
8
Image
10
109.402555
20
66.559649
11
109.933944
21
67.556938
0
LINE
8
Image
10
109.933944
20
67.556938
11
110.641695
21
69.354824
0
LINE
8
Image
10
110.641695
20
69.354824
11
112.013245
21
73.769539
0
LINE
8
Image
10
112.013245
20
73.769539
11
112.481277
21
76.504703
0
LINE
8
Image
10
112.481277
20
76.504703
11
112.639000
21
79.528773
0
LINE
8
Image
10
112.639000
20
79.528773
11
112.486042
21
82.451351
0
LINE
8
Image
10
112.486042
20
82.451351
11
112.022029
21
84.882039
0
LINE
8
Image
10
112.022029
20
84.882039
11
110.475838
21
88.623797
0
LINE
8
Image
10
110.475838
20
88.623797
11
109.620145
21
90.278672
0
LINE
8
Image
10
109.620145
20
90.278672
11
109.105929
21
90.962799
0
LINE
8
Image
10
109.105929
20
90.962799
11
107.897125
21
88.746898
0
LINE
8
Image
10
107.897125
20
88.746898
11
106.404289
21
85.336789
0
LINE
8
Image
10
106.404289
20
85.336789
11
106.088795
21
83.945605
0
LINE
8
Image
10
106.088795
20
83.945605
11
106.060230
21
82.373495
0
LINE
8
Image
10
106.060230
20
82.373495
11
106.314411
21
80.681065
0
LINE
8
Image
10
106.314411
20
80.681065
11
106.847156
21
78.928919
0
LINE
8
Image
10
106.847156
20
78.928919
11
107.788720
21
76.435753
0
LINE
8
Image
10
107.788720
20
76.435753
11
108.170914
21
75.150990
0
LINE
8
Image
10
108.170914
20
75.150990
11
108.077005
21
74.522712
0
LINE
8
Image
10
108.077005
20
74.522712
11
107.590261
21
73.998999
0
LINE
8
Image
10
107.590261
20
73.998999
11
106.772635
21
73.382279
0
LINE
8
Image
10
106.772635
20
73.382279
11
105.906306
21
73.078380
0
LINE
8
Image
10
105.906306
20
73.078380
11
105.063790
21
73.099268
0
LINE
8
Image
10
105.063790
20
73.099268
11
104.317601
21
73.456913
0
LINE
8
Image
10
104.317601
20
73.456913
11
103.604196
21
74.251627
0
LINE
8
Image
10
103.604196
20
74.251627
11
102.880667
21
75.407464
0
LINE
8
Image
10
102.880667
20
75.407464
11
102.310138
21
76.625301
0
LINE
8
Image
10
102.310138
20
76.625301
11
102.055731
21
77.606013
0
LINE
8
Image
10
102.055731
20
77.606013
11
101.866305
21
79.491097
0
LINE
8
Image
10
101.866305
20
79.491097
11
101.539919
21
81.087863
0
LINE
8
Image
10
101.539919
20
81.087863
11
101.111384
21
82.268041
0
LINE
8
Image
10
101.111384
20
82.268041
11
100.615511
21
82.903363
0
LINE
8
Image
10
100.615511
20
82.903363
11
100.428190
21
82.953832
0
LINE
8
Image
10
100.428190
20
82.953832
11
100.277101
21
82.710884
0
LINE
8
Image
10
100.277101
20
82.710884
11
99.846567
21
80.648723
0
LINE
8
Image
10
99.846567
20
80.648723
11
99.084758
21
77.745827
0
LINE
8
Image
10
99.084758
20
77.745827
11
98.005807
21
75.495259
0
LINE
8
Image
10
98.005807
20
75.495259
11
97.362019
21
74.637361
0
LINE
8
Image
10
97.362019
20
74.637361
11
96.656484
21
73.969861
0
LINE
8
Image
10
96.656484
20
73.969861
11
95.895048
21
73.501863
0
LINE
8
Image
10
95.895048
20
73.501863
11
95.083557
21
73.242473
0
LINE
8
Image
10
95.083557
20
73.242473
11
93.980558
21
73.178015
0
LINE
8
Image
10
93.980558
20
73.178015
11
93.201507
21
73.785075
0
LINE
8
Image
10
93.201507
20
73.785075
11
92.679557
21
74.538410
0
LINE
8
Image
10
92.679557
20
74.538410
11
92.394133
21
75.536369
0
LINE
8
Image
10
92.394133
20
75.536369
11
92.316285
21
76.972941
0
LINE
8
Image
10
92.316285
20
76.972941
11
92.417061
21
79.042115
0
LINE
8
Image
10
92.417061
20
79.042115
11
92.439561
21
82.158140
0
LINE
8
Image
10
92.439561
20
82.158140
11
92.224908
21
82.932253
0
LINE
8
Image
10
92.224908
20
82.932253
11
91.852237
21
83.239265
0
LINE
8
Image
10
91.852237
20
83.239265
11
91.547143
21
83.174659
0
LINE
8
Image
10
91.547143
20
83.174659
11
91.206143
21
82.745369
0
LINE
8
Image
10
91.206143
20
82.745369
11
90.021347
21
80.119565
0
LINE
8
Image
10
90.021347
20
80.119565
11
89.105607
21
78.252233
0
LINE
8
Image
10
89.105607
20
78.252233
11
88.024714
21
76.631568
0
LINE
8
Image
10
88.024714
20
76.631568
11
86.809611
21
75.278357
0
LINE
8
Image
10
86.809611
20
75.278357
11
85.491237
21
74.213393
0
LINE
8
Image
10
85.491237
20
74.213393
11
84.100533
21
73.457462
0
LINE
8
Image
10
84.100533
20
73.457462
11
82.668440
21
73.031356
0
LINE
8
Image
10
82.668440
20
73.031356
11
81.225898
21
72.955864
0
LINE
8
Image
10
81.225898
20
72.955864
11
79.803847
21
73.251775
0
LINE
8
Image
10
79.803847
20
73.251775
11
79.178434
21
73.660552
0
LINE
8
Image
10
79.178434
20
73.660552
11
78.557691
21
74.380862
0
LINE
8
Image
10
78.557691
20
74.380862
11
78.037578
21
75.276762
0
LINE
8
Image
10
78.037578
20
75.276762
11
77.714057
21
76.212315
0
LINE
8
Image
10
77.714057
20
76.212315
11
77.180798
21
79.458349
0
LINE
8
Image
10
77.180798
20
79.458349
11
76.922928
21
83.667530
0
LINE
8
Image
10
76.922928
20
83.667530
11
76.905852
21
90.189028
0
LINE
8
Image
10
76.905852
20
90.189028
11
77.094972
21
100.372015
0
LINE
8
Image
10
77.094972
20
100.372015
11
77.435519
21
115.500815
0
LINE
8
Image
10
77.435519
20
115.500815
11
76.660373
21
116.727615
0
LINE
8
Image
10
76.660373
20
116.727615
11
75.845439
21
117.831935
0
LINE
8
Image
10
75.845439
20
117.831935
11
75.697127
21
117.853128
0
LINE
8
Image
10
75.697127
20
117.853128
11
75.697170
21
117.853095
0
LINE
8
Image
10
95.428700
20
108.479000
11
93.364230
21
104.402250
0
LINE
8
Image
10
93.364230
20
104.402250
11
91.299240
21
100.325500
0
LINE
8
Image
10
91.299240
20
100.325500
11
92.427330
21
98.226410
0
LINE
8
Image
10
92.427330
20
98.226410
11
94.301035
21
95.057799
0
LINE
8
Image
10
94.301035
20
95.057799
11
95.042879
21
94.078174
0
LINE
8
Image
10
95.042879
20
94.078174
11
95.660720
21
93.492860
0
LINE
8
Image
10
95.660720
20
93.492860
11
96.418078
21
93.121312
0
LINE
8
Image
10
96.418078
20
93.121312
11
96.640225
21
93.277379
0
LINE
8
Image
10
96.640225
20
93.277379
11
96.875630
21
93.679410
0
LINE
8
Image
10
96.875630
20
93.679410
11
99.102880
21
97.253350
0
LINE
8
Image
10
99.102880
20
97.253350
11
100.359650
21
99.439260
0
LINE
8
Image
10
100.359650
20
99.439260
11
100.437371
21
99.622485
0
LINE
8
Image
10
100.437371
20
99.622485
11
100.624233
21
99.698676
0
LINE
8
Image
10
100.624233
20
99.698676
11
100.890477
21
99.852771
0
LINE
8
Image
10
100.890477
20
99.852771
11
100.769375
21
100.296922
0
LINE
8
Image
10
100.769375
20
100.296922
11
99.423273
21
101.946596
0
LINE
8
Image
10
99.423273
20
101.946596
11
98.361350
21
103.158916
0
LINE
8
Image
10
98.361350
20
103.158916
11
97.385311
21
104.519532
0
LINE
8
Image
10
97.385311
20
104.519532
11
96.533348
21
105.969693
0
LINE
8
Image
10
96.533348
20
105.969693
11
95.843653
21
107.450646
0
LINE
8
Image
10
95.843653
20
107.450646
11
95.428700
21
108.479000
0
LINE
8
Image
10
66.805200
20
99.204640
11
66.853322
21
98.847699
0
LINE
8
Image
10
66.853322
20
98.847699
11
66.981706
21
98.714607
0
LINE
8
Image
10
66.981706
20
98.714607
11
67.382191
21
98.915217
0
LINE
8
Image
10
67.382191
20
98.915217
11
68.078510
21
99.750342
0
LINE
8
Image
10
68.078510
20
99.750342
11
68.005247
21
99.851167
0
LINE
8
Image
10
68.005247
20
99.851167
11
67.858121
21
99.806016
0
LINE
8
Image
10
67.858121
20
99.806016
11
67.440920
21
99.473146
0
LINE
8
Image
10
67.440920
20
99.473146
11
67.024186
21
99.142449
0
LINE
8
Image
10
67.024186
20
99.142449
11
66.877645
21
99.100014
0
LINE
8
Image
10
66.877645
20
99.100014
11
66.805200
21
99.204640
0
LINE
8
Image
10
66.805200
20
99.204640
11
66.805200
21
99.204640
0
LINE
8
Image
10
41.076500
20
107.104000
11
40.701845
21
106.756219
0
LINE
8
Image
10
40.701845
20
106.756219
11
40.322163
21
105.818422
0
LINE
8
Image
10
40.322163
20
105.818422
11
39.912747
21
104.242679
0
LINE
8
Image
10
39.912747
20
104.242679
11
39.229070
21
101.604599
0
LINE
8
Image
10
39.229070
20
101.604599
11
39.050584
21
100.281748
0
LINE
8
Image
10
39.050584
20
100.281748
11
38.976372
21
97.954699
0
LINE
8
Image
10
38.976372
20
97.954699
11
39.071852
21
95.248211
0
LINE
8
Image
10
39.071852
20
95.248211
11
39.273164
21
94.682344
0
LINE
8
Image
10
39.273164
20
94.682344
11
39.649715
21
94.239169
0
LINE
8
Image
10
39.649715
20
94.239169
11
40.248418
21
93.797089
0
LINE
8
Image
10
40.248418
20
93.797089
11
40.729235
21
93.721888
0
LINE
8
Image
10
40.729235
20
93.721888
11
41.482159
21
93.877950
0
LINE
8
Image
10
41.482159
20
93.877950
11
42.065735
21
94.380754
0
LINE
8
Image
10
42.065735
20
94.380754
11
42.982319
21
95.589470
0
LINE
8
Image
10
42.982319
20
95.589470
11
44.219415
21
97.194201
0
LINE
8
Image
10
44.219415
20
97.194201
11
44.463608
21
97.206490
0
LINE
8
Image
10
44.463608
20
97.206490
11
44.532609
21
96.747540
0
LINE
8
Image
10
44.532609
20
96.747540
11
44.730592
21
96.080948
0
LINE
8
Image
10
44.730592
20
96.080948
11
45.206074
21
95.309862
0
LINE
8
Image
10
45.206074
20
95.309862
11
45.781359
21
94.672510
0
LINE
8
Image
10
45.781359
20
94.672510
11
46.278749
21
94.407120
0
LINE
8
Image
10
46.278749
20
94.407120
11
46.774078
21
94.638051
0
LINE
8
Image
10
46.774078
20
94.638051
11
47.474658
21
95.221373
0
LINE
8
Image
10
47.474658
20
95.221373
11
48.796939
21
96.788370
0
LINE
8
Image
10
48.796939
20
96.788370
11
49.365021
21
98.031449
0
LINE
8
Image
10
49.365021
20
98.031449
11
49.772609
21
99.614560
0
LINE
8
Image
10
49.772609
20
99.614560
11
50.007847
21
101.474136
0
LINE
8
Image
10
50.007847
20
101.474136
11
50.058879
21
103.546610
0
LINE
8
Image
10
50.058879
20
103.546610
11
49.968551
21
105.284407
0
LINE
8
Image
10
49.968551
20
105.284407
11
49.780771
21
106.436609
0
LINE
8
Image
10
49.780771
20
106.436609
11
49.493041
21
107.012104
0
LINE
8
Image
10
49.493041
20
107.012104
11
49.102867
21
107.019780
0
LINE
8
Image
10
49.102867
20
107.019780
11
48.877741
21
106.452425
0
LINE
8
Image
10
48.877741
20
106.452425
11
48.719428
21
105.325310
0
LINE
8
Image
10
48.719428
20
105.325310
11
48.521876
21
104.081118
0
LINE
8
Image
10
48.521876
20
104.081118
11
48.147629
21
102.927457
0
LINE
8
Image
10
48.147629
20
102.927457
11
47.653621
21
102.000690
0
LINE
8
Image
10
47.653621
20
102.000690
11
47.096788
21
101.437180
0
LINE
8
Image
10
47.096788
20
101.437180
11
46.617045
21
101.359104
0
LINE
8
Image
10
46.617045
20
101.359104
11
46.222114
21
101.683518
0
LINE
8
Image
10
46.222114
20
101.683518
11
45.954202
21
102.347526
0
LINE
8
Image
10
45.954202
20
102.347526
11
45.855518
21
103.288230
0
LINE
8
Image
10
45.855518
20
103.288230
11
45.689576
21
105.184835
0
LINE
8
Image
10
45.689576
20
105.184835
11
45.519714
21
105.811068
0
LINE
8
Image
10
45.519714
20
105.811068
11
45.325317
21
106.048780
0
LINE
8
Image
10
45.325317
20
106.048780
11
45.128910
21
105.882365
0
LINE
8
Image
10
45.128910
20
105.882365
11
44.877094
21
105.343826
0
LINE
8
Image
10
44.877094
20
105.343826
11
44.116087
21
102.914610
0
LINE
8
Image
10
44.116087
20
102.914610
11
43.697671
21
101.788168
0
LINE
8
Image
10
43.697671
20
101.788168
11
43.182121
21
101.100521
0
LINE
8
Image
10
43.182121
20
101.100521
11
42.522739
21
100.812844
0
LINE
8
Image
10
42.522739
20
100.812844
11
41.672827
21
100.886310
0
LINE
8
Image
10
41.672827
20
100.886310
11
41.338545
21
101.004387
0
LINE
8
Image
10
41.338545
20
101.004387
11
41.164506
21
101.200331
0
LINE
8
Image
10
41.164506
20
101.200331
11
41.164330
21
102.157550
0
LINE
8
Image
10
41.164330
20
102.157550
11
41.641820
21
104.794080
0
LINE
8
Image
10
41.641820
20
104.794080
11
41.866445
21
106.149074
0
LINE
8
Image
10
41.866445
20
106.149074
11
41.771735
21
106.486219
0
LINE
8
Image
10
41.771735
20
106.486219
11
41.528647
21
106.778450
0
LINE
8
Image
10
41.528647
20
106.778450
11
41.076480
21
107.104009
0
LINE
8
Image
10
41.076480
20
107.104009
11
41.076500
21
107.104000
0
LINE
8
Image
10
102.626200
20
98.131430
11
102.160079
21
97.526302
0
LINE
8
Image
10
102.160079
20
97.526302
11
101.688272
21
96.544966
0
LINE
8
Image
10
101.688272
20
96.544966
11
101.320338
21
95.751217
0
LINE
8
Image
10
101.320338
20
95.751217
11
99.666698
21
92.886797
0
LINE
8
Image
10
99.666698
20
92.886797
11
98.193408
21
90.439407
0
LINE
8
Image
10
98.193408
20
90.439407
11
97.621884
21
90.824565
0
LINE
8
Image
10
97.621884
20
90.824565
11
96.715643
21
91.853082
0
LINE
8
Image
10
96.715643
20
91.853082
11
94.523358
21
95.054627
0
LINE
8
Image
10
94.523358
20
95.054627
11
92.951358
21
97.898897
0
LINE
8
Image
10
92.951358
20
97.898897
11
92.709513
21
98.111286
0
LINE
8
Image
10
92.709513
20
98.111286
11
91.821607
21
97.019923
0
LINE
8
Image
10
91.821607
20
97.019923
11
90.247633
21
94.585046
0
LINE
8
Image
10
90.247633
20
94.585046
11
88.764358
21
92.065471
0
LINE
8
Image
10
88.764358
20
92.065471
11
88.148553
21
90.720016
0
LINE
8
Image
10
88.148553
20
90.720016
11
89.308571
21
88.103418
0
LINE
8
Image
10
89.308571
20
88.103418
11
90.979383
21
85.316736
0
LINE
8
Image
10
90.979383
20
85.316736
11
91.908614
21
84.268520
0
LINE
8
Image
10
91.908614
20
84.268520
11
92.780823
21
83.532356
0
LINE
8
Image
10
92.780823
20
83.532356
11
93.595126
21
83.190588
0
LINE
8
Image
10
93.595126
20
83.190588
11
94.384853
21
83.090524
0
LINE
8
Image
10
94.384853
20
83.090524
11
94.819379
21
83.192950
0
LINE
8
Image
10
94.819379
20
83.192950
11
95.188062
21
83.477489
0
LINE
8
Image
10
95.188062
20
83.477489
11
96.104643
21
85.014434
0
LINE
8
Image
10
96.104643
20
85.014434
11
97.185193
21
86.998804
0
LINE
8
Image
10
97.185193
20
86.998804
11
97.695756
21
87.864901
0
LINE
8
Image
10
97.695756
20
87.864901
11
98.021423
21
88.361841
0
LINE
8
Image
10
98.021423
20
88.361841
11
98.272981
21
88.526358
0
LINE
8
Image
10
98.272981
20
88.526358
11
99.492541
21
86.946098
0
LINE
8
Image
10
99.492541
20
86.946098
11
100.528733
21
85.645778
0
LINE
8
Image
10
100.528733
20
85.645778
11
101.680021
21
84.567304
0
LINE
8
Image
10
101.680021
20
84.567304
11
102.793704
21
83.832932
0
LINE
8
Image
10
102.793704
20
83.832932
11
103.717081
21
83.564918
0
LINE
8
Image
10
103.717081
20
83.564918
11
104.457174
21
83.793529
0
LINE
8
Image
10
104.457174
20
83.793529
11
105.188311
21
84.599478
0
LINE
8
Image
10
105.188311
20
84.599478
11
105.915914
21
85.916708
0
LINE
8
Image
10
105.915914
20
85.916708
11
106.136571
21
86.205061
0
LINE
8
Image
10
106.136571
20
86.205061
11
107.119723
21
87.357693
0
LINE
8
Image
10
107.119723
20
87.357693
11
108.425321
21
89.339751
0
LINE
8
Image
10
108.425321
20
89.339751
11
108.240984
21
89.951072
0
LINE
8
Image
10
108.240984
20
89.951072
11
107.307561
21
91.059541
0
LINE
8
Image
10
107.307561
20
91.059541
11
105.311201
21
93.521258
0
LINE
8
Image
10
105.311201
20
93.521258
11
103.372921
21
96.732571
0
LINE
8
Image
10
103.372921
20
96.732571
11
102.626200
21
98.131430
0
LINE
8
Image
10
57.853200
20
98.037000
11
57.749731
21
97.404029
0
LINE
8
Image
10
57.749731
20
97.404029
11
57.050282
21
95.631121
0
LINE
8
Image
10
57.050282
20
95.631121
11
56.040321
21
92.907283
0
LINE
8
Image
10
56.040321
20
92.907283
11
55.005320
21
89.421520
0
LINE
8
Image
10
55.005320
20
89.421520
11
54.584675
21
87.742560
0
LINE
8
Image
10
54.584675
20
87.742560
11
55.801655
21
84.262160
0
LINE
8
Image
10
55.801655
20
84.262160
11
57.501285
21
79.136900
0
LINE
8
Image
10
57.501285
20
79.136900
11
58.123470
21
77.266220
0
LINE
8
Image
10
58.123470
20
77.266220
11
58.383918
21
76.375835
0
LINE
8
Image
10
58.383918
20
76.375835
11
59.207123
21
73.485575
0
LINE
8
Image
10
59.207123
20
73.485575
11
59.910438
21
71.259875
0
LINE
8
Image
10
59.910438
20
71.259875
11
58.785448
21
70.300762
0
LINE
8
Image
10
58.785448
20
70.300762
11
57.742930
21
69.533684
0
LINE
8
Image
10
57.742930
20
69.533684
11
56.816058
21
69.036242
0
LINE
8
Image
10
56.816058
20
69.036242
11
56.142003
21
68.919558
0
LINE
8
Image
10
56.142003
20
68.919558
11
55.450177
21
69.028823
0
LINE
8
Image
10
55.450177
20
69.028823
11
54.766122
21
69.340642
0
LINE
8
Image
10
54.766122
20
69.340642
11
54.115381
21
69.831619
0
LINE
8
Image
10
54.115381
20
69.831619
11
53.016005
21
71.257463
0
LINE
8
Image
10
53.016005
20
71.257463
11
52.618456
21
72.145540
0
LINE
8
Image
10
52.618456
20
72.145540
11
52.356388
21
73.119192
0
LINE
8
Image
10
52.356388
20
73.119192
11
51.711412
21
77.518299
0
LINE
8
Image
10
51.711412
20
77.518299
11
51.283588
21
81.971872
0
LINE
8
Image
10
51.283588
20
81.971872
11
50.720833
21
88.321862
0
LINE
8
Image
10
50.720833
20
88.321862
11
50.192183
21
93.348942
0
LINE
8
Image
10
50.192183
20
93.348942
11
49.950338
21
95.134882
0
LINE
8
Image
10
49.950338
20
95.134882
11
49.784633
21
95.384565
0
LINE
8
Image
10
49.784633
20
95.384565
11
49.566424
21
95.456229
0
LINE
8
Image
10
49.566424
20
95.456229
11
49.376359
21
95.355593
0
LINE
8
Image
10
49.376359
20
95.355593
11
49.295082
21
95.088374
0
LINE
8
Image
10
49.295082
20
95.088374
11
48.399951
21
92.051334
0
LINE
8
Image
10
48.399951
20
92.051334
11
47.336032
21
89.185384
0
LINE
8
Image
10
47.336032
20
89.185384
11
47.197268
21
88.657725
0
LINE
8
Image
10
47.197268
20
88.657725
11
47.196013
21
87.635209
0
LINE
8
Image
10
47.196013
20
87.635209
11
47.561859
21
84.934484
0
LINE
8
Image
10
47.561859
20
84.934484
11
48.024244
21
82.368340
0
LINE
8
Image
10
48.024244
20
82.368340
11
48.623289
21
77.015084
0
LINE
8
Image
10
48.623289
20
77.015084
11
48.854308
21
74.522384
0
LINE
8
Image
10
48.854308
20
74.522384
11
48.799257
21
72.989425
0
LINE
8
Image
10
48.799257
20
72.989425
11
48.345130
21
71.815650
0
LINE
8
Image
10
48.345130
20
71.815650
11
47.378919
21
70.400504
0
LINE
8
Image
10
47.378919
20
70.400504
11
46.499318
21
69.349607
0
LINE
8
Image
10
46.499318
20
69.349607
11
45.628774
21
68.668016
0
LINE
8
Image
10
45.628774
20
68.668016
11
44.703000
21
68.318851
0
LINE
8
Image
10
44.703000
20
68.318851
11
43.657709
21
68.265234
0
LINE
8
Image
10
43.657709
20
68.265234
11
43.041274
21
68.345922
0
LINE
8
Image
10
43.041274
20
68.345922
11
42.595883
21
68.535459
0
LINE
8
Image
10
42.595883
20
68.535459
11
41.727599
21
69.573674
0
LINE
8
Image
10
41.727599
20
69.573674
11
41.101097
21
70.701912
0
LINE
8
Image
10
41.101097
20
70.701912
11
40.747298
21
71.690334
0
LINE
8
Image
10
40.747298
20
71.690334
11
40.308048
21
74.166664
0
LINE
8
Image
10
40.308048
20
74.166664
11
40.159915
21
75.945834
0
LINE
8
Image
10
40.159915
20
75.945834
11
40.294607
21
78.135404
0
LINE
8
Image
10
40.294607
20
78.135404
11
41.048507
21
87.245284
0
LINE
8
Image
10
41.048507
20
87.245284
11
41.168749
21
90.760952
0
LINE
8
Image
10
41.168749
20
90.760952
11
41.069237
21
92.671404
0
LINE
8
Image
10
41.069237
20
92.671404
11
40.743905
21
93.599109
0
LINE
8
Image
10
40.743905
20
93.599109
11
40.306848
21
94.230401
0
LINE
8
Image
10
40.306848
20
94.230401
11
39.752309
21
94.570795
0
LINE
8
Image
10
39.752309
20
94.570795
11
39.074527
21
94.625804
0
LINE
8
Image
10
39.074527
20
94.625804
11
38.366991
21
94.336434
0
LINE
8
Image
10
38.366991
20
94.336434
11
37.728755
21
93.599347
0
LINE
8
Image
10
37.728755
20
93.599347
11
37.118355
21
92.348551
0
LINE
8
Image
10
37.118355
20
92.348551
11
36.494327
21
90.518054
0
LINE
8
Image
10
36.494327
20
90.518054
11
35.268047
21
86.469724
0
LINE
8
Image
10
35.268047
20
86.469724
11
34.636043
21
84.088474
0
LINE
8
Image
10
34.636043
20
84.088474
11
33.814907
21
80.252024
0
LINE
8
Image
10
33.814907
20
80.252024
11
33.128126
21
76.944734
0
LINE
8
Image
10
33.128126
20
76.944734
11
32.733568
21
75.506989
0
LINE
8
Image
10
32.733568
20
75.506989
11
32.170812
21
74.333261
0
LINE
8
Image
10
32.170812
20
74.333261
11
31.512587
21
73.540650
0
LINE
8
Image
10
31.512587
20
73.540650
11
30.831626
21
73.246254
0
LINE
8
Image
10
30.831626
20
73.246254
11
30.453307
21
73.331551
0
LINE
8
Image
10
30.453307
20
73.331551
11
30.167229
21
73.597608
0
LINE
8
Image
10
30.167229
20
73.597608
11
29.870756
21
74.685377
0
LINE
8
Image
10
29.870756
20
74.685377
11
29.940126
21
76.536310
0
LINE
8
Image
10
29.940126
20
76.536310
11
30.373257
21
79.177154
0
LINE
8
Image
10
30.373257
20
79.177154
11
30.905521
21
82.633274
0
LINE
8
Image
10
30.905521
20
82.633274
11
31.176306
21
84.774744
0
LINE
8
Image
10
31.176306
20
84.774744
11
31.681702
21
88.102184
0
LINE
8
Image
10
31.681702
20
88.102184
11
31.926792
21
90.529844
0
LINE
8
Image
10
31.926792
20
90.529844
11
31.832457
21
91.809215
0
LINE
8
Image
10
31.832457
20
91.809215
11
31.662481
21
92.006269
0
LINE
8
Image
10
31.662481
20
92.006269
11
31.413019
21
91.901825
0
LINE
8
Image
10
31.413019
20
91.901825
11
30.682798
21
90.769204
0
LINE
8
Image
10
30.682798
20
90.769204
11
29.793693
21
88.318065
0
LINE
8
Image
10
29.793693
20
88.318065
11
28.536678
21
83.292154
0
LINE
8
Image
10
28.536678
20
83.292154
11
27.970271
21
80.257992
0
LINE
8
Image
10
27.970271
20
80.257992
11
27.408064
21
76.332432
0
LINE
8
Image
10
27.408064
20
76.332432
11
26.977374
21
72.509283
0
LINE
8
Image
10
26.977374
20
72.509283
11
26.805518
21
69.782354
0
LINE
8
Image
10
26.805518
20
69.782354
11
26.924130
21
67.849775
0
LINE
8
Image
10
26.924130
20
67.849775
11
27.256390
21
66.141800
0
LINE
8
Image
10
27.256390
20
66.141800
11
27.766937
21
64.787009
0
LINE
8
Image
10
27.766937
20
64.787009
11
28.420408
21
63.913984
0
LINE
8
Image
10
28.420408
20
63.913984
11
28.890482
21
63.628730
0
LINE
8
Image
10
28.890482
20
63.628730
11
29.422376
21
63.480953
0
LINE
8
Image
10
29.422376
20
63.480953
11
30.575809
21
63.570481
0
LINE
8
Image
10
30.575809
20
63.570481
11
31.689075
21
64.127866
0
LINE
8
Image
10
31.689075
20
64.127866
11
32.570538
21
65.098404
0
LINE
8
Image
10
32.570538
20
65.098404
11
32.997393
21
66.086331
0
LINE
8
Image
10
32.997393
20
66.086331
11
33.445688
21
67.704047
0
LINE
8
Image
10
33.445688
20
67.704047
11
34.472748
21
73.108234
0
LINE
8
Image
10
34.472748
20
73.108234
11
35.164853
21
76.620975
0
LINE
8
Image
10
35.164853
20
76.620975
11
35.965372
21
79.622479
0
LINE
8
Image
10
35.965372
20
79.622479
11
36.750542
21
81.715035
0
LINE
8
Image
10
36.750542
20
81.715035
11
37.098694
21
82.296173
0
LINE
8
Image
10
37.098694
20
82.296173
11
37.396598
21
82.500934
0
LINE
8
Image
10
37.396598
20
82.500934
11
37.708334
21
82.282700
0
LINE
8
Image
10
37.708334
20
82.282700
11
37.944047
21
81.703572
0
LINE
8
Image
10
37.944047
20
81.703572
11
38.074243
21
80.876913
0
LINE
8
Image
10
38.074243
20
80.876913
11
38.069425
21
79.916084
0
LINE
8
Image
10
38.069425
20
79.916084
11
37.589874
21
71.154249
0
LINE
8
Image
10
37.589874
20
71.154249
11
37.458093
21
64.245184
0
LINE
8
Image
10
37.458093
20
64.245184
11
37.680542
21
62.623444
0
LINE
8
Image
10
37.680542
20
62.623444
11
38.094527
21
61.130089
0
LINE
8
Image
10
38.094527
20
61.130089
11
38.658740
21
59.880926
0
LINE
8
Image
10
38.658740
20
59.880926
11
39.331873
21
58.991764
0
LINE
8
Image
10
39.331873
20
58.991764
11
40.130518
21
58.393935
0
LINE
8
Image
10
40.130518
20
58.393935
11
41.007971
21
57.994567
0
LINE
8
Image
10
41.007971
20
57.994567
11
41.884791
21
57.819655
0
LINE
8
Image
10
41.884791
20
57.819655
11
42.681533
21
57.895194
0
LINE
8
Image
10
42.681533
20
57.895194
11
43.869441
21
58.394783
0
LINE
8
Image
10
43.869441
20
58.394783
11
44.999111
21
59.180034
0
LINE
8
Image
10
44.999111
20
59.180034
11
46.028712
21
60.215703
0
LINE
8
Image
10
46.028712
20
60.215703
11
46.916413
21
61.466544
0
LINE
8
Image
10
46.916413
20
61.466544
11
47.713260
21
62.657164
0
LINE
8
Image
10
47.713260
20
62.657164
11
48.388672
21
64.045194
0
LINE
8
Image
10
48.388672
20
64.045194
11
49.059948
21
65.301964
0
LINE
8
Image
10
49.059948
20
65.301964
11
49.382409
21
63.944424
0
LINE
8
Image
10
49.382409
20
63.944424
11
49.899446
21
61.902602
0
LINE
8
Image
10
49.899446
20
61.902602
11
50.855495
21
59.964814
0
LINE
8
Image
10
50.855495
20
59.964814
11
52.067058
21
58.425455
0
LINE
8
Image
10
52.067058
20
58.425455
11
52.711315
21
57.897186
0
LINE
8
Image
10
52.711315
20
57.897186
11
53.350639
21
57.578924
0
LINE
8
Image
10
53.350639
20
57.578924
11
54.221350
21
57.462057
0
LINE
8
Image
10
54.221350
20
57.462057
11
55.229522
21
57.590604
0
LINE
8
Image
10
55.229522
20
57.590604
11
56.285143
21
57.943530
0
LINE
8
Image
10
56.285143
20
57.943530
11
57.298199
21
58.499797
0
LINE
8
Image
10
57.298199
20
58.499797
11
58.185564
21
59.197360
0
LINE
8
Image
10
58.185564
20
59.197360
11
58.554969
21
59.680597
0
LINE
8
Image
10
58.554969
20
59.680597
11
58.632312
21
59.914174
0
LINE
8
Image
10
58.632312
20
59.914174
11
58.817483
21
60.011326
0
LINE
8
Image
10
58.817483
20
60.011326
11
59.338780
21
60.460788
0
LINE
8
Image
10
59.338780
20
60.460788
11
60.106886
21
61.595742
0
LINE
8
Image
10
60.106886
20
61.595742
11
60.928699
21
63.096038
0
LINE
8
Image
10
60.928699
20
63.096038
11
61.611113
21
64.641526
0
LINE
8
Image
10
61.611113
20
64.641526
11
62.207609
21
66.485901
0
LINE
8
Image
10
62.207609
20
66.485901
11
62.640877
21
68.402767
0
LINE
8
Image
10
62.640877
20
68.402767
11
62.910879
21
70.389433
0
LINE
8
Image
10
62.910879
20
70.389433
11
63.017577
21
72.443209
0
LINE
8
Image
10
63.017577
20
72.443209
11
62.960934
21
74.561407
0
LINE
8
Image
10
62.960934
20
74.561407
11
62.740912
21
76.741335
0
LINE
8
Image
10
62.740912
20
76.741335
11
61.810582
21
81.275626
0
LINE
8
Image
10
61.810582
20
81.275626
11
61.303638
21
83.749896
0
LINE
8
Image
10
61.303638
20
83.749896
11
61.836453
21
84.773974
0
LINE
8
Image
10
61.836453
20
84.773974
11
62.238318
21
85.394216
0
LINE
8
Image
10
62.238318
20
85.394216
11
62.566088
21
85.570456
0
LINE
8
Image
10
62.566088
20
85.570456
11
63.170455
21
85.271160
0
LINE
8
Image
10
63.170455
20
85.271160
11
63.773768
21
85.146708
0
LINE
8
Image
10
63.773768
20
85.146708
11
64.108097
21
84.996082
0
LINE
8
Image
10
64.108097
20
84.996082
11
63.802885
21
84.921428
0
LINE
8
Image
10
63.802885
20
84.921428
11
63.462841
21
85.089413
0
LINE
8
Image
10
63.462841
20
85.089413
11
63.025777
21
85.488578
0
LINE
8
Image
10
63.025777
20
85.488578
11
62.512651
21
86.189653
0
LINE
8
Image
10
62.512651
20
86.189653
11
61.944418
21
87.263368
0
LINE
8
Image
10
61.944418
20
87.263368
11
61.713304
21
88.415152
0
LINE
8
Image
10
61.713304
20
88.415152
11
61.553229
21
89.512328
0
LINE
8
Image
10
61.553229
20
89.512328
11
61.541845
21
90.327065
0
LINE
8
Image
10
61.541845
20
90.327065
11
61.700792
21
91.590152
0
LINE
8
Image
10
61.700792
20
91.590152
11
61.857013
21
92.839587
0
LINE
8
Image
10
61.857013
20
92.839587
11
61.837449
21
93.613368
0
LINE
8
Image
10
61.837449
20
93.613368
11
61.429008
21
93.859720
0
LINE
8
Image
10
61.429008
20
93.859720
11
60.699302
21
94.018799
0
LINE
8
Image
10
60.699302
20
94.018799
11
59.896332
21
94.366609
0
LINE
8
Image
10
59.896332
20
94.366609
11
59.544873
21
94.697541
0
LINE
8
Image
10
59.544873
20
94.697541
11
59.268099
21
95.179158
0
LINE
8
Image
10
59.268099
20
95.179158
11
58.265441
21
97.176489
0
LINE
8
Image
10
58.265441
20
97.176489
11
57.853199
21
98.036858
0
LINE
8
Image
10
57.853199
20
98.036858
11
57.853200
21
98.037000
0
LINE
8
Image
10
128.655000
20
83.294800
11
129.703247
21
83.081919
0
LINE
8
Image
10
129.703247
20
83.081919
11
130.828510
21
82.170320
0
LINE
8
Image
10
130.828510
20
82.170320
11
131.790182
21
81.026547
0
LINE
8
Image
10
131.790182
20
81.026547
11
132.719199
21
79.605059
0
LINE
8
Image
10
132.719199
20
79.605059
11
133.420011
21
78.240179
0
LINE
8
Image
10
133.420011
20
78.240179
11
133.697070
21
77.266230
0
LINE
8
Image
10
133.697070
20
77.266230
11
133.340632
21
76.660327
0
LINE
8
Image
10
133.340632
20
76.660327
11
132.423765
21
75.923803
0
LINE
8
Image
10
132.423765
20
75.923803
11
131.175135
21
75.209825
0
LINE
8
Image
10
131.175135
20
75.209825
11
129.823410
21
74.671560
0
LINE
8
Image
10
129.823410
20
74.671560
11
128.637969
21
74.398716
0
LINE
8
Image
10
128.637969
20
74.398716
11
127.622890
21
74.363261
0
LINE
8
Image
10
127.622890
20
74.363261
11
126.708004
21
74.571484
0
LINE
8
Image
10
126.708004
20
74.571484
11
125.823140
21
75.029676
0
LINE
8
Image
10
125.823140
20
75.029676
11
125.405946
21
75.440304
0
LINE
8
Image
10
125.405946
20
75.440304
11
125.368907
21
75.859599
0
LINE
8
Image
10
125.368907
20
75.859599
11
126.307867
21
79.276959
0
LINE
8
Image
10
126.307867
20
79.276959
11
126.921113
21
81.547616
0
LINE
8
Image
10
126.921113
20
81.547616
11
127.383588
21
82.746208
0
LINE
8
Image
10
127.383588
20
82.746208
11
127.894987
21
83.214635
0
LINE
8
Image
10
127.894987
20
83.214635
11
128.655007
21
83.294799
0
LINE
8
Image
10
128.655007
20
83.294799
11
128.655000
21
83.294800
0
LINE
8
Image
10
65.136500
20
79.941520
11
65.114275
21
79.927047
0
LINE
8
Image
10
65.114275
20
79.927047
11
65.148382
21
79.909982
0
LINE
8
Image
10
65.148382
20
79.909982
11
64.078172
21
77.824842
0
LINE
8
Image
10
64.078172
20
77.824842
11
65.136500
21
79.941520
0
LINE
8
Image
10
69.581700
20
78.266690
11
69.052481
21
78.011270
0
LINE
8
Image
10
69.052481
20
78.011270
11
68.469599
21
77.219491
0
LINE
8
Image
10
68.469599
20
77.219491
11
66.716240
21
73.505230
0
LINE
8
Image
10
66.716240
20
73.505230
11
64.986120
21
70.159190
0
LINE
8
Image
10
64.986120
20
70.159190
11
64.233604
21
68.810143
0
LINE
8
Image
10
64.233604
20
68.810143
11
64.061016
21
67.495781
0
LINE
8
Image
10
64.061016
20
67.495781
11
64.470482
21
66.192664
0
LINE
8
Image
10
64.470482
20
66.192664
11
65.464126
21
64.877350
0
LINE
8
Image
10
65.464126
20
64.877350
11
66.260457
21
64.054145
0
LINE
8
Image
10
66.260457
20
64.054145
11
65.725092
21
63.100199
0
LINE
8
Image
10
65.725092
20
63.100199
11
64.544334
21
60.206440
0
LINE
8
Image
10
64.544334
20
60.206440
11
63.847172
21
57.624569
0
LINE
8
Image
10
63.847172
20
57.624569
11
63.916088
21
57.226138
0
LINE
8
Image
10
63.916088
20
57.226138
11
64.109195
21
57.130338
0
LINE
8
Image
10
64.109195
20
57.130338
11
64.786132
21
57.828689
0
LINE
8
Image
10
64.786132
20
57.828689
11
66.236969
21
59.721603
0
LINE
8
Image
10
66.236969
20
59.721603
11
67.912186
21
61.375613
0
LINE
8
Image
10
67.912186
20
61.375613
11
69.563041
21
62.577138
0
LINE
8
Image
10
69.563041
20
62.577138
11
70.940792
21
63.112599
0
LINE
8
Image
10
70.940792
20
63.112599
11
72.511948
21
63.439480
0
LINE
8
Image
10
72.511948
20
63.439480
11
72.778225
21
63.728928
0
LINE
8
Image
10
72.778225
20
63.728928
11
72.843002
21
64.183849
0
LINE
8
Image
10
72.843002
20
64.183849
11
73.190267
21
66.758369
0
LINE
8
Image
10
73.190267
20
66.758369
11
73.520480
21
69.404199
0
LINE
8
Image
10
73.520480
20
69.404199
11
73.394732
21
70.043031
0
LINE
8
Image
10
73.394732
20
70.043031
11
72.843002
21
70.080642
0
LINE
8
Image
10
72.843002
20
70.080642
11
70.485012
21
69.948351
0
LINE
8
Image
10
70.485012
20
69.948351
11
68.982813
21
70.041368
0
LINE
8
Image
10
68.982813
20
70.041368
11
68.708031
21
70.272962
0
LINE
8
Image
10
68.708031
20
70.272962
11
68.526482
21
70.715745
0
LINE
8
Image
10
68.526482
20
70.715745
11
68.402968
21
71.593560
0
LINE
8
Image
10
68.402968
20
71.593560
11
68.580224
21
72.678935
0
LINE
8
Image
10
68.580224
20
72.678935
11
69.075119
21
73.867556
0
LINE
8
Image
10
69.075119
20
73.867556
11
69.773197
21
74.457270
0
LINE
8
Image
10
69.773197
20
74.457270
11
70.690114
21
74.453794
0
LINE
8
Image
10
70.690114
20
74.453794
11
71.841524
21
73.862845
0
LINE
8
Image
10
71.841524
20
73.862845
11
72.605444
21
73.417914
0
LINE
8
Image
10
72.605444
20
73.417914
11
73.022324
21
73.332129
0
LINE
8
Image
10
73.022324
20
73.332129
11
73.117541
21
73.660825
0
LINE
8
Image
10
73.117541
20
73.660825
11
73.017615
21
74.193135
0
LINE
8
Image
10
73.017615
20
74.193135
11
72.380071
21
75.606855
0
LINE
8
Image
10
72.380071
20
75.606855
11
71.405168
21
77.049806
0
LINE
8
Image
10
71.405168
20
77.049806
11
70.388384
21
77.998509
0
LINE
8
Image
10
70.388384
20
77.998509
11
69.581715
21
78.266709
0
LINE
8
Image
10
69.581715
20
78.266709
11
69.581700
21
78.266690
 0 
ENDSEC
 0 
EOF