0
SECTION
2
HEADER
9
$INSUNITS
70
4
9
$ACADVER
1
AC1014
9
$HANDSEED
5
FFFF
0
ENDSEC
0
SECTION
2
TABLES
0
TABLE
2
VPORT
5
8
100
AcDbSymbolTable
0
ENDTAB
0
TABLE
2
LTYPE
5
5
100
AcDbSymbolTable
0
LTYPE
5
14
100
AcDbSymbolTableRecord
100
AcDbLinetypeTableRecord
2
BYBLOCK
70
0
0
LTYPE
5
15
100
AcDbSymbolTableRecord
100
AcDbLinetypeTableRecord
2
BYLAYER
70
0
0
ENDTAB
0
TABLE
2
LAYER
5
2
100
AcDbSymbolTable
70
2
0
LAYER
5
50
100
AcDbSymbolTableRecord
100
AcDbLayerTableRecord
2
0
70
0
6
CONTINUOUS
0
ENDTAB
0
TABLE
2
STYLE
5
3
100
AcDbSymbolTable
70
1
0
STYLE
5
11
100
AcDbSymbolTableRecord
100
AcDbTextStyleTableRecord
2
STANDARD
70
0
0
ENDTAB
0
TABLE
2
VIEW
5
6
100
AcDbSymbolTable
70
0
0
ENDTAB
0
TABLE
2
UCS
5
7
100
AcDbSymbolTable
70
0
0
ENDTAB
0
TABLE
2
APPID
5
9
100
AcDbSymbolTable
70
2
0
APPID
5
12
100
AcDbSymbolTableRecord
100
AcDbRegAppTableRecord
2
ACAD
70
0
0
ENDTAB
0
TABLE
2
DIMSTYLE
5
A
100
AcDbSymbolTable
70
1
0
ENDTAB
0
TABLE
2
BLOCK_RECORD
5
1
100
AcDbSymbolTable
70
1
0
BLOCK_RECORD
5
1F
100
AcDbSymbolTableRecord
100
AcDbBlockTableRecord
2
*MODEL_SPACE
0
BLOCK_RECORD
5
1B
100
AcDbSymbolTableRecord
100
AcDbBlockTableRecord
2
*PAPER_SPACE
0
ENDTAB
0
ENDSEC
0
SECTION
2
BLOCKS
0
BLOCK
5
20
100
AcDbEntity
100
AcDbBlockBegin
2
*MODEL_SPACE
0
ENDBLK
5
21
100
AcDbEntity
100
AcDbBlockEnd
0
BLOCK
5
1C
100
AcDbEntity
100
AcDbBlockBegin
2
*PAPER_SPACE
0
ENDBLK
5
1D
100
AcDbEntity
100
AcDbBlockEnd
0
ENDSEC
0
SECTION
2
ENTITIES
0
SPLINE
5
100
100
AcDbEntity
8
0
100
AcDbSpline
70
0
71
3
72
26
73
22
74
0
42
0.000000001
43
0.0000000001
44
0.0000000001
40
-20.574322730698551
40
-20.574322730698551
40
-20.574322730698551
40
-20.574322730698551
40
-18.737039282365092
40
-18.737039282365092
40
-16.259115469110448
40
-16.259115469110448
40
-13.713381619535063
40
-13.713381619535063
40
-11.696913520744003
40
-11.696913520744003
40
-8.1749257898361307
40
-8.1749257898361307
40
-5.9270745254966029
40
-5.9270745254966029
40
-4.6160733242955274
40
-4.6160733242955274
40
-3.3285627600891532
40
-3.3285627600891532
40
-1.8236268360485319
40
-1.8236268360485319
40
0
40
0
40
0
40
0
10
-80.000016494433467
20
-109.99999999987848
30
0
10
-80.04757047663837
20
-107.21065686050054
30
0
10
-79.310568361790487
20
-103.53699539732675
30
0
10
-77.254504414102371
20
-95.242810715531462
30
0
10
-75.659183503213356
20
-90.080920743407162
30
0
10
-73.010434112062825
20
-79.518268903349721
30
0
10
-71.967196362457429
20
-74.093838128343606
30
0
10
-71.931138271562958
20
-64.694331955623497
30
0
10
-72.559042574866268
20
-61.101995752705704
30
0
10
-75.874421449693571
20
-52.123874925866637
30
0
10
-79.549368563656515
20
-47.944030187270982
30
0
10
-85.374429958863075
20
-41.464754866658566
30
0
10
-87.541683512846845
20
-39.091985189533844
30
0
10
-90.021080811068416
20
-35.118104639223091
30
0
10
-90.754387334515556
20
-33.56821842999237
30
0
10
-91.55645139462456
20
-30.240043496983667
30
0
10
-91.605669161162638
20
-28.593356764995352
30
0
10
-91.021294165044367
20
-24.96954291154745
30
0
10
-90.251176566049494
20
-22.836462144719164
30
0
10
-87.142755604572372
20
-17.553294649140987
30
0
10
-84.442580358261154
20
-14.14908451145652
30
0
10
-80.000016494433467
20
-9.9999999998784936
30
0
0
LINE
5
101
100
AcDbEntity
8
0
100
AcDbLine
10
-80.000016494433453
20
-9.9999999998784936
30
0
11
-105.90535182219631
21
-10.000001799037047
31
0
0
SPLINE
5
102
100
AcDbEntity
8
0
100
AcDbSpline
70
0
71
3
72
10
73
6
74
0
42
0.000000001
43
0.0000000001
44
0.0000000001
40
-0.38930393960947296
40
-0.38930393960947296
40
-0.38930393960947296
40
-0.38930393960947296
40
-0.19567650890879371
40
-0.19567650890879371
40
0
40
0
40
0
40
0
10
-105.90535182219631
20
-10.000001799037047
30
0
10
-106.23718542724505
20
-10.55361148776681
30
0
10
-106.55743937731337
20
-11.113552340135282
30
0
10
-107.17684573241618
20
-12.253884642079528
30
0
10
-107.47518870241309
20
-12.833417344713745
30
0
10
-107.76005979832792
20
-13.420175457121225
30
0
0
LINE
5
103
100
AcDbEntity
8
0
100
AcDbLine
10
-107.76005979832792
20
-13.420175457121225
30
0
11
-102.99870655195488
21
-13.420172002239141
31
0
0
LINE
5
104
100
AcDbEntity
8
0
100
AcDbLine
10
-102.99870655195488
20
-13.420172002239141
30
0
11
-102.99870655195488
21
-14.420172002239141
31
0
0
LINE
5
105
100
AcDbEntity
8
0
100
AcDbLine
10
-102.99870655195488
20
-14.420172002239141
30
0
11
-108.22918710306617
21
-14.420172003600136
31
0
0
SPLINE
5
106
100
AcDbEntity
8
0
100
AcDbSpline
70
0
71
3
72
18
73
14
74
0
42
0.000000001
43
0.0000000001
44
0.0000000001
40
-31.103543108427374
40
-31.103543108427374
40
-31.103543108427374
40
-31.103543108427374
40
-21.963018164299474
40
-21.963018164299474
40
-14.980489829221536
40
-14.980489829221536
40
-9.4536883919227943
40
-9.4536883919227943
40
-2.4454289089515808
40
-2.4454289089515808
40
-0.8101589837189741
40
-0.8101589837189741
40
0
40
0
40
0
40
0
10
-108.22918710306617
20
-14.420172003600136
30
0
10
-109.60412321891428
20
-17.456486483336949
30
0
10
-110.58989662555666
20
-20.624178932514585
30
0
10
-111.49836690855324
20
-26.421430505686672
30
0
10
-111.76994984178462
20
-29.976546645504772
30
0
10
-110.50378330952915
20
-37.663769827802923
30
0
10
-109.25760457322646
20
-41.968188445320607
30
0
10
-102.48668149868644
20
-53.042287285192145
30
0
10
-97.541253481283704
20
-57.486214428452769
30
0
10
-93.894417412186172
20
-62.222031698784043
30
0
10
-93.013061280277057
20
-63.474129395228061
30
0
10
-92.289539761411717
20
-65.37391093835663
30
0
10
-91.871742965151554
20
-66.73162610876301
30
0
10
-91.960776635329523
20
-69.430687981591902
30
0
0
LINE
5
107
100
AcDbEntity
8
0
100
AcDbLine
10
-91.960776635329523
20
-69.430687981591902
30
0
11
-86.982412998035187
21
-69.430687982843594
31
0
0
LINE
5
108
100
AcDbEntity
8
0
100
AcDbLine
10
-86.982412998035187
20
-69.430687982843594
30
0
11
-86.982412998035187
21
-70.430687982843594
31
0
0
LINE
5
109
100
AcDbEntity
8
0
100
AcDbLine
10
-86.982412998035187
20
-70.430687982843594
30
0
11
-92.013794331797882
21
-70.430687982872428
31
0
0
SPLINE
5
110
100
AcDbEntity
8
0
100
AcDbSpline
70
0
71
3
72
12
73
8
74
0
42
0.000000001
43
0.0000000001
44
0.0000000001
40
-3.5207976529961131
40
-3.5207976529961131
40
-3.5207976529961131
40
-3.5207976529961131
40
-2.4158625231575948
40
-2.4158625231575948
40
-1.1616883559486737
40
-1.1616883559486737
40
0
40
0
40
0
40
0
10
-92.013794331797882
20
-70.430687982872428
30
0
10
-92.291785826996602
20
-74.290862786408638
30
0
10
-93.431402176195604
20
-78.922706347828552
30
0
10
-95.847643576230922
20
-87.851246519693248
30
0
10
-97.334387960272366
20
-92.791901530918466
30
0
10
-99.424550717213052
20
-102.05364125273876
30
0
10
-100.02951992277548
20
-106.12780868481403
30
0
10
-100.00125656807126
20
-110.00000005806483
30
0
0
LINE
5
111
100
AcDbEntity
8
0
100
AcDbLine
10
-100.00125656807126
20
-110.00000005806484
30
0
11
-80.000016494433467
21
-109.99999999987848
31
0
0
LWPOLYLINE
5
112
100
AcDbEntity
8
0
100
AcDbPolyline
90
32
70
1
43
0.0
10
-189.18786216606827
20
-111.24564520136333
42
-0.19371957146367083
10
-223.6878800236519
20
-96.955269902637752
10
-220.15411392886858
20
-93.421503807854478
10
-220.86122111097578
20
-92.714397427588224
10
-224.39498680483896
20
-96.248163121450744
42
-0.1937195714636728
10
-238.68536210356405
20
-61.748145263866476
10
-233.68786216606722
20
-61.748145263866476
10
-233.68786273305435
20
-60.748145263866355
10
-238.68536210356399
20
-60.748145263865808
42
-0.1937195714636728
10
-224.39498680483842
20
-26.24812740628176
10
-220.86122071005514
20
-29.781893501065113
10
-220.15411432978894
20
-29.074786318957901
10
-223.68788002365153
20
-25.541020625094873
42
-0.19371957146367383
10
-189.18786216606716
20
-11.250645326369639
10
-189.18786216606716
20
-16.248145263866416
10
-188.18786216606702
20
-16.24814469687923
10
-188.18786216606668
20
-11.250645326369618
42
-0.19371957146367372
10
-153.6878443084824
20
-25.541020625095179
10
-157.22161040326571
20
-29.074786719878503
10
-156.51450322115863
20
-29.781893100144615
10
-152.98073752729559
20
-26.248127406282066
42
-0.19371957146367405
10
-138.69036222857031
20
-60.748145263866462
10
-143.68786216606711
20
-60.748145263866462
10
-143.68786159907992
20
-61.748145263866547
10
-138.69036222857031
20
-61.748145263866959
42
-0.19371957146367383
10
-152.98073752729584
20
-96.248163121451213
10
-156.51450362207919
20
-92.714397026667896
10
-157.22161000234536
20
-93.421504208774891
10
-153.68784430848282
20
-96.955269902638179
42
-0.19371957146367336
10
-188.18786216606713
20
-111.24564520136335
10
-188.18786216606713
20
-106.24814526386658
10
-189.1878621660673
20
-106.2481458308536
0
LWPOLYLINE
5
113
100
AcDbEntity
8
0
100
AcDbPolyline
90
32
70
1
43
0.0
10
-310.49492595386181
20
-94.999271938615379
42
-0.19149705231946004
10
-334.38884471550097
20
-85.105652020105254
10
-332.11696394713783
20
-82.647509450921888
10
-332.87740187265331
20
-81.998098824709473
10
-335.09604155878526
20
-84.39863530272639
42
-0.1914970523194596
10
-344.99574780939997
20
-60.507237582390083
10
-341.65111623225016
20
-60.375530599954025
10
-341.72962438848424
20
-59.378617128581261
10
-344.99587517764917
20
-59.507237583599199
42
-0.19149705231945971
10
-335.10225525913904
20
-35.61331882196005
10
-332.64411268995565
20
-37.885199590323126
10
-331.9947020637432
20
-37.124761664807728
10
-334.39523854176014
20
-34.906121978675756
42
-0.19149705231945971
10
-310.50384082142381
20
-25.006415728061057
10
-310.37213383898779
20
-28.351047305210795
10
-309.37522036761499
20
-28.272539148976801
10
-309.50384082263292
20
-25.006288359811855
42
-0.19149705231945982
10
-285.60992206099377
20
-34.899908278321981
10
-287.8818028293569
20
-37.358050847505375
10
-287.12136490384148
20
-38.007461473717782
10
-284.90272521770953
20
-35.60692499570083
42
-0.19149705231945971
10
-275.00301896709476
20
-59.498322716037165
10
-278.34765054424452
20
-59.630029698473209
10
-278.26914238801055
20
-60.62694316984598
10
-275.00289159884557
20
-60.498322714828078
42
-0.19149705231945924
10
-284.89651151735569
20
-84.392241476467191
10
-287.35465408653914
20
-82.120360708104116
10
-288.00406471275153
20
-82.880798633619548
10
-285.60352823473454
20
-85.099438319751471
42
-0.19149705231945993
10
-309.49492595507087
20
-94.999144570366212
10
-309.62663293750688
20
-91.654512993216457
10
-310.6235464088798
20
-91.733021149450451
0
ENDSEC
0
SECTION
2
OBJECTS
0
DICTIONARY
5
C
100
AcDbDictionary
3
ACAD_GROUP
350
D
3
ACAD_MLINESTYLE
350
17
0
DICTIONARY
5
D
100
AcDbDictionary
0
DICTIONARY
5
1A
330
C
100
AcDbDictionary
0
DICTIONARY
5
17
100
AcDbDictionary
0
ENDSEC
0
EOF
