0
SECTION
2
HEADER
9
$INSUNITS
70
4
9
$ACADVER
1
AC1014
9
$HANDSEED
5
FFFF
0
ENDSEC
0
SECTION
2
TABLES
0
TABLE
2
VPORT
5
8
100
AcDbSymbolTable
0
ENDTAB
0
TABLE
2
LTYPE
5
5
100
AcDbSymbolTable
0
LTYPE
5
14
100
AcDbSymbolTableRecord
100
AcDbLinetypeTableRecord
2
BYBLOCK
70
0
0
LTYPE
5
15
100
AcDbSymbolTableRecord
100
AcDbLinetypeTableRecord
2
BYLAYER
70
0
0
ENDTAB
0
TABLE
2
LAYER
5
2
100
AcDbSymbolTable
70
2
0
LAYER
5
50
100
AcDbSymbolTableRecord
100
AcDbLayerTableRecord
2
0
70
0
6
CONTINUOUS
0
ENDTAB
0
TABLE
2
STYLE
5
3
100
AcDbSymbolTable
70
1
0
STYLE
5
11
100
AcDbSymbolTableRecord
100
AcDbTextStyleTableRecord
2
STANDARD
70
0
0
ENDTAB
0
TABLE
2
VIEW
5
6
100
AcDbSymbolTable
70
0
0
ENDTAB
0
TABLE
2
UCS
5
7
100
AcDbSymbolTable
70
0
0
ENDTAB
0
TABLE
2
APPID
5
9
100
AcDbSymbolTable
70
2
0
APPID
5
12
100
AcDbSymbolTableRecord
100
AcDbRegAppTableRecord
2
ACAD
70
0
0
ENDTAB
0
TABLE
2
DIMSTYLE
5
A
100
AcDbSymbolTable
70
1
0
ENDTAB
0
TABLE
2
BLOCK_RECORD
5
1
100
AcDbSymbolTable
70
1
0
BLOCK_RECORD
5
1F
100
AcDbSymbolTableRecord
100
AcDbBlockTableRecord
2
*MODEL_SPACE
0
BLOCK_RECORD
5
1B
100
AcDbSymbolTableRecord
100
AcDbBlockTableRecord
2
*PAPER_SPACE
0
ENDTAB
0
ENDSEC
0
SECTION
2
BLOCKS
0
BLOCK
5
20
100
AcDbEntity
100
AcDbBlockBegin
2
*MODEL_SPACE
0
ENDBLK
5
21
100
AcDbEntity
100
AcDbBlockEnd
0
BLOCK
5
1C
100
AcDbEntity
100
AcDbBlockBegin
2
*PAPER_SPACE
0
ENDBLK
5
1D
100
AcDbEntity
100
AcDbBlockEnd
0
ENDSEC
0
SECTION
2
ENTITIES
0
LWPOLYLINE
5
100
100
AcDbEntity
8
0
100
AcDbPolyline
90
24
70
1
43
0.0
10
121.47930602039511
20
-222.19380108004356
10
116.59480602039481
20
-230.65400324961388
10
65.095162008686799
20
-141.45400324960792
10
74.864162008686804
20
-141.45400324960815
10
74.864162008686819
20
-140.65400324960814
10
65.095162008686543
20
-140.65400324960794
10
116.59480602040965
20
-51.454003249610665
10
121.47930602040945
20
-59.914205419180959
10
122.17212634343703
20
-59.514205419180968
10
117.28762634343707
20
-51.054003249610425
10
220.28691436686813
20
-51.0540032496192
10
215.4024143668679
20
-59.514205419189281
10
216.09523468989551
20
-59.914205419189308
10
220.97973468989579
20
-51.454003249618978
10
272.47937870160382
20
-140.65400324962494
10
262.71037870160382
20
-140.65400324962468
10
262.71037870160376
20
-141.45400324962469
10
272.47937870160405
20
-141.45400324962492
10
220.97973468988096
20
-230.65400324962212
10
216.09523468988115
20
-222.19380108005183
10
215.40241436685358
20
-222.59380108005183
10
220.28691436685358
20
-231.05400324962235
10
117.28762634342247
20
-231.05400324961363
10
122.17212634342268
20
-222.59380108004359
0
LWPOLYLINE
5
101
100
AcDbEntity
8
0
100
AcDbPolyline
90
4
70
1
43
0.0
10
193.78727035497411
20
-213.99628959011551
10
193.78727035497408
20
-213.19628959011553
10
143.78727035497405
20
-213.19628959011555
10
143.78727035497408
20
-213.99628959011548
0
LWPOLYLINE
5
102
100
AcDbEntity
8
0
100
AcDbPolyline
90
4
70
1
43
0.0
10
118.69275645419623
20
-83.53567371120289
10
117.99978536875189
20
-83.135934953089347
10
92.999785368766169
20
-126.4372051423038
10
93.692752303093044
20
-126.83695109654201
0
CIRCLE
5
103
100
AcDbEntity
8
0
100
AcDbCircle
10
168.7872703551453
20
-141.05400324961641
30
0
40
7.5
210
0
220
-0
230
1
0
CIRCLE
5
104
100
AcDbEntity
8
0
100
AcDbCircle
10
140.32478237832564
20
-157.48682834479337
30
0
40
3.499999999999996
210
0
220
-0
230
1
0
CIRCLE
5
105
100
AcDbEntity
8
0
100
AcDbCircle
10
168.77808124238709
20
-176.26190512279661
30
0
40
3.5000000000000142
210
0
220
-0
230
1
0
CIRCLE
5
106
100
AcDbEntity
8
0
100
AcDbCircle
10
197.45107890602785
20
-157.85082241245817
30
0
40
3.5000000000000142
210
0
220
-0
230
1
0
CIRCLE
5
107
100
AcDbEntity
8
0
100
AcDbCircle
10
197.35047189668137
20
-124.65050932824163
30
0
40
3.5000000000000142
210
0
220
-0
230
1
0
CIRCLE
5
108
100
AcDbEntity
8
0
100
AcDbCircle
10
168.86323291294829
20
-105.51409229055326
30
0
40
3.5000000000000142
210
0
220
-0
230
1
0
CIRCLE
5
109
100
AcDbEntity
8
0
100
AcDbCircle
10
139.78396504322211
20
-124.36811539535874
30
0
40
3.499999999999996
210
0
220
-0
230
1
0
CIRCLE
5
110
100
AcDbEntity
8
0
100
AcDbCircle
10
194.79026774725085
20
-140.83892901099625
30
0
40
2.5
210
0
220
-0
230
1
0
CIRCLE
5
111
100
AcDbEntity
8
0
100
AcDbCircle
10
180.36032539159976
20
-160.76172035373122
30
0
40
2.5
210
0
220
-0
230
1
0
CIRCLE
5
112
100
AcDbEntity
8
0
100
AcDbCircle
10
158.31198969676305
20
-159.49530566516756
30
0
40
2.5
210
0
220
-0
230
1
0
CIRCLE
5
113
100
AcDbEntity
8
0
100
AcDbCircle
10
144.39835680091545
20
-140.8953726602181
30
0
40
2.5
210
0
220
-0
230
1
0
CIRCLE
5
114
100
AcDbEntity
8
0
100
AcDbCircle
10
155.76342408931185
20
-118.35833176802157
30
0
40
2.5
210
0
220
-0
230
1
0
CIRCLE
5
115
100
AcDbEntity
8
0
100
AcDbCircle
10
181.7717120668832
20
-118.68572718978496
30
0
40
2.5
210
0
220
-0
230
1
0
CIRCLE
5
116
100
AcDbEntity
8
0
100
AcDbCircle
10
188.31322231771227
20
-107.11509662611923
30
0
40
3.5000000000000142
210
0
220
-0
230
1
0
CIRCLE
5
117
100
AcDbEntity
8
0
100
AcDbCircle
10
208.04261919657407
20
-140.92359448482867
30
0
40
3.5000000000000142
210
0
220
-0
230
1
0
CIRCLE
5
118
100
AcDbEntity
8
0
100
AcDbCircle
10
188.42254219722776
20
-175.18809529045413
30
0
40
3.5000000000000142
210
0
220
-0
230
1
0
CIRCLE
5
119
100
AcDbEntity
8
0
100
AcDbCircle
10
149.33835788677666
20
-174.64356400603944
30
0
40
3.499999999999996
210
0
220
-0
230
1
0
CIRCLE
5
120
100
AcDbEntity
8
0
100
AcDbCircle
10
131.49684672739394
20
-140.86715083560614
30
0
40
3.499999999999996
210
0
220
-0
230
1
0
CIRCLE
5
121
100
AcDbEntity
8
0
100
AcDbCircle
10
148.51683894975767
20
-105.86302909988586
30
0
40
3.499999999999996
210
0
220
-0
230
1
0
CIRCLE
5
122
100
AcDbEntity
8
0
100
AcDbCircle
10
115.47608150651894
20
-140.9830973774786
30
0
40
5
210
0
220
-0
230
1
0
CIRCLE
5
123
100
AcDbEntity
8
0
100
AcDbCircle
10
139.42638655785476
20
-90.569606913206897
30
0
40
5
210
0
220
-0
230
1
0
CIRCLE
5
124
100
AcDbEntity
8
0
100
AcDbCircle
10
197.61398683844487
20
-91.867471603480226
30
0
40
5
210
0
220
-0
230
1
0
CIRCLE
5
125
100
AcDbEntity
8
0
100
AcDbCircle
10
228.33011784158157
20
-140.97001905215672
30
0
40
5
210
0
220
-0
230
1
0
CIRCLE
5
126
100
AcDbEntity
8
0
100
AcDbCircle
10
197.61398683844453
20
-190.72149884596968
30
0
40
5
210
0
220
-0
230
1
0
CIRCLE
5
127
100
AcDbEntity
8
0
100
AcDbCircle
10
137.91221108586856
20
-193.96616057165289
30
0
40
5
210
0
220
-0
230
1
0
LWPOLYLINE
5
128
100
AcDbEntity
8
0
100
AcDbPolyline
90
4
70
1
43
0.0
10
193.77924122305308
20
-68.911716908923609
10
193.77924122305308
20
-68.111716908923583
10
143.77924122305308
20
-68.111716908923583
10
143.77924122305311
20
-68.911716908923609
0
LWPOLYLINE
5
129
100
AcDbEntity
8
0
100
AcDbPolyline
90
4
70
1
43
0.0
10
92.10269890710785
20
-154.11700202641097
10
117.1026989070924
20
-197.41827221563813
10
117.79551923012156
20
-197.01827221564085
10
92.795519230135412
20
-153.71700202641097
0
LWPOLYLINE
5
130
100
AcDbEntity
8
0
100
AcDbPolyline
90
4
70
1
43
0.0
10
219.46663304718297
20
-199.15934485333003
10
244.46663304718552
20
-155.85807466410782
10
243.77381272415803
20
-155.45807466410781
10
218.77381272415622
20
-198.75934485332877
0
LWPOLYLINE
5
131
100
AcDbEntity
8
0
100
AcDbPolyline
90
4
70
1
43
0.0
10
243.44244486917844
20
-124.47598587492648
10
218.44244486919229
20
-81.174715685696611
10
217.74962454616471
20
-81.574715685696617
10
242.74962454614928
20
-124.87598587492377
0
ENDSEC
0
SECTION
2
OBJECTS
0
DICTIONARY
5
C
100
AcDbDictionary
3
ACAD_GROUP
350
D
3
ACAD_MLINESTYLE
350
17
0
DICTIONARY
5
D
100
AcDbDictionary
0
DICTIONARY
5
1A
330
C
100
AcDbDictionary
0
DICTIONARY
5
17
100
AcDbDictionary
0
ENDSEC
0
EOF
