0
SECTION
2
HEADER
9
$INSUNITS
70
4
9
$ACADVER
1
AC1014
9
$HANDSEED
5
FFFF
0
ENDSEC
0
SECTION
2
TABLES
0
TABLE
2
VPORT
5
8
100
AcDbSymbolTable
0
ENDTAB
0
TABLE
2
LTYPE
5
5
100
AcDbSymbolTable
0
LTYPE
5
14
100
AcDbSymbolTableRecord
100
AcDbLinetypeTableRecord
2
BYBLOCK
70
0
0
LTYPE
5
15
100
AcDbSymbolTableRecord
100
AcDbLinetypeTableRecord
2
BYLAYER
70
0
0
ENDTAB
0
TABLE
2
LAYER
5
2
100
AcDbSymbolTable
70
2
0
LAYER
5
50
100
AcDbSymbolTableRecord
100
AcDbLayerTableRecord
2
0
70
0
6
CONTINUOUS
0
ENDTAB
0
TABLE
2
STYLE
5
3
100
AcDbSymbolTable
70
1
0
STYLE
5
11
100
AcDbSymbolTableRecord
100
AcDbTextStyleTableRecord
2
STANDARD
70
0
0
ENDTAB
0
TABLE
2
VIEW
5
6
100
AcDbSymbolTable
70
0
0
ENDTAB
0
TABLE
2
UCS
5
7
100
AcDbSymbolTable
70
0
0
ENDTAB
0
TABLE
2
APPID
5
9
100
AcDbSymbolTable
70
2
0
APPID
5
12
100
AcDbSymbolTableRecord
100
AcDbRegAppTableRecord
2
ACAD
70
0
0
ENDTAB
0
TABLE
2
DIMSTYLE
5
A
100
AcDbSymbolTable
70
1
0
ENDTAB
0
TABLE
2
BLOCK_RECORD
5
1
100
AcDbSymbolTable
70
1
0
BLOCK_RECORD
5
1F
100
AcDbSymbolTableRecord
100
AcDbBlockTableRecord
2
*MODEL_SPACE
0
BLOCK_RECORD
5
1B
100
AcDbSymbolTableRecord
100
AcDbBlockTableRecord
2
*PAPER_SPACE
0
ENDTAB
0
ENDSEC
0
SECTION
2
BLOCKS
0
BLOCK
5
20
100
AcDbEntity
100
AcDbBlockBegin
2
*MODEL_SPACE
0
ENDBLK
5
21
100
AcDbEntity
100
AcDbBlockEnd
0
BLOCK
5
1C
100
AcDbEntity
100
AcDbBlockBegin
2
*PAPER_SPACE
0
ENDBLK
5
1D
100
AcDbEntity
100
AcDbBlockEnd
0
ENDSEC
0
SECTION
2
ENTITIES
0
LWPOLYLINE
5
100
100
AcDbEntity
8
0
100
AcDbPolyline
90
16
70
1
43
0.0
10
-1720
20
-9.1038288019262836e-14
42
-0.41421356237310203
10
-1700
20
-20
10
-1700
20
-450
42
-0.41421356237309503
10
-1950
20
-700
10
-2250
20
-700
42
-0.41421356237309503
10
-2500
20
-450
10
-2500
20
-20.000000000000007
42
-0.41421356237310192
10
-2480
20
-3.8576374173141635e-14
10
-2350
20
-1.5987211554602254e-13
42
-0.41421356237310203
10
-2330
20
-20.000000000000071
10
-2330
20
-455
42
0.41421356237309459
10
-2205
20
-580
10
-1995
20
-580
42
0.41421356237309459
10
-1870
20
-455
10
-1870
20
-20.000000000000004
42
-0.41421356237310203
10
-1850
20
0
0
LWPOLYLINE
5
101
100
AcDbEntity
8
0
100
AcDbPolyline
90
4
70
1
43
0.0
10
-2106
20
-615
10
-2106
20
-665
10
-2094
20
-665
10
-2094
20
-615
0
LWPOLYLINE
5
102
100
AcDbEntity
8
0
100
AcDbPolyline
90
3
70
1
43
0.0
10
-916.59839997497693
20
-688.13943763453562
10
-854.59839997497693
20
-670.13943763453562
10
-854.59839997497693
20
-688.13943763453562
0
LWPOLYLINE
5
103
100
AcDbEntity
8
0
100
AcDbPolyline
90
4
70
1
43
0.0
10
-405.99999999999994
20
-615
10
-405.99999999999994
20
-665
10
-394.00000000000006
20
-665
10
-394.00000000000006
20
-615
0
LWPOLYLINE
5
104
100
AcDbEntity
8
0
100
AcDbPolyline
90
16
70
1
43
0.0
10
-20
20
-4.4408920985006262e-15
42
-0.41421356237309498
10
0
20
-20
10
-7.1054273576010019e-14
20
-449.99999999999994
42
-0.41421356237309537
10
-250
20
-700
10
-549.99999999999989
20
-700
42
-0.41421356237309531
10
-800
20
-450
10
-800
20
-20.000000000000004
42
-0.4142135623730942
10
-780
20
-3.8576374173141635e-14
10
-650
20
-1.1990408665951691e-13
42
-0.41421356237309431
10
-630.00000000000011
20
-20
10
-630.00000000000011
20
-455
42
0.41421356237309503
10
-505.00000000000006
20
-580
10
-295.00000000000006
20
-580
42
0.41421356237309515
10
-170
20
-455
10
-170
20
-20.000000000000004
42
-0.41421356237309559
10
-150
20
0
0
LWPOLYLINE
5
105
100
AcDbEntity
8
0
100
AcDbPolyline
90
4
70
1
43
0.0
10
110.49999999999991
20
-646
10
125.49999999999991
20
-646
10
125.49999999999991
20
-633.99999999999989
10
110.49999999999991
20
-634
0
LWPOLYLINE
5
106
100
AcDbEntity
8
0
100
AcDbPolyline
90
4
70
1
43
0.0
10
852.5
20
-646.00000000000034
10
852.5
20
-634.00000000000034
10
837.5
20
-634.00000000000023
10
837.5
20
-646.00000000000034
0
CIRCLE
5
107
100
AcDbEntity
8
0
100
AcDbCircle
10
368.99999999999989
20
-625
30
0
40
7.5
210
0
220
-0
230
1
0
CIRCLE
5
108
100
AcDbEntity
8
0
100
AcDbCircle
10
593.99999999999989
20
-625
30
0
40
7.5
210
0
220
-0
230
1
0
CIRCLE
5
109
100
AcDbEntity
8
0
100
AcDbCircle
10
706.49999999999977
20
-625
30
0
40
7.5
210
0
220
-0
230
1
0
CIRCLE
5
110
100
AcDbEntity
8
0
100
AcDbCircle
10
481.49999999999989
20
-625
30
0
40
7.5
210
0
220
-0
230
1
0
CIRCLE
5
111
100
AcDbEntity
8
0
100
AcDbCircle
10
256.49999999999983
20
-625
30
0
40
7.5
210
0
220
-0
230
1
0
LWPOLYLINE
5
112
100
AcDbEntity
8
0
100
AcDbPolyline
90
16
70
1
43
0.0
10
877.5
20
-652.5
42
-0.41421356237308171
10
865
20
-665
10
825.5
20
-665
10
825.5
20
-675
10
137.4999999999998
20
-675
10
137.4999999999998
20
-665
10
97.999999999999915
20
-665
42
-0.41421356237308876
10
85.499999999999915
20
-652.5
10
85.499999999999986
20
-627.5
42
-0.4142135623730967
10
97.999999999999915
20
-615
10
137.4999999999998
20
-615
10
137.49999999999986
20
-605
10
825.5
20
-605
10
825.5
20
-615
10
865
20
-614.99999999999989
42
-0.41421356237308671
10
877.5
20
-627.5
0
ENDSEC
0
SECTION
2
OBJECTS
0
DICTIONARY
5
C
100
AcDbDictionary
3
ACAD_GROUP
350
D
3
ACAD_MLINESTYLE
350
17
0
DICTIONARY
5
D
100
AcDbDictionary
0
DICTIONARY
5
1A
330
C
100
AcDbDictionary
0
DICTIONARY
5
17
100
AcDbDictionary
0
ENDSEC
0
EOF
