0
SECTION
2
HEADER
9
$INSUNITS
70
4
9
$ACADVER
1
AC1014
9
$HANDSEED
5
FFFF
0
ENDSEC
0
SECTION
2
TABLES
0
TABLE
2
VPORT
5
8
100
AcDbSymbolTable
0
ENDTAB
0
TABLE
2
LTYPE
5
5
100
AcDbSymbolTable
0
LTYPE
5
14
100
AcDbSymbolTableRecord
100
AcDbLinetypeTableRecord
2
BYBLOCK
70
0
0
LTYPE
5
15
100
AcDbSymbolTableRecord
100
AcDbLinetypeTableRecord
2
BYLAYER
70
0
0
ENDTAB
0
TABLE
2
LAYER
5
2
100
AcDbSymbolTable
70
2
0
LAYER
5
50
100
AcDbSymbolTableRecord
100
AcDbLayerTableRecord
2
0
70
0
6
CONTINUOUS
0
ENDTAB
0
TABLE
2
STYLE
5
3
100
AcDbSymbolTable
70
1
0
STYLE
5
11
100
AcDbSymbolTableRecord
100
AcDbTextStyleTableRecord
2
STANDARD
70
0
0
ENDTAB
0
TABLE
2
VIEW
5
6
100
AcDbSymbolTable
70
0
0
ENDTAB
0
TABLE
2
UCS
5
7
100
AcDbSymbolTable
70
0
0
ENDTAB
0
TABLE
2
APPID
5
9
100
AcDbSymbolTable
70
2
0
APPID
5
12
100
AcDbSymbolTableRecord
100
AcDbRegAppTableRecord
2
ACAD
70
0
0
ENDTAB
0
TABLE
2
DIMSTYLE
5
A
100
AcDbSymbolTable
70
1
0
ENDTAB
0
TABLE
2
BLOCK_RECORD
5
1
100
AcDbSymbolTable
70
1
0
BLOCK_RECORD
5
1F
100
AcDbSymbolTableRecord
100
AcDbBlockTableRecord
2
*MODEL_SPACE
0
BLOCK_RECORD
5
1B
100
AcDbSymbolTableRecord
100
AcDbBlockTableRecord
2
*PAPER_SPACE
0
ENDTAB
0
ENDSEC
0
SECTION
2
BLOCKS
0
BLOCK
5
20
100
AcDbEntity
100
AcDbBlockBegin
2
*MODEL_SPACE
0
ENDBLK
5
21
100
AcDbEntity
100
AcDbBlockEnd
0
BLOCK
5
1C
100
AcDbEntity
100
AcDbBlockBegin
2
*PAPER_SPACE
0
ENDBLK
5
1D
100
AcDbEntity
100
AcDbBlockEnd
0
ENDSEC
0
SECTION
2
ENTITIES
0
LWPOLYLINE
5
100
100
AcDbEntity
8
0
100
AcDbPolyline
90
4
70
1
43
0.0
10
746.36334064427592
20
-1067.9368897978018
10
735.08613097574107
20
-1070.6543411942218
10
723.37297840496399
20
-1022.045678829848
10
734.65018807349884
20
-1019.3282274334279
0
LWPOLYLINE
5
101
100
AcDbEntity
8
0
100
AcDbPolyline
90
4
70
1
43
0.0
10
698.11276138800793
20
-968.11151079059823
10
690.40536469467634
20
-976.7807689025492
10
653.0378728328194
20
-943.55923143129326
10
660.74526952615088
20
-934.88997331934252
0
LWPOLYLINE
5
102
100
AcDbEntity
8
0
100
AcDbPolyline
90
4
70
1
43
0.0
10
615.33805857602874
20
-908.88869236671212
10
610.96999562071812
20
-919.63485568291219
10
564.65032615433881
20
-900.80699811691818
10
569.01838910964932
20
-890.06083480071811
0
LWPOLYLINE
5
103
100
AcDbEntity
8
0
100
AcDbPolyline
90
4
70
1
43
0.0
10
516.3888847604569
20
-875.57942630843002
10
514.38895289344623
20
-887.00572371954775
10
465.13767094897332
20
-878.38532774105306
10
467.13760281598411
20
-866.95903032993533
0
LWPOLYLINE
5
104
100
AcDbEntity
8
0
100
AcDbPolyline
90
4
70
1
43
0.0
10
412.02810918889031
20
-862.32438077582913
10
412.02810918889031
20
-873.92438077582915
10
362.02810918889031
20
-873.92438077582915
10
362.02810918889031
20
-862.32438077582913
0
LWPOLYLINE
5
105
100
AcDbEntity
8
0
100
AcDbPolyline
90
4
70
1
43
0.0
10
259.66726548433434
20
-887.00572371954775
10
257.66733361732361
20
-875.57942630843002
10
306.91861556179646
20
-866.95903032993533
10
308.91854742880724
20
-878.38532774105306
0
LWPOLYLINE
5
106
100
AcDbEntity
8
0
100
AcDbPolyline
90
4
70
1
43
0.0
10
163.08622275706242
20
-919.63485568291219
10
158.71815980175185
20
-908.88869236671212
10
205.03782926813125
20
-890.06083480071811
10
209.40589222344184
20
-900.80699811691818
0
LWPOLYLINE
5
107
100
AcDbEntity
8
0
100
AcDbPolyline
90
4
70
1
43
0.0
10
83.65085368310406
20
-976.7807689025492
10
75.943456989772642
20
-968.11151079059823
10
113.31094885162969
20
-934.88997331934252
10
121.01834554496115
20
-943.55923143129326
0
LWPOLYLINE
5
108
100
AcDbEntity
8
0
100
AcDbPolyline
90
4
70
1
43
0.0
10
38.970087402039418
20
-1070.6543411942218
10
27.692877733504702
20
-1067.9368897978018
10
39.406030304281785
20
-1019.3282274334279
10
50.683239972816537
20
-1022.045678829848
0
SPLINE
5
109
100
AcDbEntity
8
0
100
AcDbSpline
70
2
71
3
72
38
73
34
74
0
42
0.000000001
43
0.0000000001
44
0.0000000001
40
-3.1415926535897931
40
-3.1415926535897931
40
-3.1415926535897931
40
-3.1415926535897931
40
-2.7343273608084502
40
-2.7343273608084502
40
-2.7343273608084502
40
-2.3488082486637811
40
-2.3488082486637811
40
-2.3488082486637811
40
-1.6370515133059387
40
-1.6370515133059387
40
-1.6370515133059387
40
-1.0175644790767184
40
-1.0175644790767184
40
-1.0175644790767184
40
-0.47838561849990324
40
-0.47838561849990324
40
-0.47838561849990324
40
0.34228192668076296
40
0.34228192668076296
40
0.34228192668076296
40
0.7051749648592962
40
0.7051749648592962
40
0.7051749648592962
40
1.3292499323201299
40
1.3292499323201299
40
1.3292499323201299
40
1.7934715352233557
40
1.7934715352233557
40
1.7934715352233557
40
2.4757653298207059
40
2.4757653298207059
40
2.4757653298207059
40
3.1415926535897931
40
3.1415926535897931
40
3.1415926535897931
40
3.1415926535897931
10
736.57720029975678
20
-1169.7821701819155
30
0
10
736.57720029975678
20
-1164.4370797678901
30
0
10
735.06548112658288
20
-1159.0490658100002
30
0
10
731.88947072786095
20
-1153.8056548516615
30
0
10
728.88304535653685
20
-1148.8422190443443
30
0
10
724.34875850695016
20
-1144.0436602655627
30
0
10
718.47283990123174
20
-1139.920258102823
30
0
10
707.62454597160354
20
-1132.3075116280963
30
0
10
692.1340976428271
20
-1127.233065266664
30
0
10
676.07067691866041
20
-1126.47398131004
30
0
10
662.08966294344691
20
-1125.8133023931296
30
0
10
647.81401464123076
20
-1128.3792675474203
30
0
10
636.19523037898398
20
-1133.4894468449377
30
0
10
626.08266544435116
20
-1137.9371600313916
30
0
10
618.05427320855927
20
-1144.2488264818437
30
0
10
613.08085245251584
20
-1151.0793096633047
30
0
10
605.51096182541232
20
-1161.4757778388755
30
0
10
604.53394470225408
20
-1172.5678209279474
30
0
10
609.87106817524295
20
-1183.2357315050924
30
0
10
612.23110417717908
20
-1187.9530016141532
30
0
10
615.92665508908738
20
-1192.5878851462151
30
0
10
620.88197688131811
20
-1196.7340781732851
30
0
10
629.40375040931553
20
-1203.8643755508335
30
0
10
641.71763903196688
20
-1209.401741103155
30
0
10
655.36499664199732
20
-1211.796203693008
30
0
10
665.51665879069503
20
-1213.5773378828248
30
0
10
676.34390489496286
20
-1213.6507056949724
30
0
10
686.54812366133751
20
-1212.0051610435378
30
0
10
701.54586417894711
20
-1209.5866072808844
30
0
10
715.03011691561244
20
-1203.356851062058
30
0
10
723.84067425638261
20
-1195.3684222796394
30
0
10
732.43859770456675
20
-1187.5727861483501
30
0
10
736.57720029975678
20
-1178.5207180246971
30
0
10
736.57720029975678
20
-1169.7821701819155
30
0
0
SPLINE
5
110
100
AcDbEntity
8
0
100
AcDbSpline
70
2
71
3
72
38
73
34
74
0
42
0.000000001
43
0.0000000001
44
0.0000000001
40
-3.1415926535897931
40
-3.1415926535897931
40
-3.1415926535897931
40
-3.1415926535897931
40
-2.7343273608084502
40
-2.7343273608084502
40
-2.7343273608084502
40
-2.3488082486637811
40
-2.3488082486637811
40
-2.3488082486637811
40
-1.6370515133059387
40
-1.6370515133059387
40
-1.6370515133059387
40
-1.0175644790767184
40
-1.0175644790767184
40
-1.0175644790767184
40
-0.47838561849990324
40
-0.47838561849990324
40
-0.47838561849990324
40
0.34228192668072888
40
0.34228192668072888
40
0.34228192668072888
40
0.70517496485926645
40
0.70517496485926645
40
0.70517496485926645
40
1.3292499323201077
40
1.3292499323201077
40
1.3292499323201077
40
1.7934715352233392
40
1.7934715352233392
40
1.7934715352233392
40
2.4757653298206979
40
2.4757653298206979
40
2.4757653298206979
40
3.1415926535897931
40
3.1415926535897931
40
3.1415926535897931
40
3.1415926535897931
10
37.479018078023998
20
-1169.7821701819155
30
0
10
37.479018078023998
20
-1175.1272605959407
30
0
10
38.990737251197977
20
-1180.5152745538305
30
0
10
42.166747649919927
20
-1185.7586855121694
30
0
10
45.173173021243912
20
-1190.7221213194866
30
0
10
49.70745987083049
20
-1195.5206800982683
30
0
10
55.583378476549029
20
-1199.644082261008
30
0
10
66.431672406177128
20
-1207.2568287357344
30
0
10
81.922120734953637
20
-1212.331275097167
30
0
10
97.985541459120441
20
-1213.090359053791
30
0
10
111.96655543433387
20
-1213.7510379707014
30
0
10
126.24220373655
20
-1211.1850728164106
30
0
10
137.86098799879682
20
-1206.0748935188933
30
0
10
147.9735529334296
20
-1201.6271803324391
30
0
10
156.00194516922147
20
-1195.315513881987
30
0
10
160.97536592526495
20
-1188.4850307005261
30
0
10
168.54525655236813
20
-1178.0885625249559
30
0
10
169.52227367552666
20
-1166.9965194358845
30
0
10
164.18515020253849
20
-1156.3286088587397
30
0
10
161.82511420060257
20
-1151.6113387496789
30
0
10
158.1295632886945
20
-1146.9764552176168
30
0
10
153.17424149646391
20
-1142.8302621905468
30
0
10
144.65246796846679
20
-1135.6999648129981
30
0
10
132.33857934581528
20
-1130.1625992606762
30
0
10
118.69122173578477
20
-1127.768136670823
30
0
10
108.53955958708704
20
-1125.9870024810059
30
0
10
97.712313482819326
20
-1125.9136346688585
30
0
10
87.50809471644439
20
-1127.559179320293
30
0
10
72.510354198834648
20
-1129.9777330829463
30
0
10
59.026101462168739
20
-1136.2074893017727
30
0
10
50.215544121398345
20
-1144.1959180841914
30
0
10
41.617620673213985
20
-1151.9915542154808
30
0
10
37.479018078023998
20
-1161.0436223391337
30
0
10
37.479018078023998
20
-1169.7821701819155
30
0
0
SPLINE
5
111
100
AcDbEntity
8
0
100
AcDbSpline
70
4
71
5
72
16
73
10
74
0
42
0.000000001
43
0.0000000001
44
0.0000000001
40
0
40
0
40
0
40
0
40
0
40
0
40
0.20000000000000001
40
0.40000000000000002
40
0.60000000000000009
40
0.80000000000000004
40
1
40
1
40
1
40
1
40
1
40
1
41
1
41
1
41
1
41
1
41
1
41
1
41
1
41
1
41
1
41
1
10
650.4005868083658
20
-1061.6462754417882
30
0
10
644.78036015083774
20
-1066.6503140357308
30
0
10
634.08797363268786
20
-1076.5189600267295
30
0
10
619.69233443810003
20
-1090.903955924658
30
0
10
603.52054727412678
20
-1109.3150357302598
30
0
10
588.00207524820485
20
-1131.1341307140256
30
0
10
579.86744216692455
20
-1147.5005144723184
30
0
10
576.86332129163441
20
-1158.9874456771149
30
0
10
576.4151744305185
20
-1166.2499009544852
30
0
10
576.58008008567845
20
-1169.7821701819155
30
0
0
SPLINE
5
112
100
AcDbEntity
8
0
100
AcDbSpline
70
0
71
3
72
29
73
25
74
0
42
0.000000001
43
0.0000000001
44
0.0000000001
40
1.2394107230036787e-05
40
1.2394107230036787e-05
40
1.2394107230036787e-05
40
1.2394107230036787e-05
40
0.24493416180767125
40
0.24493416180767125
40
0.24493416180767125
40
0.57967965478173389
40
0.57967965478173389
40
0.57967965478173389
40
1.0752219881896672
40
1.0752219881896672
40
1.0752219881896672
40
1.7536139487584412
40
1.7536139487584412
40
1.7536139487584412
40
2.4030481031361894
40
2.4030481031361894
40
2.4030481031361894
40
2.7723203783629913
40
2.7723203783629913
40
2.7723203783629913
40
3.0716513147483222
40
3.0716513147483222
40
3.0716513147483222
40
3.1415926535897931
40
3.1415926535897931
40
3.1415926535897931
40
3.1415926535897931
10
576.58008008567845
20
-1169.7821701819971
30
0
10
576.58706870350716
20
-1176.432956010279
30
0
10
577.74121318053437
20
-1183.0809215716158
30
0
10
579.94421332844877
20
-1189.3579258873315
30
0
10
582.95515179038853
20
-1197.9369873721178
30
0
10
587.87954330341177
20
-1205.8030400374466
30
0
10
594.10552762764496
20
-1212.5756233056122
30
0
10
603.32219779811032
20
-1222.6014542319347
30
0
10
615.35705119818147
20
-1230.2880274834483
30
0
10
628.72628225545259
20
-1235.4350254382587
30
0
10
647.02861135388889
20
-1242.4812085758208
30
0
10
667.89971893788277
20
-1244.7584670915849
30
0
10
687.82315754824481
20
-1242.135127115826
30
0
10
706.89614522835996
20
-1239.6237669025154
30
0
10
725.10407112475355
20
-1232.6448682272915
30
0
10
739.35866153549932
20
-1221.4940501846359
30
0
10
747.46390977031967
20
-1215.1536261070069
30
0
10
754.29713763215648
20
-1207.4385197249044
30
0
10
759.09430633473789
20
-1198.6109654788943
30
0
10
762.98287608685428
20
-1191.4553779741793
30
0
10
765.50180485711485
20
-1183.5646997017814
30
0
10
766.29776982690146
20
-1175.4728686019921
30
0
10
766.48375413019482
20
-1173.5821402074175
30
0
10
766.57720029975678
20
-1171.6821648279185
30
0
10
766.57720029975678
20
-1169.7821701819155
30
0
0
LINE
5
113
100
AcDbEntity
8
0
100
AcDbLine
10
766.57720029975667
20
-1169.7821701819153
30
0
11
766.57432051383489
21
-1169.7821701819155
31
0
0
SPLINE
5
114
100
AcDbEntity
8
0
100
AcDbSpline
70
4
71
5
72
16
73
10
74
0
42
0.000000001
43
0.0000000001
44
0.0000000001
40
-1
40
-1
40
-1
40
-1
40
-1
40
-1
40
-0.80000000000000004
40
-0.60000000000000009
40
-0.40000000000000002
40
-0.20000000000000001
40
0
40
0
40
0
40
0
40
0
40
0
41
1
41
1
41
1
41
1
41
1
41
1
41
1
41
1
41
1
41
1
10
766.57432051383489
20
-1169.7821701819155
30
0
10
766.85595389215894
20
-1163.7496001362977
30
0
10
767.40688886372357
20
-1150.6069329785814
30
0
10
768.19548280078766
20
-1127.6634208978876
30
0
10
768.44915490355856
20
-1091.6441561405506
30
0
10
762.69670279542902
20
-1041.5896986368462
30
0
10
747.49126241892463
20
-1000.5355042277414
30
0
10
726.36877176114001
20
-970.4556982830303
30
0
10
707.21536219816403
20
-950.89545775565841
30
0
10
696.36954794899918
20
-941.23875236053777
30
0
0
ELLIPSE
5
115
100
AcDbEntity
8
0
100
AcDbEllipse
10
387.0281091888902
20
-1043.4135831269473
30
0
11
-359.78685915543224
21
-3.8540071399611917e-14
31
0.0
40
0.55613260256589081
41
3.6775290863945611
42
5.7472488743748169
0
SPLINE
5
116
100
AcDbEntity
8
0
100
AcDbSpline
70
4
71
5
72
16
73
10
74
0
42
0.000000001
43
0.0000000001
44
0.0000000001
40
0
40
0
40
0
40
0
40
0
40
0
40
0.20000000000000001
40
0.40000000000000002
40
0.60000000000000009
40
0.80000000000000004
40
0.99959544968289438
40
0.99959544968289438
40
0.99959544968289438
40
0.99959544968289438
40
0.99959544968289438
40
0.99959544968289438
41
1
41
1
41
1
41
1
41
1
41
1
41
1
41
1
41
1
41
1
10
77.686670428781454
20
-941.23875236053777
30
0
10
66.840856179616665
20
-950.89545775565841
30
0
10
47.687446616640734
20
-970.4556982830303
30
0
10
26.564955958856089
20
-1000.5355042277414
30
0
10
11.359515582351587
20
-1041.5896986368462
30
0
10
5.6093906305466268
20
-1091.6239065938951
30
0
10
5.8604802608528619
20
-1127.6269908563436
30
0
10
6.6477352011150783
20
-1150.5605184015851
30
0
10
7.1980358321383511
20
-1163.6964182224342
30
0
10
7.4790497444256747
20
-1169.7211361851994
30
0
0
LINE
5
117
100
AcDbEntity
8
0
100
AcDbLine
10
7.4790497444256756
20
-1169.7211361851994
30
0
11
7.4790180780239979
21
-1169.7821701819155
31
0
0
SPLINE
5
118
100
AcDbEntity
8
0
100
AcDbSpline
70
0
71
3
72
29
73
25
74
0
42
0.000000001
43
0.0000000001
44
0.0000000001
40
-3.1415926535897931
40
-3.1415926535897931
40
-3.1415926535897931
40
-3.1415926535897931
40
-3.0716513147483222
40
-3.0716513147483222
40
-3.0716513147483222
40
-2.7723203783629913
40
-2.7723203783629913
40
-2.7723203783629913
40
-2.4030481031361894
40
-2.4030481031361894
40
-2.4030481031361894
40
-1.7536139487584412
40
-1.7536139487584412
40
-1.7536139487584412
40
-1.0752219881896672
40
-1.0752219881896672
40
-1.0752219881896672
40
-0.57967965478173389
40
-0.57967965478173389
40
-0.57967965478173389
40
-0.24493416180767125
40
-0.24493416180767125
40
-0.24493416180767125
40
-1.2394107228581602e-05
40
-1.2394107228581602e-05
40
-1.2394107228581602e-05
40
-1.2394107228581602e-05
10
7.4790180780239979
20
-1169.7821701819155
30
0
10
7.4790180780239979
20
-1171.6821648279185
30
0
10
7.5724642475859838
20
-1173.5821402074178
30
0
10
7.7584485508793222
20
-1175.4728686019921
30
0
10
8.5544135206659888
20
-1183.5646997017816
30
0
10
11.073342290926504
20
-1191.4553779741793
30
0
10
14.961912043042886
20
-1198.6109654788943
30
0
10
19.759080745624331
20
-1207.4385197249044
30
0
10
26.592308607461135
20
-1215.1536261070069
30
0
10
34.697556842281401
20
-1221.4940501846359
30
0
10
48.952147253027292
20
-1232.6448682272915
30
0
10
67.160073149420825
20
-1239.6237669025154
30
0
10
86.233060829535972
20
-1242.135127115826
30
0
10
106.15649943989801
20
-1244.7584670915849
30
0
10
127.02760702389192
20
-1242.4812085758208
30
0
10
145.32993612232821
20
-1235.4350254382587
30
0
10
158.69916717959933
20
-1230.2880274834483
30
0
10
170.73402057967053
20
-1222.6014542319347
30
0
10
179.95069075013583
20
-1212.5756233056122
30
0
10
186.17667507436914
20
-1205.8030400374464
30
0
10
191.10106658739221
20
-1197.9369873721178
30
0
10
194.11200504933197
20
-1189.3579258873315
30
0
10
196.31500519724636
20
-1183.0809215716156
30
0
10
197.46914967427355
20
-1176.4329560102788
30
0
10
197.47613829210212
20
-1169.7821701819971
30
0
0
SPLINE
5
119
100
AcDbEntity
8
0
100
AcDbSpline
70
4
71
5
72
16
73
10
74
0
42
0.000000001
43
0.0000000001
44
0.0000000001
40
-1
40
-1
40
-1
40
-1
40
-1
40
-1
40
-0.80000000000000004
40
-0.60000000000000009
40
-0.40000000000000002
40
-0.20000000000000001
40
0
40
0
40
0
40
0
40
0
40
0
41
1
41
1
41
1
41
1
41
1
41
1
41
1
41
1
41
1
41
1
10
197.47613829210229
20
-1169.7821701819155
30
0
10
197.6410439472622
20
-1166.2499009544852
30
0
10
197.1928970861471
20
-1158.9874456771149
30
0
10
194.18877621086034
20
-1147.5005144723184
30
0
10
186.05414312958942
20
-1131.1341307140256
30
0
10
170.53567110367143
20
-1109.3150357302598
30
0
10
154.36388393969466
20
-1090.903955924658
30
0
10
139.96824474509438
20
-1076.5189600267295
30
0
10
129.27585822694297
20
-1066.6503140357308
30
0
10
123.65563156941484
20
-1061.6462754417882
30
0
0
SPLINE
5
120
100
AcDbEntity
8
0
100
AcDbSpline
70
0
71
3
72
62
73
58
74
0
42
0.000000001
43
0.0000000001
44
0.0000000001
40
-6.6207595815632789
40
-6.6207595815632789
40
-6.6207595815632789
40
-6.6207595815632789
40
-6.5101466706111895
40
-6.5101466706111895
40
-6.5101466706111895
40
-6.3507156620320471
40
-6.3507156620320471
40
-6.3507156620320471
40
-6.195534302276962
40
-6.195534302276962
40
-6.195534302276962
40
-6.0378427425654104
40
-6.0378427425654104
40
-6.0378427425654104
40
-5.8709731405483323
40
-5.8709731405483323
40
-5.8709731405483323
40
-5.6822434873303207
40
-5.6822434873303207
40
-5.6822434873303207
40
-5.465223859479126
40
-5.465223859479126
40
-5.465223859479126
40
-5.2164531631723925
40
-5.2164531631723925
40
-5.2164531631723925
40
-4.9359107160950115
40
-4.9359107160950115
40
-4.9359107160950115
40
-4.6336214396098558
40
-4.6336214396098558
40
-4.6336214396098558
40
-4.3289620458698561
40
-4.3289620458698561
40
-4.3289620458698561
40
-4.0552121247217938
40
-4.0552121247217938
40
-4.0552121247217938
40
-3.8128544642824487
40
-3.8128544642824487
40
-3.8128544642824487
40
-3.6104469766379284
40
-3.6104469766379284
40
-3.6104469766379284
40
-3.4346135286433004
40
-3.4346135286433004
40
-3.4346135286433004
40
-3.2745284649998805
40
-3.2745284649998805
40
-3.2745284649998805
40
-3.1191143374241506
40
-3.1191143374241506
40
-3.1191143374241506
40
-2.9634998153381984
40
-2.9634998153381984
40
-2.9634998153381984
40
-2.8040183792061506
40
-2.8040183792061506
40
-2.8040183792061506
40
-2.8040183792061506
10
123.65563156941693
20
-1061.6462754417921
30
0
10
121.82015203388789
20
-1058.738181263001
30
0
10
120.51557649773767
20
-1056.1588515181252
30
0
10
119.58644558317661
20
-1053.9213912147086
30
0
10
118.24725038855156
20
-1050.6964462262888
30
0
10
117.66547586103478
20
-1048.2079948799417
30
0
10
117.40306547286028
20
-1046.0502531231475
30
0
10
117.14764965874929
20
-1043.950026179821
30
0
10
117.17486607355187
20
-1042.1258166654966
30
0
10
117.51947957624189
20
-1039.9448975268874
30
0
10
117.86966751648561
20
-1037.7287000330982
30
0
10
118.57352317379336
20
-1035.1114741063377
30
0
10
120.08128397176773
20
-1031.7625941464944
30
0
10
121.67680021090672
20
-1028.2188010156242
30
0
10
124.20598641275629
20
-1023.8664736588328
30
0
10
128.1281058811154
20
-1018.878138161624
30
0
10
132.56402613378833
20
-1013.2363267283649
30
0
10
138.79066078732924
20
-1006.812123244311
30
0
10
146.97561892149918
20
-1000.1720254180309
30
0
10
156.3874762421041
20
-992.53659805097982
30
0
10
168.37438514116337
20
-984.63858723897101
30
0
10
182.62545035461181
20
-977.21315809501789
30
0
10
198.96151843916834
20
-968.70135113632148
30
0
10
218.25555804376816
20
-960.81556532911873
30
0
10
239.64956798519196
20
-954.2527826402038
30
0
10
263.77591401738096
20
-946.85183412609433
30
0
10
290.56245575958303
20
-941.13128952525722
30
0
10
318.56388390361769
20
-937.59134419339193
30
0
10
348.73590080299465
20
-933.77699266008744
30
0
10
380.31084373657342
20
-932.49386861859875
30
0
10
411.39149893816136
20
-933.85818557978473
30
0
10
442.7158438863446
20
-935.23319955016768
30
0
10
473.52974514101766
20
-939.30063278222656
30
0
10
501.92377388654154
20
-945.67053050627908
30
0
10
527.43706279171283
20
-951.39416495022044
30
0
10
550.98814970434546
20
-958.97883388166804
30
0
10
571.32604346674646
20
-967.70596642422606
30
0
10
589.33169011624261
20
-975.43231540905163
30
0
10
604.80346405517457
20
-984.0545344416613
30
0
10
617.13589266515112
20
-992.68902889434548
30
0
10
627.43544699727204
20
-999.90021555987164
30
0
10
635.53198750242507
20
-1007.1042850718536
30
0
10
641.45114917548995
20
-1013.6031467855008
30
0
10
646.59318526478978
20
-1019.2487742099061
30
0
10
650.09246514510801
20
-1024.3357720525901
30
0
10
652.3708667851912
20
-1028.5355390628479
30
0
10
654.44520517596845
20
-1032.3591572469445
30
0
10
655.53275921475222
20
-1035.4304101735975
30
0
10
656.13475497378533
20
-1037.9339869900759
30
0
10
656.71918579803014
20
-1040.3645148475559
30
0
10
656.87820015798991
20
-1042.2799486401009
30
0
10
656.79752758006941
20
-1044.2755204527423
30
0
10
656.71675098109245
20
-1046.2736654010582
30
0
10
656.38820104174613
20
-1048.3944274068904
30
0
10
655.49770238276437
20
-1051.1457364112691
30
0
10
654.58507544342501
20
-1053.9654135556616
30
0
10
653.04697690693115
20
-1057.4533920609169
30
0
10
650.40058680836592
20
-1061.6462754417882
30
0
0
ENDSEC
0
SECTION
2
OBJECTS
0
DICTIONARY
5
C
100
AcDbDictionary
3
ACAD_GROUP
350
D
3
ACAD_MLINESTYLE
350
17
0
DICTIONARY
5
D
100
AcDbDictionary
0
DICTIONARY
5
1A
330
C
100
AcDbDictionary
0
DICTIONARY
5
17
100
AcDbDictionary
0
ENDSEC
0
EOF
