0
SECTION
2
HEADER
9
$INSUNITS
70
4
9
$ACADVER
1
AC1014
9
$HANDSEED
5
FFFF
0
ENDSEC
0
SECTION
2
TABLES
0
TABLE
2
VPORT
5
8
100
AcDbSymbolTable
0
ENDTAB
0
TABLE
2
LTYPE
5
5
100
AcDbSymbolTable
0
LTYPE
5
14
100
AcDbSymbolTableRecord
100
AcDbLinetypeTableRecord
2
BYBLOCK
70
0
0
LTYPE
5
15
100
AcDbSymbolTableRecord
100
AcDbLinetypeTableRecord
2
BYLAYER
70
0
0
ENDTAB
0
TABLE
2
LAYER
5
2
100
AcDbSymbolTable
70
2
0
LAYER
5
50
100
AcDbSymbolTableRecord
100
AcDbLayerTableRecord
2
0
70
0
6
CONTINUOUS
0
ENDTAB
0
TABLE
2
STYLE
5
3
100
AcDbSymbolTable
70
1
0
STYLE
5
11
100
AcDbSymbolTableRecord
100
AcDbTextStyleTableRecord
2
STANDARD
70
0
0
ENDTAB
0
TABLE
2
VIEW
5
6
100
AcDbSymbolTable
70
0
0
ENDTAB
0
TABLE
2
UCS
5
7
100
AcDbSymbolTable
70
0
0
ENDTAB
0
TABLE
2
APPID
5
9
100
AcDbSymbolTable
70
2
0
APPID
5
12
100
AcDbSymbolTableRecord
100
AcDbRegAppTableRecord
2
ACAD
70
0
0
ENDTAB
0
TABLE
2
DIMSTYLE
5
A
100
AcDbSymbolTable
70
1
0
ENDTAB
0
TABLE
2
BLOCK_RECORD
5
1
100
AcDbSymbolTable
70
1
0
BLOCK_RECORD
5
1F
100
AcDbSymbolTableRecord
100
AcDbBlockTableRecord
2
*MODEL_SPACE
0
BLOCK_RECORD
5
1B
100
AcDbSymbolTableRecord
100
AcDbBlockTableRecord
2
*PAPER_SPACE
0
ENDTAB
0
ENDSEC
0
SECTION
2
BLOCKS
0
BLOCK
5
20
100
AcDbEntity
100
AcDbBlockBegin
2
*MODEL_SPACE
0
ENDBLK
5
21
100
AcDbEntity
100
AcDbBlockEnd
0
BLOCK
5
1C
100
AcDbEntity
100
AcDbBlockBegin
2
*PAPER_SPACE
0
ENDBLK
5
1D
100
AcDbEntity
100
AcDbBlockEnd
0
ENDSEC
0
SECTION
2
ENTITIES
0
CIRCLE
5
100
100
AcDbEntity
8
0
100
AcDbCircle
10
193.06570071375731
20
149.67416987267299
30
0
40
5
210
0
220
-0
230
1
0
LWPOLYLINE
5
101
100
AcDbEntity
8
0
100
AcDbPolyline
90
8
70
1
43
0.0
10
153.06570071375734
20
114.67416987267299
42
0.41421356237309398
10
158.06570071375734
20
109.67416987267298
10
228.06570071375731
20
109.67416987267299
42
0.41421356237309398
10
233.06570071375731
20
114.67416987267299
10
233.06570071375731
20
129.67416987267299
10
200.64924030665071
20
143.15574005844491
42
-0.445889586130507
10
185.77516888734232
20
142.82959934648002
10
153.06570071375734
20
129.67416987267299
0
LWPOLYLINE
5
102
100
AcDbEntity
8
0
100
AcDbPolyline
90
8
70
1
43
0.0
10
233.06570071375731
20
184.67416987267299
42
0.41421356237309503
10
228.06570071375731
20
189.67416987267299
10
158.06570071375734
20
189.67416987267299
42
0.41421356237309609
10
153.06570071375734
20
184.67416987267299
10
153.06570071375734
20
169.67416987267299
10
185.77516888734226
20
156.51874039886596
42
-0.44588958613050778
10
200.64924030665071
20
156.19259968690113
10
233.06570071375731
20
169.67416987267299
0
LWPOLYLINE
5
103
100
AcDbEntity
8
0
100
AcDbPolyline
90
8
70
1
43
0.0
10
153.06570071375734
20
14.674169872672991
42
0.41421356237309293
10
158.06570071375734
20
9.6741698726729908
10
228.06570071375731
20
9.6741698726729908
42
0.41421356237309437
10
233.06570071375731
20
14.674169872672991
10
233.06570071375731
20
29.674169872672991
10
200.64924030665068
20
43.155740058444877
42
-0.44588958613050683
10
185.77516888734232
20
42.829599346480038
10
153.06570071375734
20
29.674169872672991
0
LINE
5
104
100
AcDbEntity
8
0
100
AcDbLine
10
183.06570071375748
20
99.674169872672991
30
0
11
203.06570071375731
21
99.674169872672991
31
0
0
LINE
5
105
100
AcDbEntity
8
0
100
AcDbLine
10
203.06570071375731
20
99.674169872672991
30
0
11
203.06570071375731
21
95.674169872672991
31
0
0
LINE
5
106
100
AcDbEntity
8
0
100
AcDbLine
10
203.06570071375731
20
95.674169872672991
30
0
11
183.06570071375748
21
95.674171660812334
31
0
0
CIRCLE
5
107
100
AcDbEntity
8
0
100
AcDbCircle
10
193.06570071375731
20
49.674169872672991
30
0
40
5
210
0
220
-0
230
1
0
LWPOLYLINE
5
108
100
AcDbEntity
8
0
100
AcDbPolyline
90
8
70
1
43
0.0
10
233.06570071375731
20
84.674169872672991
10
233.06570071375731
20
69.674169872672991
10
200.64924030665068
20
56.192599686901126
42
0.445889586130507
10
185.77516888734226
20
56.518740398865944
10
153.06570071375734
20
69.674169872672991
10
153.06570071375734
20
84.674169872672991
42
-0.41421356237309398
10
158.06570071375734
20
89.674169872672991
10
228.06570071375731
20
89.674169872672977
42
-0.41421356237309398
0
LWPOLYLINE
5
109
100
AcDbEntity
8
0
100
AcDbPolyline
90
4
70
1
43
0.0
10
243.06570071375731
20
199.67416987267299
10
143.06570071375731
20
199.67416987267299
10
143.06570071375734
20
-0.32583012732700922
10
243.06570071375731
20
-0.32583012732700922
0
CIRCLE
5
110
100
AcDbEntity
8
0
100
AcDbCircle
10
219.857470510204
20
99.674169872672991
30
0
40
6.2000000000000011
210
0
220
0
230
1
0
LWPOLYLINE
5
111
100
AcDbEntity
8
0
100
AcDbPolyline
90
4
70
1
43
0.0
10
203.06570071375731
20
95.674169872672991
10
157.51461407084608
20
95.674169872672991
10
157.51461407084608
20
99.674169872672991
10
203.06570071375731
20
99.674169872672991
0
ENDSEC
0
SECTION
2
OBJECTS
0
DICTIONARY
5
C
100
AcDbDictionary
3
ACAD_GROUP
350
D
3
ACAD_MLINESTYLE
350
17
0
DICTIONARY
5
D
100
AcDbDictionary
0
DICTIONARY
5
1A
330
C
100
AcDbDictionary
0
DICTIONARY
5
17
100
AcDbDictionary
0
ENDSEC
0
EOF
