999
"DXF R12 Output" (www.mydxf.blogspot.com)
 0 
SECTION
 2 
HEADER
 9 
$ACADVER
 1 
AC1009
 9 
$EXTMIN
 10 
 0 
 20 
 0 
 9 
$EXTMAX
 10 
 8.5 
 20 
 11 
 0 
ENDSEC
 0 
SECTION
 2 
ENTITIES
0
LINE
8
Layer 1
10
51.376600
20
204.112000
11
50.252452
21
204.661084
0
LINE
8
Layer 1
10
50.252452
20
204.661084
11
49.095320
21
205.536223
0
LINE
8
Layer 1
10
49.095320
20
205.536223
11
47.833983
21
206.800421
0
LINE
8
Layer 1
10
47.833983
20
206.800421
11
46.397220
21
208.516680
0
LINE
8
Layer 1
10
46.397220
20
208.516680
11
43.621760
21
211.648721
0
LINE
8
Layer 1
10
43.621760
20
211.648721
11
42.415727
21
212.669903
0
LINE
8
Layer 1
10
42.415727
20
212.669903
11
41.264380
21
213.390960
0
LINE
8
Layer 1
10
41.264380
20
213.390960
11
40.855126
21
213.564593
0
LINE
8
Layer 1
10
40.855126
20
213.564593
11
41.399743
21
213.129918
0
LINE
8
Layer 1
10
41.399743
20
213.129918
11
42.365742
21
212.085036
0
LINE
8
Layer 1
10
42.365742
20
212.085036
11
43.079153
21
210.702878
0
LINE
8
Layer 1
10
43.079153
20
210.702878
11
43.309836
21
209.842754
0
LINE
8
Layer 1
10
43.309836
20
209.842754
11
43.308373
21
208.805128
0
LINE
8
Layer 1
10
43.308373
20
208.805128
11
43.143171
21
207.460667
0
LINE
8
Layer 1
10
43.143171
20
207.460667
11
42.862794
21
206.955028
0
LINE
8
Layer 1
10
42.862794
20
206.955028
11
40.098994
21
209.671978
0
LINE
8
Layer 1
10
40.098994
20
209.671978
11
39.052836
21
210.667191
0
LINE
8
Layer 1
10
39.052836
20
210.667191
11
38.023231
21
211.337814
0
LINE
8
Layer 1
10
38.023231
20
211.337814
11
36.983025
21
211.697362
0
LINE
8
Layer 1
10
36.983025
20
211.697362
11
35.905064
21
211.759348
0
LINE
8
Layer 1
10
35.905064
20
211.759348
11
34.713573
21
211.488379
0
LINE
8
Layer 1
10
34.713573
20
211.488379
11
33.637961
21
210.797503
0
LINE
8
Layer 1
10
33.637961
20
210.797503
11
32.560006
21
209.582072
0
LINE
8
Layer 1
10
32.560006
20
209.582072
11
31.361484
21
207.737438
0
LINE
8
Layer 1
10
31.361484
20
207.737438
11
30.729121
21
206.737438
0
LINE
8
Layer 1
10
30.729121
20
206.737438
11
30.591834
21
206.637278
0
LINE
8
Layer 1
10
30.591834
20
206.637278
11
30.492945
21
206.707818
0
LINE
8
Layer 1
10
30.492945
20
206.707818
11
30.168847
21
207.540738
0
LINE
8
Layer 1
10
30.168847
20
207.540738
11
29.972002
21
208.818727
0
LINE
8
Layer 1
10
29.972002
20
208.818727
11
29.932092
21
210.207467
0
LINE
8
Layer 1
10
29.932092
20
210.207467
11
30.078799
21
211.372638
0
LINE
8
Layer 1
10
30.078799
20
211.372638
11
30.137889
21
212.083657
0
LINE
8
Layer 1
10
30.137889
20
212.083657
11
29.502267
21
212.138724
0
LINE
8
Layer 1
10
29.502267
20
212.138724
11
28.585404
21
211.876650
0
LINE
8
Layer 1
10
28.585404
20
211.876650
11
27.764746
21
211.341071
0
LINE
8
Layer 1
10
27.764746
20
211.341071
11
27.024996
21
210.518673
0
LINE
8
Layer 1
10
27.024996
20
210.518673
11
26.350857
21
209.396144
0
LINE
8
Layer 1
10
26.350857
20
209.396144
11
25.979663
21
208.805138
0
LINE
8
Layer 1
10
25.979663
20
208.805138
11
25.676078
21
209.181551
0
LINE
8
Layer 1
10
25.676078
20
209.181551
11
25.387658
21
210.071308
0
LINE
8
Layer 1
10
25.387658
20
210.071308
11
25.288371
21
211.472482
0
LINE
8
Layer 1
10
25.288371
20
211.472482
11
25.518658
21
212.981188
0
LINE
8
Layer 1
10
25.518658
20
212.981188
11
25.670261
21
213.603863
0
LINE
8
Layer 1
10
25.670261
20
213.603863
11
25.046134
21
213.609863
0
LINE
8
Layer 1
10
25.046134
20
213.609863
11
23.984268
21
213.359032
0
LINE
8
Layer 1
10
23.984268
20
213.359032
11
23.085524
21
212.819526
0
LINE
8
Layer 1
10
23.085524
20
212.819526
11
22.283321
21
211.680471
0
LINE
8
Layer 1
10
22.283321
20
211.680471
11
21.670804
21
210.100526
0
LINE
8
Layer 1
10
21.670804
20
210.100526
11
21.410432
21
209.319044
0
LINE
8
Layer 1
10
21.410432
20
209.319044
11
21.039812
21
209.909980
0
LINE
8
Layer 1
10
21.039812
20
209.909980
11
20.657451
21
210.894554
0
LINE
8
Layer 1
10
20.657451
20
210.894554
11
20.605697
21
212.308095
0
LINE
8
Layer 1
10
20.605697
20
212.308095
11
21.091972
21
213.703774
0
LINE
8
Layer 1
10
21.091972
20
213.703774
11
22.033669
21
214.929923
0
LINE
8
Layer 1
10
22.033669
20
214.929923
11
23.348181
21
215.834874
0
LINE
8
Layer 1
10
23.348181
20
215.834874
11
24.304623
21
216.193489
0
LINE
8
Layer 1
10
24.304623
20
216.193489
11
25.248683
21
216.353326
0
LINE
8
Layer 1
10
25.248683
20
216.353326
11
26.215165
21
216.316628
0
LINE
8
Layer 1
10
26.215165
20
216.316628
11
27.238871
21
216.085636
0
LINE
8
Layer 1
10
27.238871
20
216.085636
11
27.902689
21
215.881364
0
LINE
8
Layer 1
10
27.902689
20
215.881364
11
28.390250
21
216.116491
0
LINE
8
Layer 1
10
28.390250
20
216.116491
11
29.248231
21
216.750697
0
LINE
8
Layer 1
10
29.248231
20
216.750697
11
29.920480
21
217.630201
0
LINE
8
Layer 1
10
29.920480
20
217.630201
11
30.140932
21
218.098454
0
LINE
8
Layer 1
10
30.140932
20
218.098454
11
27.666102
21
219.330194
0
LINE
8
Layer 1
10
27.666102
20
219.330194
11
23.754300
21
221.299000
0
LINE
8
Layer 1
10
23.754300
20
221.299000
11
19.658714
21
223.824703
0
LINE
8
Layer 1
10
19.658714
20
223.824703
11
17.908327
21
225.138678
0
LINE
8
Layer 1
10
17.908327
20
225.138678
11
16.342762
21
226.499375
0
LINE
8
Layer 1
10
16.342762
20
226.499375
11
14.951934
21
227.916275
0
LINE
8
Layer 1
10
14.951934
20
227.916275
11
13.725755
21
229.398859
0
LINE
8
Layer 1
10
13.725755
20
229.398859
11
12.654139
21
230.956607
0
LINE
8
Layer 1
10
12.654139
20
230.956607
11
11.727000
21
232.599000
0
LINE
8
Layer 1
10
11.727000
20
232.599000
11
10.736605
21
234.881734
0
LINE
8
Layer 1
10
10.736605
20
234.881734
11
9.974830
21
237.366312
0
LINE
8
Layer 1
10
9.974830
20
237.366312
11
9.443621
21
240.022172
0
LINE
8
Layer 1
10
9.443621
20
240.022172
11
9.144925
21
242.818750
0
LINE
8
Layer 1
10
9.144925
20
242.818750
11
9.080688
21
245.725484
0
LINE
8
Layer 1
10
9.080688
20
245.725484
11
9.252858
21
248.711813
0
LINE
8
Layer 1
10
9.252858
20
248.711813
11
9.663379
21
251.747172
0
LINE
8
Layer 1
10
9.663379
20
251.747172
11
10.314200
21
254.801000
0
LINE
8
Layer 1
10
10.314200
20
254.801000
11
10.737142
21
256.691429
0
LINE
8
Layer 1
10
10.737142
20
256.691429
11
10.852283
21
258.309870
0
LINE
8
Layer 1
10
10.852283
20
258.309870
11
10.810354
21
260.453802
0
LINE
8
Layer 1
10
10.810354
20
260.453802
11
10.436930
21
263.486200
0
LINE
8
Layer 1
10
10.436930
20
263.486200
11
10.197367
21
266.926649
0
LINE
8
Layer 1
10
10.197367
20
266.926649
11
10.380480
21
270.034630
0
LINE
8
Layer 1
10
10.380480
20
270.034630
11
10.748764
21
271.940104
0
LINE
8
Layer 1
10
10.748764
20
271.940104
11
11.227678
21
273.664126
0
LINE
8
Layer 1
10
11.227678
20
273.664126
11
12.743540
21
277.259190
0
LINE
8
Layer 1
10
12.743540
20
277.259190
11
13.964645
21
279.968389
0
LINE
8
Layer 1
10
13.964645
20
279.968389
11
14.359730
21
281.687730
0
LINE
8
Layer 1
10
14.359730
20
281.687730
11
14.303249
21
282.713050
0
LINE
8
Layer 1
10
14.303249
20
282.713050
11
13.962119
21
283.490035
0
LINE
8
Layer 1
10
13.962119
20
283.490035
11
13.325321
21
284.033560
0
LINE
8
Layer 1
10
13.325321
20
284.033560
11
12.381840
21
284.358500
0
LINE
8
Layer 1
10
12.381840
20
284.358500
11
11.926574
21
284.566223
0
LINE
8
Layer 1
10
11.926574
20
284.566223
11
12.718250
21
284.728010
0
LINE
8
Layer 1
10
12.718250
20
284.728010
11
13.429201
21
284.835822
0
LINE
8
Layer 1
10
13.429201
20
284.835822
11
12.285251
21
286.382242
0
LINE
8
Layer 1
10
12.285251
20
286.382242
11
10.922700
21
287.564000
0
LINE
8
Layer 1
10
10.922700
20
287.564000
11
10.127200
21
288.237000
0
LINE
8
Layer 1
10
10.127200
20
288.237000
11
11.350026
21
288.073600
0
LINE
8
Layer 1
10
11.350026
20
288.073600
11
13.038390
21
287.634182
0
LINE
8
Layer 1
10
13.038390
20
287.634182
11
14.445144
21
286.984096
0
LINE
8
Layer 1
10
14.445144
20
286.984096
11
15.764857
21
286.073064
0
LINE
8
Layer 1
10
15.764857
20
286.073064
11
16.914662
21
284.968717
0
LINE
8
Layer 1
10
16.914662
20
284.968717
11
17.811690
21
283.738682
0
LINE
8
Layer 1
10
17.811690
20
283.738682
11
18.285302
21
282.928953
0
LINE
8
Layer 1
10
18.285302
20
282.928953
11
18.757862
21
283.237974
0
LINE
8
Layer 1
10
18.757862
20
283.237974
11
21.074909
21
284.363280
0
LINE
8
Layer 1
10
21.074909
20
284.363280
11
23.913972
21
285.160914
0
LINE
8
Layer 1
10
23.913972
20
285.160914
11
25.986108
21
285.461709
0
LINE
8
Layer 1
10
25.986108
20
285.461709
11
28.105896
21
285.584180
0
LINE
8
Layer 1
10
28.105896
20
285.584180
11
30.225480
21
285.535238
0
LINE
8
Layer 1
10
30.225480
20
285.535238
11
32.297005
21
285.321795
0
LINE
8
Layer 1
10
32.297005
20
285.321795
11
34.272612
21
284.950762
0
LINE
8
Layer 1
10
34.272612
20
284.950762
11
36.104447
21
284.429052
0
LINE
8
Layer 1
10
36.104447
20
284.429052
11
37.744652
21
283.763575
0
LINE
8
Layer 1
10
37.744652
20
283.763575
11
39.145372
21
282.961244
0
LINE
8
Layer 1
10
39.145372
20
282.961244
11
39.649509
21
282.615144
0
LINE
8
Layer 1
10
39.649509
20
282.615144
11
40.167436
21
283.427800
0
LINE
8
Layer 1
10
40.167436
20
283.427800
11
41.511039
21
285.072255
0
LINE
8
Layer 1
10
41.511039
20
285.072255
11
43.079116
21
286.464820
0
LINE
8
Layer 1
10
43.079116
20
286.464820
11
44.643977
21
287.348477
0
LINE
8
Layer 1
10
44.643977
20
287.348477
11
46.334400
21
287.986000
0
LINE
8
Layer 1
10
46.334400
20
287.986000
11
47.740375
21
288.324875
0
LINE
8
Layer 1
10
47.740375
20
288.324875
11
48.320600
21
288.366000
0
LINE
8
Layer 1
10
48.320600
20
288.366000
11
47.256830
21
287.399082
0
LINE
8
Layer 1
10
47.256830
20
287.399082
11
45.664386
21
285.895352
0
LINE
8
Layer 1
10
45.664386
20
285.895352
11
44.936700
21
284.999602
0
LINE
8
Layer 1
10
44.936700
20
284.999602
11
45.333314
21
284.772384
0
LINE
8
Layer 1
10
45.333314
20
284.772384
11
46.140480
21
284.659871
0
LINE
8
Layer 1
10
46.140480
20
284.659871
11
46.432203
21
284.629205
0
LINE
8
Layer 1
10
46.432203
20
284.629205
11
46.427351
21
284.523378
0
LINE
8
Layer 1
10
46.427351
20
284.523378
11
45.431358
21
283.995795
0
LINE
8
Layer 1
10
45.431358
20
283.995795
11
44.628048
21
283.602847
0
LINE
8
Layer 1
10
44.628048
20
283.602847
11
44.213602
21
283.256637
0
LINE
8
Layer 1
10
44.213602
20
283.256637
11
44.059928
21
282.769213
0
LINE
8
Layer 1
10
44.059928
20
282.769213
11
44.038938
21
281.952625
0
LINE
8
Layer 1
10
44.038938
20
281.952625
11
44.130594
21
280.718306
0
LINE
8
Layer 1
10
44.130594
20
280.718306
11
44.450339
21
279.548959
0
LINE
8
Layer 1
10
44.450339
20
279.548959
11
45.075917
21
278.240987
0
LINE
8
Layer 1
10
45.075917
20
278.240987
11
46.085068
21
276.590795
0
LINE
8
Layer 1
10
46.085068
20
276.590795
11
47.370628
21
274.359436
0
LINE
8
Layer 1
10
47.370628
20
274.359436
11
48.169798
21
272.273885
0
LINE
8
Layer 1
10
48.169798
20
272.273885
11
48.755524
21
269.773588
0
LINE
8
Layer 1
10
48.755524
20
269.773588
11
48.953428
21
267.028685
0
LINE
8
Layer 1
10
48.953428
20
267.028685
11
48.897054
21
264.424350
0
LINE
8
Layer 1
10
48.897054
20
264.424350
11
48.334194
21
261.984085
0
LINE
8
Layer 1
10
48.334194
20
261.984085
11
47.986249
21
260.593060
0
LINE
8
Layer 1
10
47.986249
20
260.593060
11
47.880480
21
259.580125
0
LINE
8
Layer 1
10
47.880480
20
259.580125
11
47.916905
21
258.766019
0
LINE
8
Layer 1
10
47.916905
20
258.766019
11
48.247691
21
258.012223
0
LINE
8
Layer 1
10
48.247691
20
258.012223
11
50.897580
21
255.012285
0
LINE
8
Layer 1
10
50.897580
20
255.012285
11
52.693810
21
252.724804
0
LINE
8
Layer 1
10
52.693810
20
252.724804
11
54.515540
21
249.685065
0
LINE
8
Layer 1
10
54.515540
20
249.685065
11
56.074929
21
246.388081
0
LINE
8
Layer 1
10
56.074929
20
246.388081
11
57.305055
21
242.918696
0
LINE
8
Layer 1
10
57.305055
20
242.918696
11
58.220218
21
239.229195
0
LINE
8
Layer 1
10
58.220218
20
239.229195
11
58.834720
21
235.271865
0
LINE
8
Layer 1
10
58.834720
20
235.271865
11
59.059642
21
230.793545
0
LINE
8
Layer 1
10
59.059642
20
230.793545
11
58.998183
21
226.072735
0
LINE
8
Layer 1
10
58.998183
20
226.072735
11
58.671175
21
222.545233
0
LINE
8
Layer 1
10
58.671175
20
222.545233
11
58.144994
21
218.946753
0
LINE
8
Layer 1
10
58.144994
20
218.946753
11
57.417082
21
215.262438
0
LINE
8
Layer 1
10
57.417082
20
215.262438
11
56.484883
21
211.477435
0
LINE
8
Layer 1
10
56.484883
20
211.477435
11
55.567690
21
208.034185
0
LINE
8
Layer 1
10
55.567690
20
208.034185
11
55.034102
21
206.198630
0
LINE
8
Layer 1
10
55.034102
20
206.198630
11
54.548598
21
204.994651
0
LINE
8
Layer 1
10
54.548598
20
204.994651
11
54.045292
21
204.295432
0
LINE
8
Layer 1
10
54.045292
20
204.295432
11
53.458300
21
203.974155
0
LINE
8
Layer 1
10
53.458300
20
203.974155
11
52.448976
21
203.889320
0
LINE
8
Layer 1
10
52.448976
20
203.889320
11
51.376580
21
204.111942
0
LINE
8
Layer 1
10
51.376580
20
204.111942
11
51.376600
21
204.112000
0
LINE
8
Layer 1
10
53.394200
20
211.697740
11
53.624946
21
211.953528
0
LINE
8
Layer 1
10
53.624946
20
211.953528
11
53.637628
21
212.340141
0
LINE
8
Layer 1
10
53.637628
20
212.340141
11
52.436448
21
216.616671
0
LINE
8
Layer 1
10
52.436448
20
216.616671
11
51.412444
21
218.972676
0
LINE
8
Layer 1
10
51.412444
20
218.972676
11
49.984328
21
221.603597
0
LINE
8
Layer 1
10
49.984328
20
221.603597
11
48.085842
21
224.621956
0
LINE
8
Layer 1
10
48.085842
20
224.621956
11
45.650728
21
228.140271
0
LINE
8
Layer 1
10
45.650728
20
228.140271
11
41.264388
21
234.501041
0
LINE
8
Layer 1
10
41.264388
20
234.501041
11
39.810651
21
236.992419
0
LINE
8
Layer 1
10
39.810651
20
236.992419
11
38.605461
21
239.449218
0
LINE
8
Layer 1
10
38.605461
20
239.449218
11
37.668826
21
241.826282
0
LINE
8
Layer 1
10
37.668826
20
241.826282
11
37.020758
21
244.078451
0
LINE
8
Layer 1
10
37.020758
20
244.078451
11
36.561804
21
246.592957
0
LINE
8
Layer 1
10
36.561804
20
246.592957
11
36.474384
21
249.635921
0
LINE
8
Layer 1
10
36.474384
20
249.635921
11
36.474400
21
252.385000
0
LINE
8
Layer 1
10
36.474400
20
252.385000
11
35.961791
21
252.384989
0
LINE
8
Layer 1
10
35.961791
20
252.384989
11
35.450656
21
252.358332
0
LINE
8
Layer 1
10
35.450656
20
252.358332
11
35.174022
21
252.163782
0
LINE
8
Layer 1
10
35.174022
20
252.163782
11
34.930711
21
250.583359
0
LINE
8
Layer 1
10
34.930711
20
250.583359
11
34.873696
21
247.571277
0
LINE
8
Layer 1
10
34.873696
20
247.571277
11
35.237611
21
244.647034
0
LINE
8
Layer 1
10
35.237611
20
244.647034
11
36.033008
21
241.757703
0
LINE
8
Layer 1
10
36.033008
20
241.757703
11
37.270441
21
238.850359
0
LINE
8
Layer 1
10
37.270441
20
238.850359
11
39.272969
21
235.348899
0
LINE
8
Layer 1
10
39.272969
20
235.348899
11
42.803711
21
230.286479
0
LINE
8
Layer 1
10
42.803711
20
230.286479
11
45.990301
21
225.727850
0
LINE
8
Layer 1
10
45.990301
20
225.727850
11
48.320320
21
221.979245
0
LINE
8
Layer 1
10
48.320320
20
221.979245
11
50.003912
21
218.671207
0
LINE
8
Layer 1
10
50.003912
20
218.671207
11
51.251221
21
215.434279
0
LINE
8
Layer 1
10
51.251221
20
215.434279
11
51.746529
21
213.635569
0
LINE
8
Layer 1
10
51.746529
20
213.635569
11
52.042419
21
212.286125
0
LINE
8
Layer 1
10
52.042419
20
212.286125
11
52.391936
21
211.759769
0
LINE
8
Layer 1
10
52.391936
20
211.759769
11
52.892529
21
211.491409
0
LINE
8
Layer 1
10
52.892529
20
211.491409
11
53.394206
21
211.697359
0
LINE
8
Layer 1
10
53.394206
20
211.697359
11
53.394200
21
211.697740
0
LINE
8
Layer 1
10
35.323200
20
214.775800
11
36.029771
21
215.296634
0
LINE
8
Layer 1
10
36.029771
20
215.296634
11
36.421120
21
215.823600
0
LINE
8
Layer 1
10
36.421120
20
215.823600
11
35.915511
21
216.120355
0
LINE
8
Layer 1
10
35.915511
20
216.120355
11
34.119171
21
216.923689
0
LINE
8
Layer 1
10
34.119171
20
216.923689
11
32.828441
21
217.515404
0
LINE
8
Layer 1
10
32.828441
20
217.515404
11
32.766151
21
217.007566
0
LINE
8
Layer 1
10
32.766151
20
217.007566
11
32.857564
21
215.728252
0
LINE
8
Layer 1
10
32.857564
20
215.728252
11
33.329987
21
214.770666
0
LINE
8
Layer 1
10
33.329987
20
214.770666
11
33.680821
21
214.605255
0
LINE
8
Layer 1
10
33.680821
20
214.605255
11
34.202606
21
214.551167
0
LINE
8
Layer 1
10
34.202606
20
214.551167
11
35.323207
21
214.775866
0
LINE
8
Layer 1
10
35.323207
20
214.775866
11
35.323200
21
214.775800
0
LINE
8
Layer 1
10
31.608800
20
256.089000
11
34.783101
21
256.623341
0
LINE
8
Layer 1
10
34.783101
20
256.623341
11
37.658306
21
257.532113
0
LINE
8
Layer 1
10
37.658306
20
257.532113
11
40.182784
21
258.794553
0
LINE
8
Layer 1
10
40.182784
20
258.794553
11
42.304900
21
260.389900
0
LINE
8
Layer 1
10
42.304900
20
260.389900
11
43.497284
21
261.633674
0
LINE
8
Layer 1
10
43.497284
20
261.633674
11
44.437709
21
262.942156
0
LINE
8
Layer 1
10
44.437709
20
262.942156
11
45.142129
21
264.341616
0
LINE
8
Layer 1
10
45.142129
20
264.341616
11
45.626500
21
265.858320
0
LINE
8
Layer 1
10
45.626500
20
265.858320
11
45.864208
21
267.966449
0
LINE
8
Layer 1
10
45.864208
20
267.966449
11
45.792103
21
270.230690
0
LINE
8
Layer 1
10
45.792103
20
270.230690
11
45.527660
21
271.621746
0
LINE
8
Layer 1
10
45.527660
20
271.621746
11
45.110768
21
272.964978
0
LINE
8
Layer 1
10
45.110768
20
272.964978
11
44.555568
21
274.238700
0
LINE
8
Layer 1
10
44.555568
20
274.238700
11
43.876204
21
275.421226
0
LINE
8
Layer 1
10
43.876204
20
275.421226
11
43.086818
21
276.490871
0
LINE
8
Layer 1
10
43.086818
20
276.490871
11
42.201553
21
277.425947
0
LINE
8
Layer 1
10
42.201553
20
277.425947
11
41.234550
21
278.204769
0
LINE
8
Layer 1
10
41.234550
20
278.204769
11
40.199953
21
278.805650
0
LINE
8
Layer 1
10
40.199953
20
278.805650
11
38.553158
21
279.382942
0
LINE
8
Layer 1
10
38.553158
20
279.382942
11
36.977534
21
279.502581
0
LINE
8
Layer 1
10
36.977534
20
279.502581
11
35.429760
21
279.161494
0
LINE
8
Layer 1
10
35.429760
20
279.161494
11
33.866513
21
278.356612
0
LINE
8
Layer 1
10
33.866513
20
278.356612
11
31.920275
21
276.626610
0
LINE
8
Layer 1
10
31.920275
20
276.626610
11
29.989743
21
274.201032
0
LINE
8
Layer 1
10
29.989743
20
274.201032
11
29.454894
21
273.455852
0
LINE
8
Layer 1
10
29.454894
20
273.455852
11
28.692845
21
274.509382
0
LINE
8
Layer 1
10
28.692845
20
274.509382
11
27.605989
21
275.884207
0
LINE
8
Layer 1
10
27.605989
20
275.884207
11
26.352332
21
277.134757
0
LINE
8
Layer 1
10
26.352332
20
277.134757
11
25.045032
21
278.160457
0
LINE
8
Layer 1
10
25.045032
20
278.160457
11
23.797245
21
278.860732
0
LINE
8
Layer 1
10
23.797245
20
278.860732
11
22.550317
21
279.262608
0
LINE
8
Layer 1
10
22.550317
20
279.262608
11
21.327961
21
279.400442
0
LINE
8
Layer 1
10
21.327961
20
279.400442
11
20.143297
21
279.280139
0
LINE
8
Layer 1
10
20.143297
20
279.280139
11
19.009447
21
278.907601
0
LINE
8
Layer 1
10
19.009447
20
278.907601
11
17.939532
21
278.288730
0
LINE
8
Layer 1
10
17.939532
20
278.288730
11
16.946673
21
277.429430
0
LINE
8
Layer 1
10
16.946673
20
277.429430
11
16.043990
21
276.335603
0
LINE
8
Layer 1
10
16.043990
20
276.335603
11
15.244605
21
275.013152
0
LINE
8
Layer 1
10
15.244605
20
275.013152
11
14.440589
21
273.114334
0
LINE
8
Layer 1
10
14.440589
20
273.114334
11
13.886171
21
271.060791
0
LINE
8
Layer 1
10
13.886171
20
271.060791
11
13.609773
21
268.993475
0
LINE
8
Layer 1
10
13.609773
20
268.993475
11
13.639815
21
267.053342
0
LINE
8
Layer 1
10
13.639815
20
267.053342
11
13.992365
21
265.103886
0
LINE
8
Layer 1
10
13.992365
20
265.103886
11
14.631071
21
263.374633
0
LINE
8
Layer 1
10
14.631071
20
263.374633
11
15.584674
21
261.806062
0
LINE
8
Layer 1
10
15.584674
20
261.806062
11
16.881915
21
260.338652
0
LINE
8
Layer 1
10
16.881915
20
260.338652
11
18.931193
21
258.719604
0
LINE
8
Layer 1
10
18.931193
20
258.719604
11
21.369625
21
257.462791
0
LINE
8
Layer 1
10
21.369625
20
257.462791
11
24.187077
21
256.572350
0
LINE
8
Layer 1
10
24.187077
20
256.572350
11
27.373415
21
256.052422
0
LINE
8
Layer 1
10
27.373415
20
256.052422
11
31.608775
21
256.088992
0
LINE
8
Layer 1
10
31.608775
20
256.088992
11
31.608800
21
256.089000
0
LINE
8
Layer 1
10
29.361570
20
257.704280
11
28.194780
21
259.915084
0
LINE
8
Layer 1
10
28.194780
20
259.915084
11
27.870363
21
260.996872
0
LINE
8
Layer 1
10
27.870363
20
260.996872
11
27.722130
21
262.053550
0
LINE
8
Layer 1
10
27.722130
20
262.053550
11
27.739574
21
263.098859
0
LINE
8
Layer 1
10
27.739574
20
263.098859
11
27.930747
21
263.911625
0
LINE
8
Layer 1
10
27.930747
20
263.911625
11
28.304449
21
264.513888
0
LINE
8
Layer 1
10
28.304449
20
264.513888
11
28.869480
21
264.927690
0
LINE
8
Layer 1
10
28.869480
20
264.927690
11
29.687100
21
265.120338
0
LINE
8
Layer 1
10
29.687100
20
265.120338
11
30.545240
21
264.910010
0
LINE
8
Layer 1
10
30.545240
20
264.910010
11
31.301369
21
264.241821
0
LINE
8
Layer 1
10
31.301369
20
264.241821
11
31.723785
21
263.174836
0
LINE
8
Layer 1
10
31.723785
20
263.174836
11
31.787522
21
261.832763
0
LINE
8
Layer 1
10
31.787522
20
261.832763
11
31.467612
21
260.339310
0
LINE
8
Layer 1
10
31.467612
20
260.339310
11
29.850462
21
257.113270
0
LINE
8
Layer 1
10
29.850462
20
257.113270
11
29.361564
21
257.704276
0
LINE
8
Layer 1
10
29.361564
20
257.704276
11
29.361570
21
257.704280
0
LINE
8
Layer 1
10
35.755510
20
264.728060
11
34.801276
21
265.106105
0
LINE
8
Layer 1
10
34.801276
20
265.106105
11
33.956114
21
265.719670
0
LINE
8
Layer 1
10
33.956114
20
265.719670
11
33.352135
21
266.446550
0
LINE
8
Layer 1
10
33.352135
20
266.446550
11
33.121450
21
267.164540
0
LINE
8
Layer 1
10
33.121450
20
267.164540
11
33.481519
21
268.139706
0
LINE
8
Layer 1
10
33.481519
20
268.139706
11
34.232360
21
269.121960
0
LINE
8
Layer 1
10
34.232360
20
269.121960
11
35.633636
21
269.964811
0
LINE
8
Layer 1
10
35.633636
20
269.964811
11
37.290864
21
270.333019
0
LINE
8
Layer 1
10
37.290864
20
270.333019
11
39.008847
21
270.212270
0
LINE
8
Layer 1
10
39.008847
20
270.212270
11
40.592390
21
269.588251
0
LINE
8
Layer 1
10
40.592390
20
269.588251
11
41.398643
21
268.928355
0
LINE
8
Layer 1
10
41.398643
20
268.928355
11
42.017530
21
268.161571
0
LINE
8
Layer 1
10
42.017530
20
268.161571
11
42.154897
21
267.806508
0
LINE
8
Layer 1
10
42.154897
20
267.806508
11
42.008130
21
267.388553
0
LINE
8
Layer 1
10
42.008130
20
267.388553
11
41.431834
21
266.598313
0
LINE
8
Layer 1
10
41.431834
20
266.598313
11
40.517044
21
265.837209
0
LINE
8
Layer 1
10
40.517044
20
265.837209
11
39.401762
21
265.200278
0
LINE
8
Layer 1
10
39.401762
20
265.200278
11
38.223990
21
264.782553
0
LINE
8
Layer 1
10
38.223990
20
264.782553
11
36.951436
21
264.633233
0
LINE
8
Layer 1
10
36.951436
20
264.633233
11
35.755520
21
264.728063
0
LINE
8
Layer 1
10
35.755520
20
264.728063
11
35.755510
21
264.728060
0
LINE
8
Layer 1
10
20.033600
20
265.089000
11
18.978330
21
265.467673
0
LINE
8
Layer 1
10
18.978330
20
265.467673
11
18.259107
21
265.947424
0
LINE
8
Layer 1
10
18.259107
20
265.947424
11
17.642868
21
266.610544
0
LINE
8
Layer 1
10
17.642868
20
266.610544
11
17.192340
21
267.373195
0
LINE
8
Layer 1
10
17.192340
20
267.373195
11
16.970250
21
268.151543
0
LINE
8
Layer 1
10
16.970250
20
268.151543
11
16.998146
21
268.584657
0
LINE
8
Layer 1
10
16.998146
20
268.584657
11
17.306426
21
269.058266
0
LINE
8
Layer 1
10
17.306426
20
269.058266
11
17.976376
21
269.723924
0
LINE
8
Layer 1
10
17.976376
20
269.723924
11
18.778857
21
270.198717
0
LINE
8
Layer 1
10
18.778857
20
270.198717
11
19.715121
21
270.483192
0
LINE
8
Layer 1
10
19.715121
20
270.483192
11
20.786416
21
270.577896
0
LINE
8
Layer 1
10
20.786416
20
270.577896
11
22.343284
21
270.382297
0
LINE
8
Layer 1
10
22.343284
20
270.382297
11
23.724721
21
269.822851
0
LINE
8
Layer 1
10
23.724721
20
269.822851
11
24.859138
21
268.940582
0
LINE
8
Layer 1
10
24.859138
20
268.940582
11
25.674946
21
267.776516
0
LINE
8
Layer 1
10
25.674946
20
267.776516
11
25.964537
21
266.867819
0
LINE
8
Layer 1
10
25.964537
20
266.867819
11
25.809111
21
266.575235
0
LINE
8
Layer 1
10
25.809111
20
266.575235
11
25.430751
21
266.247846
0
LINE
8
Layer 1
10
25.430751
20
266.247846
11
24.205541
21
265.524055
0
LINE
8
Layer 1
10
24.205541
20
265.524055
11
22.824475
21
265.073946
0
LINE
8
Layer 1
10
22.824475
20
265.073946
11
21.397259
21
264.921077
0
LINE
8
Layer 1
10
21.397259
20
264.921077
11
20.033601
21
265.089006
0
LINE
8
Layer 1
10
20.033601
20
265.089006
11
20.033600
21
265.089000
 0 
ENDSEC
 0 
EOF