999
"DXF R12 Output" (www.mydxf.blogspot.com)
 0 
SECTION
 2 
HEADER
 9 
$ACADVER
 1 
AC1009
 9 
$EXTMIN
 10 
 0 
 20 
 0 
 9 
$EXTMAX
 10 
 8.5 
 20 
 11 
 0 
ENDSEC
 0 
SECTION
 2 
ENTITIES
0
LINE
8
Layer 1
10
42.658100
20
227.051000
11
42.741460
21
227.493512
0
LINE
8
Layer 1
10
42.741460
20
227.493512
11
43.049647
21
229.108809
0
LINE
8
Layer 1
10
43.049647
20
229.108809
11
43.043222
21
229.916651
0
LINE
8
Layer 1
10
43.043222
20
229.916651
11
42.913413
21
230.443732
0
LINE
8
Layer 1
10
42.913413
20
230.443732
11
40.250733
21
231.308785
0
LINE
8
Layer 1
10
40.250733
20
231.308785
11
39.865371
21
230.676444
0
LINE
8
Layer 1
10
39.865371
20
230.676444
11
39.436141
21
229.823049
0
LINE
8
Layer 1
10
39.436141
20
229.823049
11
38.853360
21
228.985738
0
LINE
8
Layer 1
10
38.853360
20
228.985738
11
38.263329
21
228.348458
0
LINE
8
Layer 1
10
38.263329
20
228.348458
11
37.812351
21
228.095154
0
LINE
8
Layer 1
10
37.812351
20
228.095154
11
37.626032
21
228.158269
0
LINE
8
Layer 1
10
37.626032
20
228.158269
11
37.631394
21
228.351042
0
LINE
8
Layer 1
10
37.631394
20
228.351042
11
38.225238
21
229.146134
0
LINE
8
Layer 1
10
38.225238
20
229.146134
11
39.316428
21
230.705664
0
LINE
8
Layer 1
10
39.316428
20
230.705664
11
39.724294
21
231.518298
0
LINE
8
Layer 1
10
39.724294
20
231.518298
11
38.874456
21
231.970263
0
LINE
8
Layer 1
10
38.874456
20
231.970263
11
37.435506
21
232.877087
0
LINE
8
Layer 1
10
37.435506
20
232.877087
11
36.846393
21
233.331942
0
LINE
8
Layer 1
10
36.846393
20
233.331942
11
36.784303
21
233.050782
0
LINE
8
Layer 1
10
36.784303
20
233.050782
11
36.495514
21
232.095457
0
LINE
8
Layer 1
10
36.495514
20
232.095457
11
36.069415
21
231.230402
0
LINE
8
Layer 1
10
36.069415
20
231.230402
11
34.935585
21
229.815822
0
LINE
8
Layer 1
10
34.935585
20
229.815822
11
34.653061
21
229.801079
0
LINE
8
Layer 1
10
34.653061
20
229.801079
11
34.480260
21
229.949154
0
LINE
8
Layer 1
10
34.480260
20
229.949154
11
35.020781
21
230.788026
0
LINE
8
Layer 1
10
35.020781
20
230.788026
11
35.758251
21
232.011589
0
LINE
8
Layer 1
10
35.758251
20
232.011589
11
36.260521
21
233.298056
0
LINE
8
Layer 1
10
36.260521
20
233.298056
11
36.359718
21
233.806585
0
LINE
8
Layer 1
10
36.359718
20
233.806585
11
36.156978
21
234.205732
0
LINE
8
Layer 1
10
36.156978
20
234.205732
11
35.629344
21
235.235644
0
LINE
8
Layer 1
10
35.629344
20
235.235644
11
35.413848
21
236.416732
0
LINE
8
Layer 1
10
35.413848
20
236.416732
11
35.220577
21
237.285632
0
LINE
8
Layer 1
10
35.220577
20
237.285632
11
34.838709
21
236.599663
0
LINE
8
Layer 1
10
34.838709
20
236.599663
11
34.405303
21
235.618957
0
LINE
8
Layer 1
10
34.405303
20
235.618957
11
33.831435
21
234.697296
0
LINE
8
Layer 1
10
33.831435
20
234.697296
11
33.246070
21
234.013305
0
LINE
8
Layer 1
10
33.246070
20
234.013305
11
32.778169
21
233.745613
0
LINE
8
Layer 1
10
32.778169
20
233.745613
11
32.537710
21
233.798082
0
LINE
8
Layer 1
10
32.537710
20
233.798082
11
32.487858
21
233.967067
0
LINE
8
Layer 1
10
32.487858
20
233.967067
11
32.973866
21
234.724032
0
LINE
8
Layer 1
10
32.973866
20
234.724032
11
34.019766
21
236.349342
0
LINE
8
Layer 1
10
34.019766
20
236.349342
11
34.500930
21
237.289989
0
LINE
8
Layer 1
10
34.500930
20
237.289989
11
33.334830
21
237.411654
0
LINE
8
Layer 1
10
33.334830
20
237.411654
11
31.568010
21
237.649941
0
LINE
8
Layer 1
10
31.568010
20
237.649941
11
30.938542
21
237.733751
0
LINE
8
Layer 1
10
30.938542
20
237.733751
11
30.687242
21
237.259676
0
LINE
8
Layer 1
10
30.687242
20
237.259676
11
30.053096
21
236.375529
0
LINE
8
Layer 1
10
30.053096
20
236.375529
11
29.101762
21
235.595426
0
LINE
8
Layer 1
10
29.101762
20
235.595426
11
28.318850
21
235.207870
0
LINE
8
Layer 1
10
28.318850
20
235.207870
11
28.090351
21
235.196764
0
LINE
8
Layer 1
10
28.090351
20
235.196764
11
28.007942
21
235.316974
0
LINE
8
Layer 1
10
28.007942
20
235.316974
11
28.776786
21
235.984540
0
LINE
8
Layer 1
10
28.776786
20
235.984540
11
30.009546
21
237.109990
0
LINE
8
Layer 1
10
30.009546
20
237.109990
11
30.438727
21
237.718901
0
LINE
8
Layer 1
10
30.438727
20
237.718901
11
30.345171
21
237.897603
0
LINE
8
Layer 1
10
30.345171
20
237.897603
11
27.762000
21
238.829000
0
LINE
8
Layer 1
10
27.762000
20
238.829000
11
26.989237
21
239.195708
0
LINE
8
Layer 1
10
26.989237
20
239.195708
11
26.505084
21
238.826146
0
LINE
8
Layer 1
10
26.505084
20
238.826146
11
25.522050
21
238.210934
0
LINE
8
Layer 1
10
25.522050
20
238.210934
11
24.297774
21
237.644816
0
LINE
8
Layer 1
10
24.297774
20
237.644816
11
23.850599
21
237.505587
0
LINE
8
Layer 1
10
23.850599
20
237.505587
11
23.625823
21
237.559836
0
LINE
8
Layer 1
10
23.625823
20
237.559836
11
23.538692
21
237.667715
0
LINE
8
Layer 1
10
23.538692
20
237.667715
11
23.617168
21
237.789373
0
LINE
8
Layer 1
10
23.617168
20
237.789373
11
24.566296
21
238.309439
0
LINE
8
Layer 1
10
24.566296
20
238.309439
11
26.034706
21
239.119358
0
LINE
8
Layer 1
10
26.034706
20
239.119358
11
26.578496
21
239.461382
0
LINE
8
Layer 1
10
26.578496
20
239.461382
11
25.949741
21
239.955359
0
LINE
8
Layer 1
10
25.949741
20
239.955359
11
25.044809
21
240.817748
0
LINE
8
Layer 1
10
25.044809
20
240.817748
11
24.496021
21
241.558719
0
LINE
8
Layer 1
10
24.496021
20
241.558719
11
23.690334
21
241.260767
0
LINE
8
Layer 1
10
23.690334
20
241.260767
11
22.288061
21
240.652076
0
LINE
8
Layer 1
10
22.288061
20
240.652076
11
21.370964
21
240.464465
0
LINE
8
Layer 1
10
21.370964
20
240.464465
11
21.216973
21
240.591501
0
LINE
8
Layer 1
10
21.216973
20
240.591501
11
21.295359
21
240.754599
0
LINE
8
Layer 1
10
21.295359
20
240.754599
11
22.100651
21
241.143727
0
LINE
8
Layer 1
10
22.100651
20
241.143727
11
23.564631
21
241.745197
0
LINE
8
Layer 1
10
23.564631
20
241.745197
11
24.206728
21
242.069993
0
LINE
8
Layer 1
10
24.206728
20
242.069993
11
24.207728
21
242.761981
0
LINE
8
Layer 1
10
24.207728
20
242.761981
11
24.326711
21
243.673829
0
LINE
8
Layer 1
10
24.326711
20
243.673829
11
24.780346
21
244.552846
0
LINE
8
Layer 1
10
24.780346
20
244.552846
11
25.717937
21
245.606448
0
LINE
8
Layer 1
10
25.717937
20
245.606448
11
27.288788
21
247.042051
0
LINE
8
Layer 1
10
27.288788
20
247.042051
11
29.320757
21
248.910169
0
LINE
8
Layer 1
10
29.320757
20
248.910169
11
31.116501
21
250.765669
0
LINE
8
Layer 1
10
31.116501
20
250.765669
11
32.776760
21
252.719594
0
LINE
8
Layer 1
10
32.776760
20
252.719594
11
34.402278
21
254.882991
0
LINE
8
Layer 1
10
34.402278
20
254.882991
11
37.189521
21
259.159099
0
LINE
8
Layer 1
10
37.189521
20
259.159099
11
41.644658
21
266.927491
0
LINE
8
Layer 1
10
41.644658
20
266.927491
11
42.768900
21
268.929000
0
LINE
8
Layer 1
10
42.768900
20
268.929000
11
42.587400
21
269.342000
0
LINE
8
Layer 1
10
42.587400
20
269.342000
11
42.254980
21
270.910282
0
LINE
8
Layer 1
10
42.254980
20
270.910282
11
42.149439
21
273.709760
0
LINE
8
Layer 1
10
42.149439
20
273.709760
11
42.200460
21
275.852633
0
LINE
8
Layer 1
10
42.200460
20
275.852633
11
42.377907
21
277.337490
0
LINE
8
Layer 1
10
42.377907
20
277.337490
11
42.718352
21
278.339984
0
LINE
8
Layer 1
10
42.718352
20
278.339984
11
43.258369
21
279.035770
0
LINE
8
Layer 1
10
43.258369
20
279.035770
11
44.248402
21
279.641802
0
LINE
8
Layer 1
10
44.248402
20
279.641802
11
45.097293
21
279.879727
0
LINE
8
Layer 1
10
45.097293
20
279.879727
11
46.776293
21
280.064681
0
LINE
8
Layer 1
10
46.776293
20
280.064681
11
56.825102
21
280.593538
0
LINE
8
Layer 1
10
56.825102
20
280.593538
11
65.608982
21
281.068201
0
LINE
8
Layer 1
10
65.608982
20
281.068201
11
69.872502
21
281.245483
0
LINE
8
Layer 1
10
69.872502
20
281.245483
11
71.618188
21
281.219812
0
LINE
8
Layer 1
10
71.618188
20
281.219812
11
72.414862
21
281.020703
0
LINE
8
Layer 1
10
72.414862
20
281.020703
11
73.537805
21
280.322298
0
LINE
8
Layer 1
10
73.537805
20
280.322298
11
74.479367
21
279.209055
0
LINE
8
Layer 1
10
74.479367
20
279.209055
11
75.228096
21
277.698748
0
LINE
8
Layer 1
10
75.228096
20
277.698748
11
75.772542
21
275.809153
0
LINE
8
Layer 1
10
75.772542
20
275.809153
11
76.125520
21
273.424478
0
LINE
8
Layer 1
10
76.125520
20
273.424478
11
76.185059
21
271.850133
0
LINE
8
Layer 1
10
76.185059
20
271.850133
11
75.450471
21
271.086553
0
LINE
8
Layer 1
10
75.450471
20
271.086553
11
73.401792
21
269.582174
0
LINE
8
Layer 1
10
73.401792
20
269.582174
11
70.816378
21
268.390542
0
LINE
8
Layer 1
10
70.816378
20
268.390542
11
67.633437
21
267.489600
0
LINE
8
Layer 1
10
67.633437
20
267.489600
11
63.792171
21
266.857293
0
LINE
8
Layer 1
10
63.792171
20
266.857293
11
61.699891
21
266.709942
0
LINE
8
Layer 1
10
61.699891
20
266.709942
11
57.749771
21
266.680482
0
LINE
8
Layer 1
10
57.749771
20
266.680482
11
52.381851
21
266.787666
0
LINE
8
Layer 1
10
52.381851
20
266.787666
11
51.534284
21
266.762796
0
LINE
8
Layer 1
10
51.534284
20
266.762796
11
51.785365
21
265.473456
0
LINE
8
Layer 1
10
51.785365
20
265.473456
11
52.620337
21
260.584812
0
LINE
8
Layer 1
10
52.620337
20
260.584812
11
53.079415
21
255.451856
0
LINE
8
Layer 1
10
53.079415
20
255.451856
11
53.141026
21
252.354716
0
LINE
8
Layer 1
10
53.141026
20
252.354716
11
53.003053
21
249.233640
0
LINE
8
Layer 1
10
53.003053
20
249.233640
11
52.656468
21
245.969671
0
LINE
8
Layer 1
10
52.656468
20
245.969671
11
52.092246
21
242.443856
0
LINE
8
Layer 1
10
52.092246
20
242.443856
11
51.799268
21
240.410326
0
LINE
8
Layer 1
10
51.799268
20
240.410326
11
51.742578
21
240.170054
0
LINE
8
Layer 1
10
51.742578
20
240.170054
11
51.176794
21
238.299634
0
LINE
8
Layer 1
10
51.176794
20
238.299634
11
49.934160
21
234.379715
0
LINE
8
Layer 1
10
49.934160
20
234.379715
11
48.634954
21
231.555764
0
LINE
8
Layer 1
10
48.634954
20
231.555764
11
47.930294
21
230.775290
0
LINE
8
Layer 1
10
47.930294
20
230.775290
11
47.278014
21
230.355434
0
LINE
8
Layer 1
10
47.278014
20
230.355434
11
47.157217
21
229.456501
0
LINE
8
Layer 1
10
47.157217
20
229.456501
11
46.937919
21
227.806800
0
LINE
8
Layer 1
10
46.937919
20
227.806800
11
46.716297
21
227.270054
0
LINE
8
Layer 1
10
46.716297
20
227.270054
11
46.461994
21
227.069481
0
LINE
8
Layer 1
10
46.461994
20
227.069481
11
46.260147
21
227.108061
0
LINE
8
Layer 1
10
46.260147
20
227.108061
11
46.168335
21
227.246372
0
LINE
8
Layer 1
10
46.168335
20
227.246372
11
46.280207
21
227.999020
0
LINE
8
Layer 1
10
46.280207
20
227.999020
11
46.540610
21
229.456510
0
LINE
8
Layer 1
10
46.540610
20
229.456510
11
46.608710
21
230.149971
0
LINE
8
Layer 1
10
46.608710
20
230.149971
11
45.758283
21
230.153471
0
LINE
8
Layer 1
10
45.758283
20
230.153471
11
44.206763
21
230.292907
0
LINE
8
Layer 1
10
44.206763
20
230.292907
11
43.505676
21
230.428562
0
LINE
8
Layer 1
10
43.505676
20
230.428562
11
43.590356
21
229.903874
0
LINE
8
Layer 1
10
43.590356
20
229.903874
11
43.648289
21
228.627380
0
LINE
8
Layer 1
10
43.648289
20
228.627380
11
43.450076
21
227.529944
0
LINE
8
Layer 1
10
43.450076
20
227.529944
11
43.243471
21
227.110160
0
LINE
8
Layer 1
10
43.243471
20
227.110160
11
42.988650
21
226.984696
0
LINE
8
Layer 1
10
42.988650
20
226.984696
11
42.658062
21
227.050826
0
LINE
8
Layer 1
10
42.658062
20
227.050826
11
42.658100
21
227.051000
 0 
ENDSEC
 0 
EOF