999
"DXF R12 Output" (www.mydxf.blogspot.com)
 0 
SECTION
 2 
HEADER
 9 
$ACADVER
 1 
AC1009
 9 
$EXTMIN
 10 
 0 
 20 
 0 
 9 
$EXTMAX
 10 
 8.5 
 20 
 11 
 0 
ENDSEC
 0 
SECTION
 2 
ENTITIES
0
LINE
8
Image
10
158.522000
20
43.823500
11
154.316080
21
44.176665
0
LINE
8
Image
10
154.316080
20
44.176665
11
150.815095
21
44.550994
0
LINE
8
Image
10
150.815095
20
44.550994
11
147.178845
21
45.094639
0
LINE
8
Image
10
147.178845
20
45.094639
11
139.694435
21
46.642707
0
LINE
8
Image
10
139.694435
20
46.642707
11
132.250622
21
48.726532
0
LINE
8
Image
10
132.250622
20
48.726532
11
125.235180
21
51.251775
0
LINE
8
Image
10
125.235180
20
51.251775
11
120.456198
21
53.342247
0
LINE
8
Image
10
120.456198
20
53.342247
11
115.802217
21
55.670908
0
LINE
8
Image
10
115.802217
20
55.670908
11
111.281369
21
58.229550
0
LINE
8
Image
10
111.281369
20
58.229550
11
106.901785
21
61.009966
0
LINE
8
Image
10
106.901785
20
61.009966
11
102.671599
21
64.003950
0
LINE
8
Image
10
102.671599
20
64.003950
11
98.598943
21
67.203294
0
LINE
8
Image
10
98.598943
20
67.203294
11
94.691948
21
70.599791
0
LINE
8
Image
10
94.691948
20
70.599791
11
90.958748
21
74.185234
0
LINE
8
Image
10
90.958748
20
74.185234
11
87.407473
21
77.951417
0
LINE
8
Image
10
87.407473
20
77.951417
11
84.046258
21
81.890132
0
LINE
8
Image
10
84.046258
20
81.890132
11
80.883233
21
85.993171
0
LINE
8
Image
10
80.883233
20
85.993171
11
77.926531
21
90.252329
0
LINE
8
Image
10
77.926531
20
90.252329
11
75.184285
21
94.659398
0
LINE
8
Image
10
75.184285
20
94.659398
11
72.664626
21
99.206171
0
LINE
8
Image
10
72.664626
20
99.206171
11
70.375687
21
103.884440
0
LINE
8
Image
10
70.375687
20
103.884440
11
68.325600
21
108.686000
0
LINE
8
Image
10
68.325600
20
108.686000
11
65.972627
21
115.320705
0
LINE
8
Image
10
65.972627
20
115.320705
11
64.093144
21
122.145641
0
LINE
8
Image
10
64.093144
20
122.145641
11
62.691213
21
129.118162
0
LINE
8
Image
10
62.691213
20
129.118162
11
61.770900
21
136.195625
0
LINE
8
Image
10
61.770900
20
136.195625
11
61.336268
21
143.335385
0
LINE
8
Image
10
61.336268
20
143.335385
11
61.391381
21
150.494797
0
LINE
8
Image
10
61.391381
20
150.494797
11
61.940304
21
157.631217
0
LINE
8
Image
10
61.940304
20
157.631217
11
62.987100
21
164.702000
0
LINE
8
Image
10
62.987100
20
164.702000
11
63.777373
21
168.558510
0
LINE
8
Image
10
63.777373
20
168.558510
11
64.714850
21
172.370406
0
LINE
8
Image
10
64.714850
20
172.370406
11
65.797712
21
176.134303
0
LINE
8
Image
10
65.797712
20
176.134303
11
67.024134
21
179.846812
0
LINE
8
Image
10
67.024134
20
179.846812
11
68.392297
21
183.504549
0
LINE
8
Image
10
68.392297
20
183.504549
11
69.900376
21
187.104125
0
LINE
8
Image
10
69.900376
20
187.104125
11
71.546551
21
190.642154
0
LINE
8
Image
10
71.546551
20
190.642154
11
73.329000
21
194.115250
0
LINE
8
Image
10
73.329000
20
194.115250
11
75.245900
21
197.520025
0
LINE
8
Image
10
75.245900
20
197.520025
11
77.295430
21
200.853094
0
LINE
8
Image
10
77.295430
20
200.853094
11
79.475768
21
204.111068
0
LINE
8
Image
10
79.475768
20
204.111068
11
81.785091
21
207.290563
0
LINE
8
Image
10
81.785091
20
207.290563
11
84.221577
21
210.388189
0
LINE
8
Image
10
84.221577
20
210.388189
11
86.783406
21
213.400563
0
LINE
8
Image
10
86.783406
20
213.400563
11
89.468754
21
216.324295
0
LINE
8
Image
10
89.468754
20
216.324295
11
92.275800
21
219.156000
0
LINE
8
Image
10
92.275800
20
219.156000
11
98.197559
21
224.494402
0
LINE
8
Image
10
98.197559
20
224.494402
11
104.433025
21
229.318469
0
LINE
8
Image
10
104.433025
20
229.318469
11
110.965453
21
233.619738
0
LINE
8
Image
10
110.965453
20
233.619738
11
114.337796
21
235.571680
0
LINE
8
Image
10
114.337796
20
235.571680
11
117.778100
21
237.389750
0
LINE
8
Image
10
117.778100
20
237.389750
11
121.284273
21
239.072890
0
LINE
8
Image
10
121.284273
20
239.072890
11
124.854222
21
240.620043
0
LINE
8
Image
10
124.854222
20
240.620043
11
128.485854
21
242.030151
0
LINE
8
Image
10
128.485854
20
242.030151
11
132.177075
21
243.302156
0
LINE
8
Image
10
132.177075
20
243.302156
11
135.925793
21
244.435001
0
LINE
8
Image
10
135.925793
20
244.435001
11
139.729916
21
245.427629
0
LINE
8
Image
10
139.729916
20
245.427629
11
147.496000
21
246.988000
0
LINE
8
Image
10
147.496000
20
246.988000
11
152.041023
21
247.653594
0
LINE
8
Image
10
152.041023
20
247.653594
11
156.071889
21
248.028444
0
LINE
8
Image
10
156.071889
20
248.028444
11
160.555910
21
248.171369
0
LINE
8
Image
10
160.555910
20
248.171369
11
166.460400
21
248.141190
0
LINE
8
Image
10
166.460400
20
248.141190
11
171.734537
21
248.027346
0
LINE
8
Image
10
171.734537
20
248.027346
11
175.642769
21
247.804079
0
LINE
8
Image
10
175.642769
20
247.804079
11
179.193916
21
247.384443
0
LINE
8
Image
10
179.193916
20
247.384443
11
183.396800
21
246.681490
0
LINE
8
Image
10
183.396800
20
246.681490
11
188.022063
21
245.733357
0
LINE
8
Image
10
188.022063
20
245.733357
11
192.596508
21
244.561527
0
LINE
8
Image
10
192.596508
20
244.561527
11
197.112042
21
243.171005
0
LINE
8
Image
10
197.112042
20
243.171005
11
201.560573
21
241.566798
0
LINE
8
Image
10
201.560573
20
241.566798
11
205.934011
21
239.753913
0
LINE
8
Image
10
205.934011
20
239.753913
11
210.224262
21
237.737355
0
LINE
8
Image
10
210.224262
20
237.737355
11
214.423235
21
235.522131
0
LINE
8
Image
10
214.423235
20
235.522131
11
218.522838
21
233.113247
0
LINE
8
Image
10
218.522838
20
233.113247
11
222.514978
21
230.515711
0
LINE
8
Image
10
222.514978
20
230.515711
11
226.391565
21
227.734527
0
LINE
8
Image
10
226.391565
20
227.734527
11
230.144505
21
224.774702
0
LINE
8
Image
10
230.144505
20
224.774702
11
233.765708
21
221.641243
0
LINE
8
Image
10
233.765708
20
221.641243
11
237.247081
21
218.339156
0
LINE
8
Image
10
237.247081
20
218.339156
11
240.580531
21
214.873447
0
LINE
8
Image
10
240.580531
20
214.873447
11
243.757969
21
211.249123
0
LINE
8
Image
10
243.757969
20
211.249123
11
246.771300
21
207.471190
0
LINE
8
Image
10
246.771300
20
207.471190
11
249.515824
21
203.662261
0
LINE
8
Image
10
249.515824
20
203.662261
11
252.114523
21
199.657481
0
LINE
8
Image
10
252.114523
20
199.657481
11
254.549405
21
195.493043
0
LINE
8
Image
10
254.549405
20
195.493043
11
256.802476
21
191.205137
0
LINE
8
Image
10
256.802476
20
191.205137
11
258.855744
21
186.829958
0
LINE
8
Image
10
258.855744
20
186.829958
11
260.691216
21
182.403695
0
LINE
8
Image
10
260.691216
20
182.403695
11
262.290899
21
177.962542
0
LINE
8
Image
10
262.290899
20
177.962542
11
263.636800
21
173.542690
0
LINE
8
Image
10
263.636800
20
173.542690
11
264.714330
21
169.296146
0
LINE
8
Image
10
264.714330
20
169.296146
11
265.609010
21
165.034163
0
LINE
8
Image
10
265.609010
20
165.034163
11
266.321082
21
160.760316
0
LINE
8
Image
10
266.321082
20
160.760316
11
266.850788
21
156.478184
0
LINE
8
Image
10
266.850788
20
156.478184
11
267.198366
21
152.191343
0
LINE
8
Image
10
267.198366
20
152.191343
11
267.364060
21
147.903370
0
LINE
8
Image
10
267.364060
20
147.903370
11
267.348109
21
143.617844
0
LINE
8
Image
10
267.348109
20
143.617844
11
267.150755
21
139.338340
0
LINE
8
Image
10
267.150755
20
139.338340
11
266.772238
21
135.068436
0
LINE
8
Image
10
266.772238
20
135.068436
11
266.212800
21
130.811710
0
LINE
8
Image
10
266.212800
20
130.811710
11
265.472681
21
126.571737
0
LINE
8
Image
10
265.472681
20
126.571737
11
264.552122
21
122.352096
0
LINE
8
Image
10
264.552122
20
122.352096
11
263.451365
21
118.156364
0
LINE
8
Image
10
263.451365
20
118.156364
11
262.170650
21
113.988117
0
LINE
8
Image
10
262.170650
20
113.988117
11
260.710218
21
109.850934
0
LINE
8
Image
10
260.710218
20
109.850934
11
259.070310
21
105.748390
0
LINE
8
Image
10
259.070310
20
105.748390
11
256.397841
21
100.001557
0
LINE
8
Image
10
256.397841
20
100.001557
11
253.308766
21
94.381631
0
LINE
8
Image
10
253.308766
20
94.381631
11
249.826392
21
88.918534
0
LINE
8
Image
10
249.826392
20
88.918534
11
245.974026
21
83.642190
0
LINE
8
Image
10
245.974026
20
83.642190
11
241.774978
21
78.582521
0
LINE
8
Image
10
241.774978
20
78.582521
11
237.252554
21
73.769449
0
LINE
8
Image
10
237.252554
20
73.769449
11
232.430062
21
69.232898
0
LINE
8
Image
10
232.430062
20
69.232898
11
227.330810
21
65.002790
0
LINE
8
Image
10
227.330810
20
65.002790
11
222.094216
21
61.219994
0
LINE
8
Image
10
222.094216
20
61.219994
11
216.454896
21
57.685794
0
LINE
8
Image
10
216.454896
20
57.685794
11
210.544183
21
54.476867
0
LINE
8
Image
10
210.544183
20
54.476867
11
204.493410
21
51.669890
0
LINE
8
Image
10
204.493410
20
51.669890
11
197.628586
21
49.060180
0
LINE
8
Image
10
197.628586
20
49.060180
11
190.521639
21
46.958104
0
LINE
8
Image
10
190.521639
20
46.958104
11
183.173677
21
45.363949
0
LINE
8
Image
10
183.173677
20
45.363949
11
175.585810
21
44.278000
0
LINE
8
Image
10
175.585810
20
44.278000
11
166.720034
21
43.842291
0
LINE
8
Image
10
166.720034
20
43.842291
11
161.732916
21
43.759253
0
LINE
8
Image
10
161.732916
20
43.759253
11
158.521810
21
43.823261
0
LINE
8
Image
10
158.521810
20
43.823261
11
158.522000
21
43.823500
0
LINE
8
Image
10
171.620400
20
44.850000
11
172.456526
21
44.981988
0
LINE
8
Image
10
172.456526
20
44.981988
11
172.620908
21
45.124495
0
LINE
8
Image
10
172.620908
20
45.124495
11
170.899385
21
45.471241
0
LINE
8
Image
10
170.899385
20
45.471241
11
167.684072
21
46.171397
0
LINE
8
Image
10
167.684072
20
46.171397
11
164.047185
21
47.248761
0
LINE
8
Image
10
164.047185
20
47.248761
11
159.323427
21
49.253240
0
LINE
8
Image
10
159.323427
20
49.253240
11
154.169511
21
52.054445
0
LINE
8
Image
10
154.169511
20
52.054445
11
148.847882
21
55.495983
0
LINE
8
Image
10
148.847882
20
55.495983
11
143.620985
21
59.421461
0
LINE
8
Image
10
143.620985
20
59.421461
11
140.768740
21
61.895554
0
LINE
8
Image
10
140.768740
20
61.895554
11
137.512387
21
64.971490
0
LINE
8
Image
10
137.512387
20
64.971490
11
134.410959
21
68.103411
0
LINE
8
Image
10
134.410959
20
68.103411
11
132.023485
21
70.745461
0
LINE
8
Image
10
132.023485
20
70.745461
11
130.468761
21
72.472760
0
LINE
8
Image
10
130.468761
20
72.472760
11
129.988224
21
72.873451
0
LINE
8
Image
10
129.988224
20
72.873451
11
129.701065
21
72.969811
0
LINE
8
Image
10
129.701065
20
72.969811
11
127.209571
21
72.426437
0
LINE
8
Image
10
127.209571
20
72.426437
11
124.273725
21
72.278270
0
LINE
8
Image
10
124.273725
20
72.278270
11
113.919628
21
72.753543
0
LINE
8
Image
10
113.919628
20
72.753543
11
108.282348
21
73.141801
0
LINE
8
Image
10
108.282348
20
73.141801
11
105.654025
21
73.426080
0
LINE
8
Image
10
105.654025
20
73.426080
11
105.407180
21
73.884655
0
LINE
8
Image
10
105.407180
20
73.884655
11
106.118959
21
74.688288
0
LINE
8
Image
10
106.118959
20
74.688288
11
107.945147
21
76.010523
0
LINE
8
Image
10
107.945147
20
76.010523
11
110.422025
21
77.543652
0
LINE
8
Image
10
110.422025
20
77.543652
11
113.085870
21
78.979965
0
LINE
8
Image
10
113.085870
20
78.979965
11
116.462740
21
80.724835
0
LINE
8
Image
10
116.462740
20
80.724835
11
110.093770
21
80.862656
0
LINE
8
Image
10
110.093770
20
80.862656
11
105.415807
21
81.016389
0
LINE
8
Image
10
105.415807
20
81.016389
11
102.943700
21
81.217647
0
LINE
8
Image
10
102.943700
20
81.217647
11
102.269255
21
81.502979
0
LINE
8
Image
10
102.269255
20
81.502979
11
102.065301
21
81.877229
0
LINE
8
Image
10
102.065301
20
81.877229
11
102.331052
21
82.329885
0
LINE
8
Image
10
102.331052
20
82.329885
11
103.065720
21
82.850437
0
LINE
8
Image
10
103.065720
20
82.850437
11
106.817128
21
84.851324
0
LINE
8
Image
10
106.817128
20
84.851324
11
110.850603
21
86.785487
0
LINE
8
Image
10
110.850603
20
86.785487
11
114.663235
21
88.423940
0
LINE
8
Image
10
114.663235
20
88.423940
11
117.752120
21
89.537697
0
LINE
8
Image
10
117.752120
20
89.537697
11
119.520646
21
89.936665
0
LINE
8
Image
10
119.520646
20
89.936665
11
121.455690
21
90.194286
0
LINE
8
Image
10
121.455690
20
90.194286
11
123.013151
21
90.385583
0
LINE
8
Image
10
123.013151
20
90.385583
11
123.907027
21
90.737898
0
LINE
8
Image
10
123.907027
20
90.737898
11
124.282500
21
91.363024
0
LINE
8
Image
10
124.282500
20
91.363024
11
124.284750
21
92.372756
0
LINE
8
Image
10
124.284750
20
92.372756
11
123.904335
21
97.681746
0
LINE
8
Image
10
123.904335
20
97.681746
11
123.161243
21
106.162446
0
LINE
8
Image
10
123.161243
20
106.162446
11
122.858562
21
109.401830
0
LINE
8
Image
10
122.858562
20
109.401830
11
122.813851
21
111.152726
0
LINE
8
Image
10
122.813851
20
111.152726
11
124.003481
21
113.901876
0
LINE
8
Image
10
124.003481
20
113.901876
11
124.812335
21
115.647065
0
LINE
8
Image
10
124.812335
20
115.647065
11
125.299515
21
117.360997
0
LINE
8
Image
10
125.299515
20
117.360997
11
125.593380
21
119.711659
0
LINE
8
Image
10
125.593380
20
119.711659
11
125.822291
21
123.367036
0
LINE
8
Image
10
125.822291
20
123.367036
11
126.499925
21
136.149936
0
LINE
8
Image
10
126.499925
20
136.149936
11
126.814100
21
145.046006
0
LINE
8
Image
10
126.814100
20
145.046006
11
126.929793
21
156.220336
0
LINE
8
Image
10
126.929793
20
156.220336
11
126.967325
21
164.395961
0
LINE
8
Image
10
126.967325
20
164.395961
11
127.219773
21
168.743886
0
LINE
8
Image
10
127.219773
20
168.743886
11
127.506098
21
170.020188
0
LINE
8
Image
10
127.506098
20
170.020188
11
127.941561
21
170.984836
0
LINE
8
Image
10
127.941561
20
170.984836
11
129.387113
21
172.839536
0
LINE
8
Image
10
129.387113
20
172.839536
11
130.944995
21
174.472828
0
LINE
8
Image
10
130.944995
20
174.472828
11
132.707823
21
175.895139
0
LINE
8
Image
10
132.707823
20
175.895139
11
134.799429
21
177.193891
0
LINE
8
Image
10
134.799429
20
177.193891
11
137.343643
21
178.456506
0
LINE
8
Image
10
137.343643
20
178.456506
11
140.079975
21
179.652128
0
LINE
8
Image
10
140.079975
20
179.652128
11
141.965924
21
180.302547
0
LINE
8
Image
10
141.965924
20
180.302547
11
143.559098
21
180.551989
0
LINE
8
Image
10
143.559098
20
180.551989
11
145.417103
21
180.544676
0
LINE
8
Image
10
145.417103
20
180.544676
11
147.241518
21
180.395635
0
LINE
8
Image
10
147.241518
20
180.395635
11
148.494772
21
180.060788
0
LINE
8
Image
10
148.494772
20
180.060788
11
149.391968
21
179.445050
0
LINE
8
Image
10
149.391968
20
179.445050
11
150.148213
21
178.453336
0
LINE
8
Image
10
150.148213
20
178.453336
11
150.581734
21
177.802114
0
LINE
8
Image
10
150.581734
20
177.802114
11
150.959180
21
177.440781
0
LINE
8
Image
10
150.959180
20
177.440781
11
151.458165
21
177.259343
0
LINE
8
Image
10
151.458165
20
177.259343
11
152.256303
21
177.147806
0
LINE
8
Image
10
152.256303
20
177.147806
11
154.165965
21
176.684031
0
LINE
8
Image
10
154.165965
20
176.684031
11
155.661623
21
175.780589
0
LINE
8
Image
10
155.661623
20
175.780589
11
156.246953
21
175.170311
0
LINE
8
Image
10
156.246953
20
175.170311
11
156.720084
21
174.457698
0
LINE
8
Image
10
156.720084
20
174.457698
11
157.318153
21
172.735576
0
LINE
8
Image
10
157.318153
20
172.735576
11
157.430513
21
171.494683
0
LINE
8
Image
10
157.430513
20
171.494683
11
157.326885
21
170.061947
0
LINE
8
Image
10
157.326885
20
170.061947
11
157.000869
21
168.391126
0
LINE
8
Image
10
157.000869
20
168.391126
11
156.446066
21
166.435976
0
LINE
8
Image
10
156.446066
20
166.435976
11
155.969242
21
164.552965
0
LINE
8
Image
10
155.969242
20
164.552965
11
155.982011
21
162.931156
0
LINE
8
Image
10
155.982011
20
162.931156
11
156.524490
21
160.350266
0
LINE
8
Image
10
156.524490
20
160.350266
11
157.893173
21
156.423145
0
LINE
8
Image
10
157.893173
20
156.423145
11
160.362872
21
150.440280
0
LINE
8
Image
10
160.362872
20
150.440280
11
164.208401
21
141.692156
0
LINE
8
Image
10
164.208401
20
141.692156
11
170.316631
21
128.000256
0
LINE
8
Image
10
170.316631
20
128.000256
11
169.677483
21
125.683646
0
LINE
8
Image
10
169.677483
20
125.683646
11
169.160346
21
123.238051
0
LINE
8
Image
10
169.160346
20
123.238051
11
168.897205
21
120.769851
0
LINE
8
Image
10
168.897205
20
120.769851
11
168.908543
21
118.652036
0
LINE
8
Image
10
168.908543
20
118.652036
11
169.214838
21
117.257596
0
LINE
8
Image
10
169.214838
20
117.257596
11
170.096788
21
115.931385
0
LINE
8
Image
10
170.096788
20
115.931385
11
171.251389
21
114.942467
0
LINE
8
Image
10
171.251389
20
114.942467
11
172.733164
21
114.256199
0
LINE
8
Image
10
172.733164
20
114.256199
11
174.596638
21
113.837936
0
LINE
8
Image
10
174.596638
20
113.837936
11
175.571251
21
113.526855
0
LINE
8
Image
10
175.571251
20
113.526855
11
176.394186
21
112.433645
0
LINE
8
Image
10
176.394186
20
112.433645
11
177.237989
21
111.512516
0
LINE
8
Image
10
177.237989
20
111.512516
11
178.255617
21
110.946981
0
LINE
8
Image
10
178.255617
20
110.946981
11
179.659700
21
110.662399
0
LINE
8
Image
10
179.659700
20
110.662399
11
181.662866
21
110.584125
0
LINE
8
Image
10
181.662866
20
110.584125
11
184.206881
21
110.694760
0
LINE
8
Image
10
184.206881
20
110.694760
11
186.131066
21
111.171404
0
LINE
8
Image
10
186.131066
20
111.171404
11
189.546235
21
112.621218
0
LINE
8
Image
10
189.546235
20
112.621218
11
193.062196
21
114.562254
0
LINE
8
Image
10
193.062196
20
114.562254
11
194.768870
21
115.864981
0
LINE
8
Image
10
194.768870
20
115.864981
11
196.600641
21
117.606607
0
LINE
8
Image
10
196.600641
20
117.606607
11
198.212452
21
119.429918
0
LINE
8
Image
10
198.212452
20
119.429918
11
199.259246
21
120.977704
0
LINE
8
Image
10
199.259246
20
120.977704
11
199.980261
21
122.411304
0
LINE
8
Image
10
199.980261
20
122.411304
11
199.908929
21
129.021724
0
LINE
8
Image
10
199.908929
20
129.021724
11
200.092348
21
145.567229
0
LINE
8
Image
10
200.092348
20
145.567229
11
200.707705
21
162.074124
0
LINE
8
Image
10
200.707705
20
162.074124
11
201.483165
21
173.862549
0
LINE
8
Image
10
201.483165
20
173.862549
11
201.845808
21
175.557418
0
LINE
8
Image
10
201.845808
20
175.557418
11
202.486075
21
176.907924
0
LINE
8
Image
10
202.486075
20
176.907924
11
203.417532
21
178.980012
0
LINE
8
Image
10
203.417532
20
178.980012
11
203.833123
21
180.674832
0
LINE
8
Image
10
203.833123
20
180.674832
11
203.829123
21
182.912190
0
LINE
8
Image
10
203.829123
20
182.912190
11
203.501805
21
186.611894
0
LINE
8
Image
10
203.501805
20
186.611894
11
202.813866
21
194.531444
0
LINE
8
Image
10
202.813866
20
194.531444
11
202.505915
21
199.509794
0
LINE
8
Image
10
202.505915
20
199.509794
11
202.616602
21
200.149808
0
LINE
8
Image
10
202.616602
20
200.149808
11
203.027140
21
200.567783
0
LINE
8
Image
10
203.027140
20
200.567783
11
203.847506
21
200.823959
0
LINE
8
Image
10
203.847506
20
200.823959
11
205.187675
21
200.978574
0
LINE
8
Image
10
205.187675
20
200.978574
11
208.632435
21
201.514016
0
LINE
8
Image
10
208.632435
20
201.514016
11
212.111509
21
202.796681
0
LINE
8
Image
10
212.111509
20
202.796681
11
216.880198
21
204.928703
0
LINE
8
Image
10
216.880198
20
204.928703
11
221.430506
21
207.197877
0
LINE
8
Image
10
221.430506
20
207.197877
11
224.254435
21
208.891996
0
LINE
8
Image
10
224.254435
20
208.891996
11
224.788506
21
209.442163
0
LINE
8
Image
10
224.788506
20
209.442163
11
224.711211
21
209.900746
0
LINE
8
Image
10
224.711211
20
209.900746
11
224.088413
21
210.394101
0
LINE
8
Image
10
224.088413
20
210.394101
11
222.792676
21
210.736264
0
LINE
8
Image
10
222.792676
20
210.736264
11
220.614585
21
210.961438
0
LINE
8
Image
10
220.614585
20
210.961438
11
217.344721
21
211.103826
0
LINE
8
Image
10
217.344721
20
211.103826
11
212.357701
21
211.414820
0
LINE
8
Image
10
212.357701
20
211.414820
11
213.979961
21
212.321271
0
LINE
8
Image
10
213.979961
20
212.321271
11
217.944541
21
214.427129
0
LINE
8
Image
10
217.944541
20
214.427129
11
219.577191
21
215.518060
0
LINE
8
Image
10
219.577191
20
215.518060
11
220.831791
21
216.544971
0
LINE
8
Image
10
220.831791
20
216.544971
11
221.316131
21
217.138402
0
LINE
8
Image
10
221.316131
20
217.138402
11
221.248298
21
217.629581
0
LINE
8
Image
10
221.248298
20
217.629581
11
221.017089
21
217.930692
0
LINE
8
Image
10
221.017089
20
217.930692
11
220.620394
21
218.179169
0
LINE
8
Image
10
220.620394
20
218.179169
11
218.968892
21
218.570382
0
LINE
8
Image
10
218.968892
20
218.570382
11
215.570494
21
218.907551
0
LINE
8
Image
10
215.570494
20
218.907551
11
209.701898
21
219.295001
0
LINE
8
Image
10
209.701898
20
219.295001
11
204.845941
21
219.545140
0
LINE
8
Image
10
204.845941
20
219.545140
11
201.414567
21
219.596252
0
LINE
8
Image
10
201.414567
20
219.596252
11
199.007909
21
219.441222
0
LINE
8
Image
10
199.007909
20
219.441222
11
197.226098
21
219.072931
0
LINE
8
Image
10
197.226098
20
219.072931
11
196.596116
21
218.950006
0
LINE
8
Image
10
196.596116
20
218.950006
11
196.249125
21
219.002192
0
LINE
8
Image
10
196.249125
20
219.002192
11
191.540917
21
224.393654
0
LINE
8
Image
10
191.540917
20
224.393654
11
186.862057
21
229.035608
0
LINE
8
Image
10
186.862057
20
229.035608
11
181.981306
21
233.139604
0
LINE
8
Image
10
181.981306
20
233.139604
11
176.667425
21
236.917192
0
LINE
8
Image
10
176.667425
20
236.917192
11
170.375526
21
240.929034
0
LINE
8
Image
10
170.375526
20
240.929034
11
165.598237
21
243.616413
0
LINE
8
Image
10
165.598237
20
243.616413
11
161.518742
21
245.390812
0
LINE
8
Image
10
161.518742
20
245.390812
11
157.320225
21
246.663712
0
LINE
8
Image
10
157.320225
20
246.663712
11
155.598398
21
246.920617
0
LINE
8
Image
10
155.598398
20
246.920617
11
153.374408
21
246.893285
0
LINE
8
Image
10
153.374408
20
246.893285
11
150.438702
21
246.567371
0
LINE
8
Image
10
150.438702
20
246.567371
11
146.581725
21
245.928528
0
LINE
8
Image
10
146.581725
20
245.928528
11
140.936419
21
244.813355
0
LINE
8
Image
10
140.936419
20
244.813355
11
135.991425
21
243.511998
0
LINE
8
Image
10
135.991425
20
243.511998
11
131.220036
21
242.025625
0
LINE
8
Image
10
131.220036
20
242.025625
11
126.542917
21
240.310223
0
LINE
8
Image
10
126.542917
20
240.310223
11
121.967491
21
238.371645
0
LINE
8
Image
10
121.967491
20
238.371645
11
117.501180
21
236.215741
0
LINE
8
Image
10
117.501180
20
236.215741
11
113.151407
21
233.848364
0
LINE
8
Image
10
113.151407
20
233.848364
11
108.925594
21
231.275364
0
LINE
8
Image
10
108.925594
20
231.275364
11
104.831163
21
228.502594
0
LINE
8
Image
10
104.831163
20
228.502594
11
100.875538
21
225.535906
0
LINE
8
Image
10
100.875538
20
225.535906
11
97.066140
21
222.381149
0
LINE
8
Image
10
97.066140
20
222.381149
11
93.410393
21
219.044177
0
LINE
8
Image
10
93.410393
20
219.044177
11
89.915719
21
215.530841
0
LINE
8
Image
10
89.915719
20
215.530841
11
86.589539
21
211.846992
0
LINE
8
Image
10
86.589539
20
211.846992
11
83.439278
21
207.998481
0
LINE
8
Image
10
83.439278
20
207.998481
11
80.472357
21
203.991161
0
LINE
8
Image
10
80.472357
20
203.991161
11
77.696198
21
199.830883
0
LINE
8
Image
10
77.696198
20
199.830883
11
75.118225
21
195.523498
0
LINE
8
Image
10
75.118225
20
195.523498
11
72.832572
21
191.237310
0
LINE
8
Image
10
72.832572
20
191.237310
11
70.764837
21
186.852515
0
LINE
8
Image
10
70.764837
20
186.852515
11
68.916299
21
182.378971
0
LINE
8
Image
10
68.916299
20
182.378971
11
67.288234
21
177.826531
0
LINE
8
Image
10
67.288234
20
177.826531
11
65.881919
21
173.205052
0
LINE
8
Image
10
65.881919
20
173.205052
11
64.698631
21
168.524389
0
LINE
8
Image
10
64.698631
20
168.524389
11
63.739648
21
163.794399
0
LINE
8
Image
10
63.739648
20
163.794399
11
63.006245
21
159.024936
0
LINE
8
Image
10
63.006245
20
159.024936
11
62.499701
21
154.225856
0
LINE
8
Image
10
62.499701
20
154.225856
11
62.221292
21
149.407015
0
LINE
8
Image
10
62.221292
20
149.407015
11
62.172295
21
144.578268
0
LINE
8
Image
10
62.172295
20
144.578268
11
62.353987
21
139.749472
0
LINE
8
Image
10
62.353987
20
139.749472
11
62.767645
21
134.930481
0
LINE
8
Image
10
62.767645
20
134.930481
11
63.414546
21
130.131151
0
LINE
8
Image
10
63.414546
20
130.131151
11
64.295967
21
125.361338
0
LINE
8
Image
10
64.295967
20
125.361338
11
65.413185
21
120.630898
0
LINE
8
Image
10
65.413185
20
120.630898
11
66.707027
21
116.116909
0
LINE
8
Image
10
66.707027
20
116.116909
11
68.194008
21
111.693307
0
LINE
8
Image
10
68.194008
20
111.693307
11
69.871054
21
107.364392
0
LINE
8
Image
10
69.871054
20
107.364392
11
71.735091
21
103.134462
0
LINE
8
Image
10
71.735091
20
103.134462
11
73.783045
21
99.007818
0
LINE
8
Image
10
73.783045
20
99.007818
11
76.011845
21
94.988757
0
LINE
8
Image
10
76.011845
20
94.988757
11
78.418415
21
91.081580
0
LINE
8
Image
10
78.418415
20
91.081580
11
80.999682
21
87.290586
0
LINE
8
Image
10
80.999682
20
87.290586
11
83.752572
21
83.620073
0
LINE
8
Image
10
83.752572
20
83.620073
11
86.674013
21
80.074340
0
LINE
8
Image
10
86.674013
20
80.074340
11
89.760930
21
76.657688
0
LINE
8
Image
10
89.760930
20
76.657688
11
93.010250
21
73.374415
0
LINE
8
Image
10
93.010250
20
73.374415
11
96.418899
21
70.228821
0
LINE
8
Image
10
96.418899
20
70.228821
11
99.983803
21
67.225203
0
LINE
8
Image
10
99.983803
20
67.225203
11
103.701890
21
64.367863
0
LINE
8
Image
10
103.701890
20
64.367863
11
107.570085
21
61.661098
0
LINE
8
Image
10
107.570085
20
61.661098
11
112.909465
21
58.341611
0
LINE
8
Image
10
112.909465
20
58.341611
11
118.469393
21
55.353722
0
LINE
8
Image
10
118.469393
20
55.353722
11
124.218389
21
52.708551
0
LINE
8
Image
10
124.218389
20
52.708551
11
130.124973
21
50.417219
0
LINE
8
Image
10
130.124973
20
50.417219
11
136.157665
21
48.490847
0
LINE
8
Image
10
136.157665
20
48.490847
11
142.284984
21
46.940556
0
LINE
8
Image
10
142.284984
20
46.940556
11
148.475451
21
45.777466
0
LINE
8
Image
10
148.475451
20
45.777466
11
154.697585
21
45.012698
0
LINE
8
Image
10
154.697585
20
45.012698
11
158.537581
21
44.810218
0
LINE
8
Image
10
158.537581
20
44.810218
11
163.609729
21
44.706238
0
LINE
8
Image
10
163.609729
20
44.706238
11
168.456455
21
44.714782
0
LINE
8
Image
10
168.456455
20
44.714782
11
171.620185
21
44.849874
0
LINE
8
Image
10
171.620185
20
44.849874
11
171.620400
21
44.850000
0
LINE
8
Image
10
189.472200
20
175.208000
11
187.746875
21
175.942395
0
LINE
8
Image
10
187.746875
20
175.942395
11
186.542530
21
176.616930
0
LINE
8
Image
10
186.542530
20
176.616930
11
185.866419
21
177.348733
0
LINE
8
Image
10
185.866419
20
177.348733
11
185.141814
21
178.463451
0
LINE
8
Image
10
185.141814
20
178.463451
11
184.508840
21
179.716676
0
LINE
8
Image
10
184.508840
20
179.716676
11
184.107620
21
180.864000
0
LINE
8
Image
10
184.107620
20
180.864000
11
184.050819
21
181.229161
0
LINE
8
Image
10
184.050819
20
181.229161
11
184.195033
21
181.435531
0
LINE
8
Image
10
184.195033
20
181.435531
11
185.648670
21
181.663572
0
LINE
8
Image
10
185.648670
20
181.663572
11
187.141760
21
181.744966
0
LINE
8
Image
10
187.141760
20
181.744966
11
188.315466
21
181.639910
0
LINE
8
Image
10
188.315466
20
181.639910
11
189.267324
21
181.329319
0
LINE
8
Image
10
189.267324
20
181.329319
11
190.094870
21
180.794107
0
LINE
8
Image
10
190.094870
20
180.794107
11
190.767278
21
180.157915
0
LINE
8
Image
10
190.767278
20
180.157915
11
191.267489
21
179.464715
0
LINE
8
Image
10
191.267489
20
179.464715
11
191.640610
21
178.635891
0
LINE
8
Image
10
191.640610
20
178.635891
11
191.931750
21
177.592827
0
LINE
8
Image
10
191.931750
20
177.592827
11
192.037275
21
175.568837
0
LINE
8
Image
10
192.037275
20
175.568837
11
191.921987
21
174.726918
0
LINE
8
Image
10
191.921987
20
174.726918
11
191.721494
21
174.405127
0
LINE
8
Image
10
191.721494
20
174.405127
11
189.472204
21
175.208007
0
LINE
8
Image
10
189.472204
20
175.208007
11
189.472200
21
175.208000
0
LINE
8
Image
10
142.259000
20
111.526000
11
142.218211
21
112.101921
0
LINE
8
Image
10
142.218211
20
112.101921
11
141.768495
21
113.150051
0
LINE
8
Image
10
141.768495
20
113.150051
11
141.092100
21
114.312618
0
LINE
8
Image
10
141.092100
20
114.312618
11
140.371270
21
115.231850
0
LINE
8
Image
10
140.371270
20
115.231850
11
139.310842
21
115.984431
0
LINE
8
Image
10
139.310842
20
115.984431
11
137.813560
21
116.676310
0
LINE
8
Image
10
137.813560
20
116.676310
11
135.359950
21
117.657087
0
LINE
8
Image
10
135.359950
20
117.657087
11
134.487773
21
117.871113
0
LINE
8
Image
10
134.487773
20
117.871113
11
134.392754
21
116.963250
0
LINE
8
Image
10
134.392754
20
116.963250
11
134.631135
21
114.477263
0
LINE
8
Image
10
134.631135
20
114.477263
11
134.923442
21
113.560626
0
LINE
8
Image
10
134.923442
20
113.560626
11
135.531263
21
112.703243
0
LINE
8
Image
10
135.531263
20
112.703243
11
136.390742
21
111.974155
0
LINE
8
Image
10
136.390742
20
111.974155
11
137.438025
21
111.442403
0
LINE
8
Image
10
137.438025
20
111.442403
11
138.577756
21
111.234397
0
LINE
8
Image
10
138.577756
20
111.234397
11
140.087176
21
111.184644
0
LINE
8
Image
10
140.087176
20
111.184644
11
141.477266
21
111.284666
0
LINE
8
Image
10
141.477266
20
111.284666
11
142.259005
21
111.525985
0
LINE
8
Image
10
142.259005
20
111.525985
11
142.259000
21
111.526000
 0 
ENDSEC
 0 
EOF