  0
SECTION
  2
HEADER
  9
$ACADVER
  1
AC1014
  9
$HANDSEED
  5
FFFF
  9
$MEASUREMENT
 70
     1
  0
ENDSEC
  0
SECTION
  2
TABLES
  0
TABLE
  2
VPORT
  5
8
330
0
100
AcDbSymbolTable
 70
     4
  0
VPORT
  5
2E
330
8
100
AcDbSymbolTableRecord
100
AcDbViewportTableRecord
  2
*ACTIVE
 70
     0
 10
0.0
 20
0.0
 11
1.0
 21
1.0
 12
210.0
 22
148.5
 13
0.0
 23
0.0
 14
10.0
 24
10.0
 15
10.0
 25
10.0
 16
0.0
 26
0.0
 36
1.0
 17
0.0
 27
0.0
 37
0.0
 40
341.0
 41
1.24
 42
50.0
 43
0.0
 44
0.0
 50
0.0
 51
0.0
 71
     0
 72
   100
 73
     1
 74
     3
 75
     0
 76
     0
 77
     0
 78
     0
  0
ENDTAB
  0
TABLE
  2
LTYPE
  5
5
330
0
100
AcDbSymbolTable
 70
     1
  0
LTYPE
  5
14
330
5
100
AcDbSymbolTableRecord
100
AcDbLinetypeTableRecord
  2
BYBLOCK
 70
     0
  3

 72
    65
 73
     0
 40
0.0
  0
LTYPE
  5
15
330
5
100
AcDbSymbolTableRecord
100
AcDbLinetypeTableRecord
  2
BYLAYER
 70
     0
  3

 72
    65
 73
     0
 40
0.0
  0
LTYPE
  5
16
330
5
100
AcDbSymbolTableRecord
100
AcDbLinetypeTableRecord
  2
CONTINUOUS
 70
     0
  3
Solid line
 72
    65
 73
     0
 40
0.0
  0
ENDTAB
  0
TABLE
  2
LAYER
  5
2
100
AcDbSymbolTable
 70
2
  0
LAYER
  5
50
100
AcDbSymbolTableRecord
100
AcDbLayerTableRecord
  2
0
 70
0
  6
CONTINUOUS
  0
LAYER
  5
51
100
AcDbSymbolTableRecord
100
AcDbLayerTableRecord
  2
Image
 70
0
  6
CONTINUOUS
  0
ENDTAB
  0
TABLE
  2
STYLE
  5
3
330
0
100
AcDbSymbolTable
 70
     1
  0
STYLE
  5
11
330
3
100
AcDbSymbolTableRecord
100
AcDbTextStyleTableRecord
  2
STANDARD
 70
     0
 40
0.0
 41
1.0
 50
0.0
 71
     0
 42
2.5
  3
txt
  4

  0
ENDTAB
  0
TABLE
  2
VIEW
  5
6
330
0
100
AcDbSymbolTable
 70
     0
  0
ENDTAB
  0
TABLE
  2
UCS
  5
7
330
0
100
AcDbSymbolTable
 70
     0
  0
ENDTAB
  0
TABLE
  2
APPID
  5
9
330
0
100
AcDbSymbolTable
 70
     2
  0
APPID
  5
12
330
9
100
AcDbSymbolTableRecord
100
AcDbRegAppTableRecord
  2
ACAD
 70
     0
  0
ENDTAB
  0
TABLE
  2
DIMSTYLE
  5
A
330
0
100
AcDbSymbolTable
 70
     1
  0
DIMSTYLE
105
27
330
A
100
AcDbSymbolTableRecord
100
AcDbDimStyleTableRecord
  2
ISO-25
 70
     0
  3

  4

  5

  6

  7

 40
1.0
 41
2.5
 42
0.625
 43
3.75
 44
1.25
 45
0.0
 46
0.0
 47
0.0
 48
0.0
140
2.5
141
2.5
142
0.0
143
0.03937007874016
144
1.0
145
0.0
146
1.0
147
0.625
 71
     0
 72
     0
 73
     0
 74
     0
 75
     0
 76
     0
 77
     1
 78
     8
170
     0
171
     3
172
     1
173
     0
174
     0
175
     0
176
     0
177
     0
178
     0
270
     2
271
     2
272
     2
273
     2
274
     3
340
11
275
     0
280
     0
281
     0
282
     0
283
     0
284
     8
285
     0
286
     0
287
     3
288
     0
  0
ENDTAB
  0
TABLE
  2
BLOCK_RECORD
  5
1
330
0
100
AcDbSymbolTable
 70
     1
  0
BLOCK_RECORD
  5
1F
330
1
100
AcDbSymbolTableRecord
100
AcDbBlockTableRecord
  2
*MODEL_SPACE
  0
BLOCK_RECORD
  5
1B
330
1
100
AcDbSymbolTableRecord
100
AcDbBlockTableRecord
  2
*PAPER_SPACE
  0
ENDTAB
  0
ENDSEC
  0
SECTION
  2
BLOCKS
  0
BLOCK
  5
20
330
1F
100
AcDbEntity
  8
0
100
AcDbBlockBegin
  2
*MODEL_SPACE
 70
     0
 10
0.0
 20
0.0
 30
0.0
  3
*MODEL_SPACE
  1

  0
ENDBLK
  5
21
330
1F
100
AcDbEntity
  8
0
100
AcDbBlockEnd
  0
BLOCK
  5
1C
330
1B
100
AcDbEntity
 67
     1
  8
0
100
AcDbBlockBegin
  2
*PAPER_SPACE
  1

  0
ENDBLK
  5
1D
330
1B
100
AcDbEntity
 67
     1
  8
0
100
AcDbBlockEnd
  0
ENDSEC
  0
SECTION
  2
ENTITIES
  0
SPLINE
  5
100
100
AcDbEntity
  8
Image
 62
7
100
AcDbSpline
 70
8
 71
3
 72
8
 73
4
 74
0
 40
0
 40
0
 40
0
 40
0
 40
1
 40
1
 40
1
 40
1
 10
399.377872
 20
75.604537
 30
0.0
 10
381.723697
 20
78.587843
 30
0.0
 10
368.510948
 20
97.128630
 30
0.0
 10
371.494147
 20
114.732345
 30
0.0
  0
SPLINE
  5
101
100
AcDbEntity
  8
Image
 62
7
100
AcDbSpline
 70
8
 71
3
 72
8
 73
4
 74
0
 40
0
 40
0
 40
0
 40
0
 40
1
 40
1
 40
1
 40
1
 10
371.494147
 20
114.732345
 30
0.0
 10
376.239098
 20
142.731630
 30
0.0
 10
410.098372
 20
153.406020
 30
0.0
 10
429.874973
 20
133.137353
 30
0.0
  0
SPLINE
  5
102
100
AcDbEntity
  8
Image
 62
7
100
AcDbSpline
 70
8
 71
3
 72
8
 73
4
 74
0
 40
0
 40
0
 40
0
 40
0
 40
1
 40
1
 40
1
 40
1
 10
429.874973
 20
133.137353
 30
0.0
 10
452.883698
 20
109.556175
 30
0.0
 10
431.967323
 20
70.097385
 30
0.0
 10
399.377873
 20
75.604537
 30
0.0
  0
SPLINE
  5
103
100
AcDbEntity
  8
Image
 62
7
100
AcDbSpline
 70
8
 71
3
 72
8
 73
4
 74
0
 40
0
 40
0
 40
0
 40
0
 40
1
 40
1
 40
1
 40
1
 10
319.056247
 20
77.717205
 30
0.0
 10
298.032247
 20
84.443557
 30
0.0
 10
288.683347
 20
109.331025
 30
0.0
 10
300.097897
 20
128.185830
 30
0.0
  0
SPLINE
  5
104
100
AcDbEntity
  8
Image
 62
7
100
AcDbSpline
 70
8
 71
3
 72
8
 73
4
 74
0
 40
0
 40
0
 40
0
 40
0
 40
1
 40
1
 40
1
 40
1
 10
300.097897
 20
128.185830
 30
0.0
 10
314.118847
 20
151.345762
 30
0.0
 10
348.116722
 20
149.616743
 30
0.0
 10
360.219623
 20
125.128238
 30
0.0
  0
SPLINE
  5
105
100
AcDbEntity
  8
Image
 62
7
100
AcDbSpline
 70
8
 71
3
 72
8
 73
4
 74
0
 40
0
 40
0
 40
0
 40
0
 40
1
 40
1
 40
1
 40
1
 10
360.219623
 20
125.128238
 30
0.0
 10
373.125097
 20
99.015750
 30
0.0
 10
346.899097
 20
68.809260
 30
0.0
 10
319.056247
 20
77.717205
 30
0.0
  0
LWPOLYLINE
  5
106
100
AcDbEntity
  8
Image
 62
7
100
AcDbPolyline
 90
1
 70
1
 10
399.377873
 20
75.604537
 30
0.0
  0
SPLINE
  5
107
100
AcDbEntity
  8
Image
 62
7
100
AcDbSpline
 70
8
 71
3
 72
8
 73
4
 74
0
 40
0
 40
0
 40
0
 40
0
 40
1
 40
1
 40
1
 40
1
 10
790.877850
 20
136.719142
 30
0.0
 10
789.846600
 20
136.895535
 30
0.0
 10
785.965350
 20
137.415143
 30
0.0
 10
782.252850
 20
137.873835
 30
0.0
  0
SPLINE
  5
108
100
AcDbEntity
  8
Image
 62
7
100
AcDbSpline
 70
8
 71
3
 72
8
 73
4
 74
0
 40
0
 40
0
 40
0
 40
0
 40
1
 40
1
 40
1
 40
1
 10
782.252850
 20
137.873835
 30
0.0
 10
732.635347
 20
144.004237
 30
0.0
 10
704.633047
 20
181.239045
 30
0.0
 10
722.645347
 20
217.134052
 30
0.0
  0
SPLINE
  5
109
100
AcDbEntity
  8
Image
 62
7
100
AcDbSpline
 70
8
 71
3
 72
8
 73
4
 74
0
 40
0
 40
0
 40
0
 40
0
 40
1
 40
1
 40
1
 40
1
 10
722.645347
 20
217.134052
 30
0.0
 10
737.634172
 20
247.003702
 30
0.0
 10
768.408900
 20
251.291940
 30
0.0
 10
798.812850
 20
227.747422
 30
0.0
  0
SPLINE
  5
10a
100
AcDbEntity
  8
Image
 62
7
100
AcDbSpline
 70
8
 71
3
 72
8
 73
4
 74
0
 40
0
 40
0
 40
0
 40
0
 40
1
 40
1
 40
1
 40
1
 10
798.812850
 20
227.747422
 30
0.0
 10
829.862775
 20
203.702693
 30
0.0
 10
858.467325
 20
207.885285
 30
0.0
 10
865.973400
 20
237.567713
 30
0.0
  0
SPLINE
  5
10b
100
AcDbEntity
  8
Image
 62
7
100
AcDbSpline
 70
8
 71
3
 72
8
 73
4
 74
0
 40
0
 40
0
 40
0
 40
0
 40
1
 40
1
 40
1
 40
1
 10
865.973400
 20
237.567713
 30
0.0
 10
873.037350
 20
265.502130
 30
0.0
 10
854.887875
 20
292.526715
 30
0.0
 10
817.919325
 20
309.120083
 30
0.0
  0
SPLINE
  5
10c
100
AcDbEntity
  8
Image
 62
7
100
AcDbSpline
 70
8
 71
3
 72
8
 73
4
 74
0
 40
0
 40
0
 40
0
 40
0
 40
1
 40
1
 40
1
 40
1
 10
817.919325
 20
309.120083
 30
0.0
 10
761.966325
 20
334.234643
 30
0.0
 10
781.544700
 20
392.080725
 30
0.0
 10
838.714650
 20
370.561995
 30
0.0
  0
SPLINE
  5
10d
100
AcDbEntity
  8
Image
 62
7
100
AcDbSpline
 70
8
 71
3
 72
8
 73
4
 74
0
 40
0
 40
0
 40
0
 40
0
 40
1
 40
1
 40
1
 40
1
 10
838.714650
 20
370.561995
 30
0.0
 10
924.786075
 20
338.164815
 30
0.0
 10
946.570425
 20
204.948773
 30
0.0
 10
873.934950
 20
155.182748
 30
0.0
  0
SPLINE
  5
10e
100
AcDbEntity
  8
Image
 62
7
100
AcDbSpline
 70
8
 71
3
 72
8
 73
4
 74
0
 40
0
 40
0
 40
0
 40
0
 40
1
 40
1
 40
1
 40
1
 10
873.934950
 20
155.182748
 30
0.0
 10
853.392525
 20
141.108210
 30
0.0
 10
815.049825
 20
132.584610
 30
0.0
 10
790.877850
 20
136.719142
 30
0.0
  0
LWPOLYLINE
  5
10f
100
AcDbEntity
  8
Image
 62
7
100
AcDbPolyline
 90
1
 70
1
 10
319.056247
 20
77.717205
 30
0.0
  0
SPLINE
  5
110
100
AcDbEntity
  8
Image
 62
7
100
AcDbSpline
 70
8
 71
3
 72
8
 73
4
 74
0
 40
0
 40
0
 40
0
 40
0
 40
1
 40
1
 40
1
 40
1
 10
649.877872
 20
149.082735
 30
0.0
 10
627.661822
 20
154.834207
 30
0.0
 10
609.764497
 20
174.285555
 30
0.0
 10
601.607872
 20
201.543892
 30
0.0
  0
SPLINE
  5
111
100
AcDbEntity
  8
Image
 62
7
100
AcDbSpline
 70
8
 71
3
 72
8
 73
4
 74
0
 40
0
 40
0
 40
0
 40
0
 40
1
 40
1
 40
1
 40
1
 10
601.607872
 20
201.543892
 30
0.0
 10
579.506647
 20
275.403397
 30
0.0
 10
583.056173
 20
384.558367
 30
0.0
 10
609.814597
 20
453.918892
 30
0.0
  0
SPLINE
  5
112
100
AcDbEntity
  8
Image
 62
7
100
AcDbSpline
 70
8
 71
3
 72
8
 73
4
 74
0
 40
0
 40
0
 40
0
 40
0
 40
1
 40
1
 40
1
 40
1
 10
609.814597
 20
453.918892
 30
0.0
 10
611.724248
 20
458.868893
 30
0.0
 10
614.553022
 20
466.196775
 30
0.0
 10
616.100722
 20
470.203073
 30
0.0
  0
SPLINE
  5
113
100
AcDbEntity
  8
Image
 62
7
100
AcDbSpline
 70
8
 71
3
 72
8
 73
4
 74
0
 40
0
 40
0
 40
0
 40
0
 40
1
 40
1
 40
1
 40
1
 10
616.100722
 20
470.203073
 30
0.0
 10
631.900373
 20
511.100820
 30
0.0
 10
666.312923
 20
504.166778
 30
0.0
 10
654.112072
 20
462.543893
 30
0.0
  0
SPLINE
  5
114
100
AcDbEntity
  8
Image
 62
7
100
AcDbSpline
 70
8
 71
3
 72
8
 73
4
 74
0
 40
0
 40
0
 40
0
 40
0
 40
1
 40
1
 40
1
 40
1
 10
654.112072
 20
462.543893
 30
0.0
 10
631.213972
 20
384.427785
 30
0.0
 10
648.484147
 20
288.149618
 30
0.0
 10
698.341372
 20
215.973847
 30
0.0
  0
SPLINE
  5
115
100
AcDbEntity
  8
Image
 62
7
100
AcDbSpline
 70
8
 71
3
 72
8
 73
4
 74
0
 40
0
 40
0
 40
0
 40
0
 40
1
 40
1
 40
1
 40
1
 10
698.341372
 20
215.973847
 30
0.0
 10
722.809522
 20
180.552503
 30
0.0
 10
692.091322
 20
138.154155
 30
0.0
 10
649.877872
 20
149.082735
 30
0.0
  0
LWPOLYLINE
  5
116
100
AcDbEntity
  8
Image
 62
7
100
AcDbPolyline
 90
1
 70
1
 10
790.877850
 20
136.719142
 30
0.0
  0
SPLINE
  5
117
100
AcDbEntity
  8
Image
 62
7
100
AcDbSpline
 70
8
 71
3
 72
8
 73
4
 74
0
 40
0
 40
0
 40
0
 40
0
 40
1
 40
1
 40
1
 40
1
 10
285.377872
 20
158.856007
 30
0.0
 10
250.508422
 20
166.214955
 30
0.0
 10
222.965047
 20
195.418657
 30
0.0
 10
210.102622
 20
238.668892
 30
0.0
  0
SPLINE
  5
118
100
AcDbEntity
  8
Image
 62
7
100
AcDbSpline
 70
8
 71
3
 72
8
 73
4
 74
0
 40
0
 40
0
 40
0
 40
0
 40
1
 40
1
 40
1
 40
1
 10
210.102622
 20
238.668892
 30
0.0
 10
208.168597
 20
245.172105
 30
0.0
 10
208.318372
 20
245.286285
 30
0.0
 10
206.659597
 20
236.043892
 30
0.0
  0
SPLINE
  5
119
100
AcDbEntity
  8
Image
 62
7
100
AcDbSpline
 70
8
 71
3
 72
8
 73
4
 74
0
 40
0
 40
0
 40
0
 40
0
 40
1
 40
1
 40
1
 40
1
 10
206.659597
 20
236.043892
 30
0.0
 10
195.063547
 20
171.431782
 30
0.0
 10
116.717347
 20
145.047848
 30
0.0
 10
71.961099
 20
190.682662
 30
0.0
  0
SPLINE
  5
11a
100
AcDbEntity
  8
Image
 62
7
100
AcDbSpline
 70
8
 71
3
 72
8
 73
4
 74
0
 40
0
 40
0
 40
0
 40
0
 40
1
 40
1
 40
1
 40
1
 10
71.961099
 20
190.682662
 30
0.0
 10
1.081141
 20
262.953863
 30
0.0
 10
51.079149
 20
409.063312
 30
0.0
 10
146.627872
 20
408.881737
 30
0.0
  0
SPLINE
  5
11b
100
AcDbEntity
  8
Image
 62
7
100
AcDbSpline
 70
8
 71
3
 72
8
 73
4
 74
0
 40
0
 40
0
 40
0
 40
0
 40
1
 40
1
 40
1
 40
1
 10
146.627872
 20
408.881737
 30
0.0
 10
195.172822
 20
408.789488
 30
0.0
 10
225.311947
 20
374.078280
 30
0.0
 10
238.445722
 20
303.135173
 30
0.0
  0
SPLINE
  5
11c
100
AcDbEntity
  8
Image
 62
7
100
AcDbSpline
 70
8
 71
3
 72
8
 73
4
 74
0
 40
0
 40
0
 40
0
 40
0
 40
1
 40
1
 40
1
 40
1
 10
238.445722
 20
303.135173
 30
0.0
 10
253.140247
 20
223.761090
 30
0.0
 10
291.548497
 20
188.389418
 30
0.0
 10
324.053497
 20
224.295547
 30
0.0
  0
SPLINE
  5
11d
100
AcDbEntity
  8
Image
 62
7
100
AcDbSpline
 70
8
 71
3
 72
8
 73
4
 74
0
 40
0
 40
0
 40
0
 40
0
 40
1
 40
1
 40
1
 40
1
 10
324.053497
 20
224.295547
 30
0.0
 10
336.324247
 20
237.850200
 30
0.0
 10
339.591772
 20
255.156518
 30
0.0
 10
335.567273
 20
285.278130
 30
0.0
  0
SPLINE
  5
11e
100
AcDbEntity
  8
Image
 62
7
100
AcDbSpline
 70
8
 71
3
 72
8
 73
4
 74
0
 40
0
 40
0
 40
0
 40
0
 40
1
 40
1
 40
1
 40
1
 10
335.567273
 20
285.278130
 30
0.0
 10
329.722447
 20
329.024745
 30
0.0
 10
364.874722
 20
365.294062
 30
0.0
 10
397.603522
 20
349.285688
 30
0.0
  0
SPLINE
  5
11f
100
AcDbEntity
  8
Image
 62
7
100
AcDbSpline
 70
8
 71
3
 72
8
 73
4
 74
0
 40
0
 40
0
 40
0
 40
0
 40
1
 40
1
 40
1
 40
1
 10
397.603522
 20
349.285688
 30
0.0
 10
423.919447
 20
336.414000
 30
0.0
 10
427.308848
 20
293.364495
 30
0.0
 10
405.589672
 20
247.853400
 30
0.0
  0
SPLINE
  5
120
100
AcDbEntity
  8
Image
 62
7
100
AcDbSpline
 70
8
 71
3
 72
8
 73
4
 74
0
 40
0
 40
0
 40
0
 40
0
 40
1
 40
1
 40
1
 40
1
 10
405.589672
 20
247.853400
 30
0.0
 10
400.838122
 20
237.896850
 30
0.0
 10
401.359372
 20
236.066288
 30
0.0
 10
411.663847
 20
226.523100
 30
0.0
  0
SPLINE
  5
121
100
AcDbEntity
  8
Image
 62
7
100
AcDbSpline
 70
8
 71
3
 72
8
 73
4
 74
0
 40
0
 40
0
 40
0
 40
0
 40
1
 40
1
 40
1
 40
1
 10
411.663847
 20
226.523100
 30
0.0
 10
433.932772
 20
205.899360
 30
0.0
 10
463.095322
 20
204.059108
 30
0.0
 10
482.401597
 20
222.059303
 30
0.0
  0
SPLINE
  5
122
100
AcDbEntity
  8
Image
 62
7
100
AcDbSpline
 70
8
 71
3
 72
8
 73
4
 74
0
 40
0
 40
0
 40
0
 40
0
 40
1
 40
1
 40
1
 40
1
 10
482.401597
 20
222.059303
 30
0.0
 10
497.168047
 20
235.826768
 30
0.0
 10
495.843322
 20
249.978818
 30
0.0
 10
477.496072
 20
274.464405
 30
0.0
  0
SPLINE
  5
123
100
AcDbEntity
  8
Image
 62
7
100
AcDbSpline
 70
8
 71
3
 72
8
 73
4
 74
0
 40
0
 40
0
 40
0
 40
0
 40
1
 40
1
 40
1
 40
1
 10
477.496072
 20
274.464405
 30
0.0
 10
462.526522
 20
294.442358
 30
0.0
 10
460.468597
 20
299.232083
 30
0.0
 10
461.135497
 20
312.543893
 30
0.0
  0
SPLINE
  5
124
100
AcDbEntity
  8
Image
 62
7
100
AcDbSpline
 70
8
 71
3
 72
8
 73
4
 74
0
 40
0
 40
0
 40
0
 40
0
 40
1
 40
1
 40
1
 40
1
 10
461.135497
 20
312.543893
 30
0.0
 10
464.068897
 20
371.103023
 30
0.0
 10
536.351947
 20
377.802038
 30
0.0
 10
562.175047
 20
321.907988
 30
0.0
  0
SPLINE
  5
125
100
AcDbEntity
  8
Image
 62
7
100
AcDbSpline
 70
8
 71
3
 72
8
 73
4
 74
0
 40
0
 40
0
 40
0
 40
0
 40
1
 40
1
 40
1
 40
1
 10
562.175047
 20
321.907988
 30
0.0
 10
588.906622
 20
264.047670
 30
0.0
 10
562.649572
 20
188.885790
 30
0.0
 10
507.935647
 20
166.645320
 30
0.0
  0
SPLINE
  5
126
100
AcDbEntity
  8
Image
 62
7
100
AcDbSpline
 70
8
 71
3
 72
8
 73
4
 74
0
 40
0
 40
0
 40
0
 40
0
 40
1
 40
1
 40
1
 40
1
 10
507.935647
 20
166.645320
 30
0.0
 10
459.218497
 20
146.842455
 30
0.0
 10
406.379722
 20
157.986428
 30
0.0
 10
377.498047
 20
194.155313
 30
0.0
  0
SPLINE
  5
127
100
AcDbEntity
  8
Image
 62
7
100
AcDbSpline
 70
8
 71
3
 72
8
 73
4
 74
0
 40
0
 40
0
 40
0
 40
0
 40
1
 40
1
 40
1
 40
1
 10
377.498047
 20
194.155313
 30
0.0
 10
374.553322
 20
197.842950
 30
0.0
 10
371.925097
 20
200.592083
 30
0.0
 10
371.657497
 20
200.264498
 30
0.0
  0
SPLINE
  5
128
100
AcDbEntity
  8
Image
 62
7
100
AcDbSpline
 70
8
 71
3
 72
8
 73
4
 74
0
 40
0
 40
0
 40
0
 40
0
 40
1
 40
1
 40
1
 40
1
 10
371.657497
 20
200.264498
 30
0.0
 10
349.813147
 20
173.525685
 30
0.0
 10
333.357997
 20
163.447628
 30
0.0
 10
305.065372
 20
159.479903
 30
0.0
  0
SPLINE
  5
129
100
AcDbEntity
  8
Image
 62
7
100
AcDbSpline
 70
8
 71
3
 72
8
 73
4
 74
0
 40
0
 40
0
 40
0
 40
0
 40
1
 40
1
 40
1
 40
1
 10
305.065372
 20
159.479903
 30
0.0
 10
301.249747
 20
158.944800
 30
0.0
 10
298.127872
 20
158.236973
 30
0.0
 10
298.127872
 20
157.906943
 30
0.0
  0
SPLINE
  5
12a
100
AcDbEntity
  8
Image
 62
7
100
AcDbSpline
 70
8
 71
3
 72
8
 73
4
 74
0
 40
0
 40
0
 40
0
 40
0
 40
1
 40
1
 40
1
 40
1
 10
298.127872
 20
157.906943
 30
0.0
 10
298.127872
 20
157.026473
 30
0.0
 10
291.823147
 20
157.495778
 30
0.0
 10
285.377872
 20
158.856008
 30
0.0
  0
LWPOLYLINE
  5
12b
100
AcDbEntity
  8
Image
 62
7
100
AcDbPolyline
 90
1
 70
1
 10
649.877872
 20
149.082735
 30
0.0
  0
SPLINE
  5
12c
100
AcDbEntity
  8
Image
 62
7
100
AcDbSpline
 70
8
 71
3
 72
8
 73
4
 74
0
 40
0
 40
0
 40
0
 40
0
 40
1
 40
1
 40
1
 40
1
 10
171.747547
 20
253.402830
 30
0.0
 10
195.908948
 20
261.334470
 30
0.0
 10
202.203098
 20
304.878885
 30
0.0
 10
183.278048
 20
333.174127
 30
0.0
  0
SPLINE
  5
12d
100
AcDbEntity
  8
Image
 62
7
100
AcDbSpline
 70
8
 71
3
 72
8
 73
4
 74
0
 40
0
 40
0
 40
0
 40
0
 40
1
 40
1
 40
1
 40
1
 10
183.278048
 20
333.174127
 30
0.0
 10
170.073847
 20
352.916047
 30
0.0
 10
151.799123
 20
353.593853
 30
0.0
 10
137.897498
 20
334.857285
 30
0.0
  0
SPLINE
  5
12e
100
AcDbEntity
  8
Image
 62
7
100
AcDbSpline
 70
8
 71
3
 72
8
 73
4
 74
0
 40
0
 40
0
 40
0
 40
0
 40
1
 40
1
 40
1
 40
1
 10
137.897498
 20
334.857285
 30
0.0
 10
110.385023
 20
297.775778
 30
0.0
 10
133.977698
 20
241.003860
 30
0.0
 10
171.747547
 20
253.402830
 30
0.0
  0
LWPOLYLINE
  5
12f
100
AcDbEntity
  8
Image
 62
7
100
AcDbPolyline
 90
1
 70
1
 10
285.377872
 20
158.856008
 30
0.0
  0
SPLINE
  5
130
100
AcDbEntity
  8
Image
 62
7
100
AcDbSpline
 70
8
 71
3
 72
8
 73
4
 74
0
 40
0
 40
0
 40
0
 40
0
 40
1
 40
1
 40
1
 40
1
 10
490.877872
 20
383.862495
 30
0.0
 10
481.216072
 20
385.735470
 30
0.0
 10
469.226797
 20
394.933402
 30
0.0
 10
464.663198
 20
403.973880
 30
0.0
  0
SPLINE
  5
131
100
AcDbEntity
  8
Image
 62
7
100
AcDbSpline
 70
8
 71
3
 72
8
 73
4
 74
0
 40
0
 40
0
 40
0
 40
0
 40
1
 40
1
 40
1
 40
1
 10
464.663198
 20
403.973880
 30
0.0
 10
444.429773
 20
444.056055
 30
0.0
 10
495.095198
 20
481.849530
 30
0.0
 10
526.968022
 20
450.449692
 30
0.0
  0
SPLINE
  5
132
100
AcDbEntity
  8
Image
 62
7
100
AcDbSpline
 70
8
 71
3
 72
8
 73
4
 74
0
 40
0
 40
0
 40
0
 40
0
 40
1
 40
1
 40
1
 40
1
 10
526.968022
 20
450.449692
 30
0.0
 10
555.054622
 20
422.779882
 30
0.0
 10
529.865122
 20
376.304662
 30
0.0
 10
490.877872
 20
383.862495
 30
0.0
  0
LWPOLYLINE
  5
133
100
AcDbEntity
  8
Image
 62
7
100
AcDbPolyline
 90
1
 70
1
 10
171.747547
 20
253.402830
 30
0.0
  0
SPLINE
  5
134
100
AcDbEntity
  8
Image
 62
7
100
AcDbSpline
 70
8
 71
3
 72
8
 73
4
 74
0
 40
0
 40
0
 40
0
 40
0
 40
1
 40
1
 40
1
 40
1
 10
161.552948
 20
432.170400
 30
0.0
 10
136.247948
 20
440.262480
 30
0.0
 10
128.623523
 20
471.066525
 30
0.0
 10
147.352148
 20
489.543893
 30
0.0
  0
SPLINE
  5
135
100
AcDbEntity
  8
Image
 62
7
100
AcDbSpline
 70
8
 71
3
 72
8
 73
4
 74
0
 40
0
 40
0
 40
0
 40
0
 40
1
 40
1
 40
1
 40
1
 10
147.352148
 20
489.543893
 30
0.0
 10
170.316097
 20
512.199652
 30
0.0
 10
209.667098
 20
492.383775
 30
0.0
 10
205.148873
 20
460.439363
 30
0.0
  0
SPLINE
  5
136
100
AcDbEntity
  8
Image
 62
7
100
AcDbSpline
 70
8
 71
3
 72
8
 73
4
 74
0
 40
0
 40
0
 40
0
 40
0
 40
1
 40
1
 40
1
 40
1
 10
205.148873
 20
460.439363
 30
0.0
 10
202.307498
 20
440.350815
 30
0.0
 10
180.398122
 20
426.144060
 30
0.0
 10
161.552948
 20
432.170400
 30
0.0
  0
LWPOLYLINE
  5
137
100
AcDbEntity
  8
Image
 62
7
100
AcDbPolyline
 90
1
 70
1
 10
490.877872
 20
383.862495
 30
0.0
  0
SPLINE
  5
138
100
AcDbEntity
  8
Image
 62
7
100
AcDbSpline
 70
8
 71
3
 72
8
 73
4
 74
0
 40
0
 40
0
 40
0
 40
0
 40
1
 40
1
 40
1
 40
1
 10
87.002873
 20
432.852165
 30
0.0
 10
61.189974
 20
439.258635
 30
0.0
 10
52.196724
 20
471.429675
 30
0.0
 10
70.959324
 20
490.243822
 30
0.0
  0
SPLINE
  5
139
100
AcDbEntity
  8
Image
 62
7
100
AcDbSpline
 70
8
 71
3
 72
8
 73
4
 74
0
 40
0
 40
0
 40
0
 40
0
 40
1
 40
1
 40
1
 40
1
 10
70.959324
 20
490.243822
 30
0.0
 10
86.800372
 20
506.128328
 30
0.0
 10
111.727523
 20
503.262848
 30
0.0
 10
124.161397
 20
484.128038
 30
0.0
  0
SPLINE
  5
13a
100
AcDbEntity
  8
Image
 62
7
100
AcDbSpline
 70
8
 71
3
 72
8
 73
4
 74
0
 40
0
 40
0
 40
0
 40
0
 40
1
 40
1
 40
1
 40
1
 10
124.161397
 20
484.128038
 30
0.0
 10
140.491298
 20
458.997360
 30
0.0
 10
116.278973
 20
425.586180
 30
0.0
 10
87.002872
 20
432.852165
 30
0.0
  0
LWPOLYLINE
  5
13b
100
AcDbEntity
  8
Image
 62
7
100
AcDbPolyline
 90
1
 70
1
 10
161.552948
 20
432.170400
 30
0.0
  0
LWPOLYLINE
  5
13c
100
AcDbEntity
  8
Image
 62
7
100
AcDbPolyline
 90
1
 70
1
 10
87.002872
 20
432.852165
 30
0.0
  0
ENDSEC
  0
SECTION
  2
OBJECTS
  0
DICTIONARY
  5
C
330
0
100
AcDbDictionary
  3
ACAD_GROUP
350
D
  3
ACAD_MLINESTYLE
350
17
  0
DICTIONARY
  5
D
330
C
100
AcDbDictionary
  0
DICTIONARY
  5
1A
330
C
100
AcDbDictionary
  0
DICTIONARY
  5
17
330
C
100
AcDbDictionary
  3
STANDARD
350
18
  0
DICTIONARY
  5
19
330
C
100
AcDbDictionary
  0
ENDSEC
  0
EOF
