0
SECTION
2
HEADER
9
$INSUNITS
70
4
9
$ACADVER
1
AC1014
9
$HANDSEED
5
FFFF
0
ENDSEC
0
SECTION
2
TABLES
0
TABLE
2
VPORT
5
8
100
AcDbSymbolTable
0
ENDTAB
0
TABLE
2
LTYPE
5
5
100
AcDbSymbolTable
0
LTYPE
5
14
100
AcDbSymbolTableRecord
100
AcDbLinetypeTableRecord
2
BYBLOCK
70
0
0
LTYPE
5
15
100
AcDbSymbolTableRecord
100
AcDbLinetypeTableRecord
2
BYLAYER
70
0
0
ENDTAB
0
TABLE
2
LAYER
5
2
100
AcDbSymbolTable
70
2
0
LAYER
5
50
100
AcDbSymbolTableRecord
100
AcDbLayerTableRecord
2
0
70
0
6
CONTINUOUS
0
ENDTAB
0
TABLE
2
STYLE
5
3
100
AcDbSymbolTable
70
1
0
STYLE
5
11
100
AcDbSymbolTableRecord
100
AcDbTextStyleTableRecord
2
STANDARD
70
0
0
ENDTAB
0
TABLE
2
VIEW
5
6
100
AcDbSymbolTable
70
0
0
ENDTAB
0
TABLE
2
UCS
5
7
100
AcDbSymbolTable
70
0
0
ENDTAB
0
TABLE
2
APPID
5
9
100
AcDbSymbolTable
70
2
0
APPID
5
12
100
AcDbSymbolTableRecord
100
AcDbRegAppTableRecord
2
ACAD
70
0
0
ENDTAB
0
TABLE
2
DIMSTYLE
5
A
100
AcDbSymbolTable
70
1
0
ENDTAB
0
TABLE
2
BLOCK_RECORD
5
1
100
AcDbSymbolTable
70
1
0
BLOCK_RECORD
5
1F
100
AcDbSymbolTableRecord
100
AcDbBlockTableRecord
2
*MODEL_SPACE
0
BLOCK_RECORD
5
1B
100
AcDbSymbolTableRecord
100
AcDbBlockTableRecord
2
*PAPER_SPACE
0
ENDTAB
0
ENDSEC
0
SECTION
2
BLOCKS
0
BLOCK
5
20
100
AcDbEntity
100
AcDbBlockBegin
2
*MODEL_SPACE
0
ENDBLK
5
21
100
AcDbEntity
100
AcDbBlockEnd
0
BLOCK
5
1C
100
AcDbEntity
100
AcDbBlockBegin
2
*PAPER_SPACE
0
ENDBLK
5
1D
100
AcDbEntity
100
AcDbBlockEnd
0
ENDSEC
0
SECTION
2
ENTITIES
0
LINE
5
100
100
AcDbEntity
8
0
100
AcDbLine
10
-500
20
600
30
0
11
-751
21
600
31
0
0
LINE
5
101
100
AcDbEntity
8
0
100
AcDbLine
10
-751
20
600
30
0
11
-879.80499999999995
21
600
31
0
0
LINE
5
102
100
AcDbEntity
8
0
100
AcDbLine
10
-879.80499999999995
20
600
30
0
11
-1039.8049999999998
21
600
31
0
0
LINE
5
103
100
AcDbEntity
8
0
100
AcDbLine
10
-500
20
1000
30
0
11
-1039.8049999999998
21
1000
31
0
0
LWPOLYLINE
5
104
100
AcDbEntity
8
0
100
AcDbPolyline
90
4
70
1
43
0.0
10
-495
20
861.59999999999991
10
-565
20
861.59999999999991
10
-565
20
850
10
-495
20
850
0
LWPOLYLINE
5
105
100
AcDbEntity
8
0
100
AcDbPolyline
90
4
70
1
43
0.0
10
-635
20
850
10
-705
20
850
10
-705
20
861.59999999999991
10
-635
20
861.59999999999991
0
LWPOLYLINE
5
106
100
AcDbEntity
8
0
100
AcDbPolyline
90
4
70
1
43
0.0
10
-934.80499999999995
20
850
10
-1004.8049999999999
20
850
10
-1004.8049999999999
20
861.59999999999991
10
-934.80499999999995
20
861.59999999999991
0
LINE
5
107
100
AcDbEntity
8
0
100
AcDbLine
10
-430
20
930
30
0
11
-430
21
670
31
0
0
LINE
5
108
100
AcDbEntity
8
0
100
AcDbLine
10
-500
20
600
30
0
11
-500
21
600
31
0
0
LINE
5
109
100
AcDbEntity
8
0
100
AcDbLine
10
-500
20
999.99999999999989
30
0
11
-500
21
1000
31
0
0
ARC
5
110
100
AcDbEntity
8
0
100
AcDbCircle
10
-500.00000000000011
20
670.00000000000011
30
0
40
70.000000000000142
210
-0
220
0
230
1
100
AcDbArc
50
270.00000000000011
51
360
0
ARC
5
111
100
AcDbEntity
8
0
100
AcDbCircle
10
-500.00000000000006
20
929.99999999999989
30
0
40
70.000000000000071
210
0
220
-0
230
1
100
AcDbArc
50
0
51
89.999999999999972
0
LINE
5
112
100
AcDbEntity
8
0
100
AcDbLine
10
-749.79999999999995
20
600
30
0
11
-749.79999999999995
21
1000
31
0
0
LINE
5
113
100
AcDbEntity
8
0
100
AcDbLine
10
-761.79999999999995
20
600
30
0
11
-761.79999999999995
21
1000
31
0
0
LINE
5
114
100
AcDbEntity
8
0
100
AcDbLine
10
-773.79999999999995
20
600
30
0
11
-773.79999999999995
21
1000
31
0
0
LINE
5
115
100
AcDbEntity
8
0
100
AcDbLine
10
-785.79999999999984
20
600
30
0
11
-785.79999999999984
21
1000
31
0
0
LINE
5
116
100
AcDbEntity
8
0
100
AcDbLine
10
-797.79999999999984
20
600
30
0
11
-797.79999999999984
21
1000
31
0
0
LINE
5
117
100
AcDbEntity
8
0
100
AcDbLine
10
-809.79999999999995
20
600
30
0
11
-809.79999999999995
21
1000
31
0
0
LINE
5
118
100
AcDbEntity
8
0
100
AcDbLine
10
-821.79999999999995
20
600
30
0
11
-821.79999999999995
21
1000
31
0
0
LINE
5
119
100
AcDbEntity
8
0
100
AcDbLine
10
-833.79999999999995
20
600
30
0
11
-833.79999999999995
21
1000
31
0
0
LINE
5
120
100
AcDbEntity
8
0
100
AcDbLine
10
-845.79999999999984
20
600
30
0
11
-845.79999999999984
21
1000
31
0
0
LINE
5
121
100
AcDbEntity
8
0
100
AcDbLine
10
-857.79999999999984
20
600
30
0
11
-857.79999999999984
21
1000
31
0
0
LINE
5
122
100
AcDbEntity
8
0
100
AcDbLine
10
-869.79999999999995
20
600
30
0
11
-869.79999999999995
21
1000
31
0
0
LINE
5
123
100
AcDbEntity
8
0
100
AcDbLine
10
-881.79999999999995
20
600
30
0
11
-881.79999999999995
21
1000
31
0
0
LINE
5
124
100
AcDbEntity
8
0
100
AcDbLine
10
-737.79999999999984
20
600
30
0
11
-737.79999999999984
21
1000
31
0
0
LINE
5
125
100
AcDbEntity
8
0
100
AcDbLine
10
-893.79999999999995
20
600
30
0
11
-893.79999999999995
21
1000
31
0
0
LINE
5
126
100
AcDbEntity
8
0
100
AcDbLine
10
-1329.8099999999999
20
600
30
0
11
-1329.8099999999999
21
1000
31
0
0
LWPOLYLINE
5
127
100
AcDbEntity
8
0
100
AcDbPolyline
90
4
70
1
43
0.0
10
-1144.8049999999998
20
861.59999999999991
10
-1144.8049999999998
20
850
10
-1074.8049999999998
20
850
10
-1074.8049999999998
20
861.59999999999991
0
LINE
5
128
100
AcDbEntity
8
0
100
AcDbLine
10
-1281.8099999999999
20
600
30
0
11
-1281.8099999999999
21
1000
31
0
0
LINE
5
129
100
AcDbEntity
8
0
100
AcDbLine
10
-1579.6099999999999
20
999.99999999999989
30
0
11
-1579.6099999999999
21
1000
31
0
0
ARC
5
130
100
AcDbEntity
8
0
100
AcDbCircle
10
-1579.6099999999997
20
670.00000000000011
30
0
40
70.000000000000284
210
0
220
0
230
1
100
AcDbArc
50
180
51
269.99999999999983
0
LINE
5
131
100
AcDbEntity
8
0
100
AcDbLine
10
-1293.8099999999999
20
600
30
0
11
-1293.8099999999999
21
1000
31
0
0
ARC
5
132
100
AcDbEntity
8
0
100
AcDbCircle
10
-1579.6099999999999
20
929.99999999999989
30
0
40
70
210
0
220
-0
230
1
100
AcDbArc
50
90
51
180
0
LINE
5
133
100
AcDbEntity
8
0
100
AcDbLine
10
-1257.8099999999999
20
600
30
0
11
-1257.8099999999999
21
1000
31
0
0
LINE
5
134
100
AcDbEntity
8
0
100
AcDbLine
10
-1221.8099999999999
20
600
30
0
11
-1221.8099999999999
21
1000
31
0
0
LINE
5
135
100
AcDbEntity
8
0
100
AcDbLine
10
-1269.8099999999999
20
600
30
0
11
-1269.8099999999999
21
1000
31
0
0
LINE
5
136
100
AcDbEntity
8
0
100
AcDbLine
10
-1199.8049999999998
20
600
30
0
11
-1039.8049999999998
21
600
31
0
0
LINE
5
137
100
AcDbEntity
8
0
100
AcDbLine
10
-1317.8099999999999
20
600
30
0
11
-1317.8099999999999
21
1000
31
0
0
LWPOLYLINE
5
138
100
AcDbEntity
8
0
100
AcDbPolyline
90
4
70
1
43
0.0
10
-1444.6099999999999
20
861.59999999999991
10
-1374.6099999999999
20
861.59999999999991
10
-1374.6099999999999
20
850
10
-1444.6099999999999
20
850
0
LINE
5
139
100
AcDbEntity
8
0
100
AcDbLine
10
-1341.8099999999999
20
600
30
0
11
-1341.8099999999999
21
1000
31
0
0
LINE
5
140
100
AcDbEntity
8
0
100
AcDbLine
10
-1233.8099999999999
20
600
30
0
11
-1233.8099999999999
21
1000
31
0
0
LINE
5
141
100
AcDbEntity
8
0
100
AcDbLine
10
-1579.6099999999999
20
1000
30
0
11
-1039.8049999999998
21
1000
31
0
0
LWPOLYLINE
5
142
100
AcDbEntity
8
0
100
AcDbPolyline
90
4
70
1
43
0.0
10
-1584.6099999999999
20
861.59999999999991
10
-1514.6099999999999
20
861.59999999999991
10
-1514.6099999999999
20
850
10
-1584.6099999999999
20
850
0
LINE
5
143
100
AcDbEntity
8
0
100
AcDbLine
10
-1197.8099999999999
20
600
30
0
11
-1197.8099999999999
21
1000
31
0
0
LINE
5
144
100
AcDbEntity
8
0
100
AcDbLine
10
-1649.6099999999999
20
930
30
0
11
-1649.6099999999999
21
670
31
0
0
LINE
5
145
100
AcDbEntity
8
0
100
AcDbLine
10
-1579.6099999999999
20
600
30
0
11
-1579.6099999999999
21
600
31
0
0
LINE
5
146
100
AcDbEntity
8
0
100
AcDbLine
10
-1305.8099999999999
20
600
30
0
11
-1305.8099999999999
21
1000
31
0
0
LINE
5
147
100
AcDbEntity
8
0
100
AcDbLine
10
-1328.6099999999999
20
600
30
0
11
-1199.8049999999998
21
600
31
0
0
LINE
5
148
100
AcDbEntity
8
0
100
AcDbLine
10
-1245.8099999999999
20
600
30
0
11
-1245.8099999999999
21
1000
31
0
0
LINE
5
149
100
AcDbEntity
8
0
100
AcDbLine
10
-1209.8099999999999
20
600
30
0
11
-1209.8099999999999
21
1000
31
0
0
LINE
5
150
100
AcDbEntity
8
0
100
AcDbLine
10
-1185.8099999999999
20
600
30
0
11
-1185.8099999999999
21
1000
31
0
0
LINE
5
151
100
AcDbEntity
8
0
100
AcDbLine
10
-1579.6099999999999
20
600
30
0
11
-1328.6099999999999
21
600
31
0
0
ENDSEC
0
SECTION
2
OBJECTS
0
DICTIONARY
5
C
100
AcDbDictionary
3
ACAD_GROUP
350
D
3
ACAD_MLINESTYLE
350
17
0
DICTIONARY
5
D
100
AcDbDictionary
0
DICTIONARY
5
1A
330
C
100
AcDbDictionary
0
DICTIONARY
5
17
100
AcDbDictionary
0
ENDSEC
0
EOF
