0
SECTION
2
HEADER
9
$INSUNITS
70
4
9
$ACADVER
1
AC1014
9
$HANDSEED
5
FFFF
0
ENDSEC
0
SECTION
2
TABLES
0
TABLE
2
VPORT
5
8
100
AcDbSymbolTable
0
ENDTAB
0
TABLE
2
LTYPE
5
5
100
AcDbSymbolTable
0
LTYPE
5
14
100
AcDbSymbolTableRecord
100
AcDbLinetypeTableRecord
2
BYBLOCK
70
0
0
LTYPE
5
15
100
AcDbSymbolTableRecord
100
AcDbLinetypeTableRecord
2
BYLAYER
70
0
0
ENDTAB
0
TABLE
2
LAYER
5
2
100
AcDbSymbolTable
70
2
0
LAYER
5
50
100
AcDbSymbolTableRecord
100
AcDbLayerTableRecord
2
0
70
0
6
CONTINUOUS
0
ENDTAB
0
TABLE
2
STYLE
5
3
100
AcDbSymbolTable
70
1
0
STYLE
5
11
100
AcDbSymbolTableRecord
100
AcDbTextStyleTableRecord
2
STANDARD
70
0
0
ENDTAB
0
TABLE
2
VIEW
5
6
100
AcDbSymbolTable
70
0
0
ENDTAB
0
TABLE
2
UCS
5
7
100
AcDbSymbolTable
70
0
0
ENDTAB
0
TABLE
2
APPID
5
9
100
AcDbSymbolTable
70
2
0
APPID
5
12
100
AcDbSymbolTableRecord
100
AcDbRegAppTableRecord
2
ACAD
70
0
0
ENDTAB
0
TABLE
2
DIMSTYLE
5
A
100
AcDbSymbolTable
70
1
0
ENDTAB
0
TABLE
2
BLOCK_RECORD
5
1
100
AcDbSymbolTable
70
1
0
BLOCK_RECORD
5
1F
100
AcDbSymbolTableRecord
100
AcDbBlockTableRecord
2
*MODEL_SPACE
0
BLOCK_RECORD
5
1B
100
AcDbSymbolTableRecord
100
AcDbBlockTableRecord
2
*PAPER_SPACE
0
ENDTAB
0
ENDSEC
0
SECTION
2
BLOCKS
0
BLOCK
5
20
100
AcDbEntity
100
AcDbBlockBegin
2
*MODEL_SPACE
0
ENDBLK
5
21
100
AcDbEntity
100
AcDbBlockEnd
0
BLOCK
5
1C
100
AcDbEntity
100
AcDbBlockBegin
2
*PAPER_SPACE
0
ENDBLK
5
1D
100
AcDbEntity
100
AcDbBlockEnd
0
ENDSEC
0
SECTION
2
ENTITIES
0
ARC
5
100
100
AcDbEntity
8
0
100
AcDbCircle
10
-98.699472029813364
20
626.84973601490788
30
0
40
70.000000000000071
210
0
220
0
230
1
100
AcDbArc
50
90
51
180
0
ARC
5
101
100
AcDbEntity
8
0
100
AcDbCircle
10
221.30052797018664
20
626.84973601490788
30
0
40
70
210
0
220
-0
230
1
100
AcDbArc
50
0
51
90
0
LINE
5
102
100
AcDbEntity
8
0
100
AcDbLine
10
26.300527970186636
20
708.84973601490788
30
0
11
-43.699472029813364
21
708.84973601490788
31
0
0
LINE
5
103
100
AcDbEntity
8
0
100
AcDbLine
10
96.300527970186636
20
708.84973601490788
30
0
11
166.30052797018664
21
708.84973601490788
31
0
0
LINE
5
104
100
AcDbEntity
8
0
100
AcDbLine
10
96.300527970186636
20
696.84973601490788
30
0
11
96.300527970186636
21
708.84973601490788
31
0
0
LINE
5
105
100
AcDbEntity
8
0
100
AcDbLine
10
26.300527970186636
20
696.84973601490788
30
0
11
26.300527970186636
21
708.84973601490788
31
0
0
LINE
5
106
100
AcDbEntity
8
0
100
AcDbLine
10
166.30052797018664
20
696.84973601490788
30
0
11
166.30052797018664
21
708.84973601490788
31
0
0
LINE
5
107
100
AcDbEntity
8
0
100
AcDbLine
10
-43.699472029813364
20
696.84973601490788
30
0
11
-43.699472029813364
21
708.84973601490788
31
0
0
LINE
5
108
100
AcDbEntity
8
0
100
AcDbLine
10
291.30052797018664
20
375.84973601490788
30
0
11
303.30052797018664
21
375.84973601490788
31
0
0
LINE
5
109
100
AcDbEntity
8
0
100
AcDbLine
10
291.30052797018664
20
375.84973601490788
30
0
11
-168.69947202981336
21
375.84973601490788
31
0
0
LINE
5
110
100
AcDbEntity
8
0
100
AcDbLine
10
-180.69947202981336
20
375.84973601490788
30
0
11
-168.69947202981336
21
375.84973601490788
31
0
0
LINE
5
111
100
AcDbEntity
8
0
100
AcDbLine
10
-180.69947202981336
20
445.84973601490788
30
0
11
-168.69947202981336
21
445.84973601490788
31
0
0
LINE
5
112
100
AcDbEntity
8
0
100
AcDbLine
10
291.30052797018664
20
445.84973601490788
30
0
11
303.30052797018664
21
445.84973601490788
31
0
0
LINE
5
113
100
AcDbEntity
8
0
100
AcDbLine
10
-180.69947202981336
20
515.84973601490788
30
0
11
-168.69947202981336
21
515.84973601490788
31
0
0
LINE
5
114
100
AcDbEntity
8
0
100
AcDbLine
10
291.30052797018669
20
515.84973601490788
30
0
11
303.30052797018664
21
515.84973601490788
31
0
0
LINE
5
115
100
AcDbEntity
8
0
100
AcDbLine
10
-180.69947202981336
20
585.84973601490788
30
0
11
-168.69947202981336
21
585.84973601490788
31
0
0
LINE
5
116
100
AcDbEntity
8
0
100
AcDbLine
10
291.30052797018669
20
585.84973601490788
30
0
11
303.30052797018664
21
585.84973601490788
31
0
0
LINE
5
117
100
AcDbEntity
8
0
100
AcDbLine
10
303.30052797018664
20
585.84973601490788
30
0
11
303.30052797018664
21
515.84973601490788
31
0
0
LINE
5
118
100
AcDbEntity
8
0
100
AcDbLine
10
303.30052797018664
20
445.84973601490788
30
0
11
303.30052797018664
21
375.84973601490788
31
0
0
LINE
5
119
100
AcDbEntity
8
0
100
AcDbLine
10
-180.69947202981336
20
585.84973601490788
30
0
11
-180.69947202981336
21
515.84973601490788
31
0
0
LINE
5
120
100
AcDbEntity
8
0
100
AcDbLine
10
-180.69947202981336
20
445.84973601490788
30
0
11
-180.69947202981336
21
375.84973601490788
31
0
0
LINE
5
121
100
AcDbEntity
8
0
100
AcDbLine
10
-168.69947202981336
20
626.84973601490788
30
0
11
-168.69947202981336
21
585.84973601490788
31
0
0
LINE
5
122
100
AcDbEntity
8
0
100
AcDbLine
10
-168.69947202981336
20
515.84973601490788
30
0
11
-168.69947202981336
21
445.84973601490788
31
0
0
LINE
5
123
100
AcDbEntity
8
0
100
AcDbLine
10
61.300527970186636
20
696.84973601490788
30
0
11
26.300527970186636
21
696.84973601490788
31
0
0
LINE
5
124
100
AcDbEntity
8
0
100
AcDbLine
10
-43.699472029813364
20
696.84973601490788
30
0
11
-98.699472029813364
21
696.84973601490788
31
0
0
LINE
5
125
100
AcDbEntity
8
0
100
AcDbLine
10
61.300527970186636
20
696.84973601490788
30
0
11
96.300527970186636
21
696.84973601490788
31
0
0
LINE
5
126
100
AcDbEntity
8
0
100
AcDbLine
10
166.30052797018664
20
696.84973601490788
30
0
11
221.30052797018664
21
696.84973601490788
31
0
0
LINE
5
127
100
AcDbEntity
8
0
100
AcDbLine
10
291.30052797018664
20
626.84973601490788
30
0
11
291.30052797018669
21
585.84973601490788
31
0
0
LINE
5
128
100
AcDbEntity
8
0
100
AcDbLine
10
291.30052797018669
20
515.84973601490788
30
0
11
291.30052797018664
21
445.84973601490788
31
0
0
ENDSEC
0
SECTION
2
OBJECTS
0
DICTIONARY
5
C
100
AcDbDictionary
3
ACAD_GROUP
350
D
3
ACAD_MLINESTYLE
350
17
0
DICTIONARY
5
D
100
AcDbDictionary
0
DICTIONARY
5
1A
330
C
100
AcDbDictionary
0
DICTIONARY
5
17
100
AcDbDictionary
0
ENDSEC
0
EOF
