0
SECTION
2
HEADER
9
$INSUNITS
70
4
9
$ACADVER
1
AC1014
9
$HANDSEED
5
FFFF
0
ENDSEC
0
SECTION
2
TABLES
0
TABLE
2
VPORT
5
8
100
AcDbSymbolTable
0
ENDTAB
0
TABLE
2
LTYPE
5
5
100
AcDbSymbolTable
0
LTYPE
5
14
100
AcDbSymbolTableRecord
100
AcDbLinetypeTableRecord
2
BYBLOCK
70
0
0
LTYPE
5
15
100
AcDbSymbolTableRecord
100
AcDbLinetypeTableRecord
2
BYLAYER
70
0
0
ENDTAB
0
TABLE
2
LAYER
5
2
100
AcDbSymbolTable
70
2
0
LAYER
5
50
100
AcDbSymbolTableRecord
100
AcDbLayerTableRecord
2
0
70
0
6
CONTINUOUS
0
ENDTAB
0
TABLE
2
STYLE
5
3
100
AcDbSymbolTable
70
1
0
STYLE
5
11
100
AcDbSymbolTableRecord
100
AcDbTextStyleTableRecord
2
STANDARD
70
0
0
ENDTAB
0
TABLE
2
VIEW
5
6
100
AcDbSymbolTable
70
0
0
ENDTAB
0
TABLE
2
UCS
5
7
100
AcDbSymbolTable
70
0
0
ENDTAB
0
TABLE
2
APPID
5
9
100
AcDbSymbolTable
70
2
0
APPID
5
12
100
AcDbSymbolTableRecord
100
AcDbRegAppTableRecord
2
ACAD
70
0
0
ENDTAB
0
TABLE
2
DIMSTYLE
5
A
100
AcDbSymbolTable
70
1
0
ENDTAB
0
TABLE
2
BLOCK_RECORD
5
1
100
AcDbSymbolTable
70
1
0
BLOCK_RECORD
5
1F
100
AcDbSymbolTableRecord
100
AcDbBlockTableRecord
2
*MODEL_SPACE
0
BLOCK_RECORD
5
1B
100
AcDbSymbolTableRecord
100
AcDbBlockTableRecord
2
*PAPER_SPACE
0
ENDTAB
0
ENDSEC
0
SECTION
2
BLOCKS
0
BLOCK
5
20
100
AcDbEntity
100
AcDbBlockBegin
2
*MODEL_SPACE
0
ENDBLK
5
21
100
AcDbEntity
100
AcDbBlockEnd
0
BLOCK
5
1C
100
AcDbEntity
100
AcDbBlockBegin
2
*PAPER_SPACE
0
ENDBLK
5
1D
100
AcDbEntity
100
AcDbBlockEnd
0
ENDSEC
0
SECTION
2
ENTITIES
0
CIRCLE
5
100
100
AcDbEntity
8
0
100
AcDbCircle
10
-430
20
390
30
0
40
1.25
210
0
220
0
230
1
0
CIRCLE
5
101
100
AcDbEntity
8
0
100
AcDbCircle
10
-534.99999999999989
20
585.00000000000057
30
0
40
1.25
210
0
220
0
230
1
0
CIRCLE
5
102
100
AcDbEntity
8
0
100
AcDbCircle
10
-425
20
540.00000000000011
30
0
40
1.25
210
0
220
0
230
1
0
CIRCLE
5
103
100
AcDbEntity
8
0
100
AcDbCircle
10
-440
20
420
30
0
40
1.25
210
0
220
0
230
1
0
CIRCLE
5
104
100
AcDbEntity
8
0
100
AcDbCircle
10
-519.57329382171133
20
414.63804248645738
30
0
40
1.25
210
0
220
0
230
1
0
CIRCLE
5
105
100
AcDbEntity
8
0
100
AcDbCircle
10
-490
20
410
30
0
40
1.25
210
0
220
0
230
1
0
CIRCLE
5
106
100
AcDbEntity
8
0
100
AcDbCircle
10
-455
20
600
30
0
40
1.25
210
0
220
0
230
1
0
CIRCLE
5
107
100
AcDbEntity
8
0
100
AcDbCircle
10
-465.38629330268907
20
481.8319817464353
30
0
40
35
210
0
220
0
230
1
0
CIRCLE
5
108
100
AcDbEntity
8
0
100
AcDbCircle
10
-437.81674112782071
20
516.81564355413832
30
0
40
1.25
210
0
220
0
230
1
0
CIRCLE
5
109
100
AcDbEntity
8
0
100
AcDbCircle
10
-453.62842920566709
20
537.23885680536841
30
0
40
1.25
210
0
220
0
230
1
0
CIRCLE
5
110
100
AcDbEntity
8
0
100
AcDbCircle
10
-464.99999999999989
20
570.00000000000023
30
0
40
1.25
210
0
220
0
230
1
0
CIRCLE
5
111
100
AcDbEntity
8
0
100
AcDbCircle
10
-530
20
450
30
0
40
1.25
210
0
220
0
230
1
0
CIRCLE
5
112
100
AcDbEntity
8
0
100
AcDbCircle
10
-528.74407417009093
20
518.29821862525409
30
0
40
1.25
210
0
220
0
230
1
0
CIRCLE
5
113
100
AcDbEntity
8
0
100
AcDbCircle
10
-484.99999999999989
20
520.00000000000023
30
0
40
1.25
210
0
220
0
230
1
0
CIRCLE
5
114
100
AcDbEntity
8
0
100
AcDbCircle
10
-499.1222494829583
20
602.00389405691692
30
0
40
1.25
210
0
220
0
230
1
0
CIRCLE
5
115
100
AcDbEntity
8
0
100
AcDbCircle
10
-514.99999999999989
20
500.00000000000028
30
0
40
1.25
210
0
220
0
230
1
0
CIRCLE
5
116
100
AcDbEntity
8
0
100
AcDbCircle
10
-478.74407417009093
20
588.29821862525409
30
0
40
1.25
210
0
220
0
230
1
0
CIRCLE
5
117
100
AcDbEntity
8
0
100
AcDbCircle
10
-460
20
390
30
0
40
1.25
210
0
220
0
230
1
0
CIRCLE
5
118
100
AcDbEntity
8
0
100
AcDbCircle
10
-499.89064609163427
20
567.87411944236123
30
0
40
1.25
210
0
220
0
230
1
0
CIRCLE
5
119
100
AcDbEntity
8
0
100
AcDbCircle
10
-440.5588644090858
20
557.94066861510817
30
0
40
1.25
210
0
220
0
230
1
0
CIRCLE
5
120
100
AcDbEntity
8
0
100
AcDbCircle
10
-530
20
400
30
0
40
1.25
210
0
220
0
230
1
0
CIRCLE
5
121
100
AcDbEntity
8
0
100
AcDbCircle
10
-485.15599791098271
20
382.77096049479769
30
0
40
1.25
210
0
220
0
230
1
0
CIRCLE
5
122
100
AcDbEntity
8
0
100
AcDbCircle
10
-530
20
560.00000000000011
30
0
40
1.25
210
0
220
0
230
1
0
CIRCLE
5
123
100
AcDbEntity
8
0
100
AcDbCircle
10
-525
20
480
30
0
40
1.25
210
0
220
0
230
1
0
CIRCLE
5
124
100
AcDbEntity
8
0
100
AcDbCircle
10
-505.64202599416342
20
437.34084931653558
30
0
40
1.25
210
0
220
0
230
1
0
CIRCLE
5
125
100
AcDbEntity
8
0
100
AcDbCircle
10
-514.09028975701131
20
587.21619161749118
30
0
40
1.25
210
0
220
0
230
1
0
CIRCLE
5
126
100
AcDbEntity
8
0
100
AcDbCircle
10
-469.1222494829583
20
432.00389405691692
30
0
40
1.25
210
0
220
0
230
1
0
CIRCLE
5
127
100
AcDbEntity
8
0
100
AcDbCircle
10
-433.62842920566709
20
587.23885680536841
30
0
40
1.25
210
0
220
0
230
1
0
CIRCLE
5
128
100
AcDbEntity
8
0
100
AcDbCircle
10
-526.71393818091144
20
534.55754390636503
30
0
40
1.25
210
0
220
0
230
1
0
CIRCLE
5
129
100
AcDbEntity
8
0
100
AcDbCircle
10
-473.00000704824924
20
549.00000818073738
30
0
40
1.25
210
0
220
0
230
1
0
CIRCLE
5
130
100
AcDbEntity
8
0
100
AcDbCircle
10
-517.49891157230184
20
383.49776754336682
30
0
40
1.25
210
0
220
0
230
1
0
CIRCLE
5
131
100
AcDbEntity
8
0
100
AcDbCircle
10
-500
20
545
30
0
40
1.25
210
0
220
0
230
1
0
CIRCLE
5
132
100
AcDbEntity
8
0
100
AcDbCircle
10
-503.74407417009093
20
528.29821862525409
30
0
40
1.25
210
0
220
0
230
1
0
LWPOLYLINE
5
133
100
AcDbEntity
8
0
100
AcDbPolyline
90
12
70
1
43
0.0
10
-410
20
630
10
-420
20
630
10
-420
20
615
10
-539.99999818827916
20
615
10
-539.99999999990223
20
630
10
-550
20
630
10
-550
20
350
10
-540.00000057056764
20
350
10
-540.00000038731469
20
365
10
-420
20
365
10
-420
20
350
10
-410
20
350
0
SPLINE
5
134
100
AcDbEntity
8
0
100
AcDbSpline
70
0
71
3
72
16
73
12
74
0
42
0.000000001
43
0.0000000001
44
0.0000000001
40
-0.15094531546960122
40
-0.15094531546960122
40
-0.15094531546960122
40
-0.15094531546960122
40
-0.10137117389543618
40
-0.10137117389543618
40
-0.077007747363205467
40
-0.077007747363205467
40
-0.055584602406595837
40
-0.055584602406595837
40
-0.03303267837927424
40
-0.03303267837927424
40
0
40
0
40
0
40
0
10
-285.71152709287082
20
461.03047794100576
30
0
10
-285.59350581373474
20
461.20152108792439
30
0
10
-285.44292926572621
20
461.44194691174647
30
0
10
-285.32050922142435
20
461.79295352269031
30
0
10
-285.30341742307399
20
461.88792123183214
30
0
10
-285.29867261914649
20
462.04072480094101
30
0
10
-285.30762301724292
20
462.11052918668935
30
0
10
-285.35628326281079
20
462.24909854392769
30
0
10
-285.39566369356044
20
462.3120443057627
30
0
10
-285.51929836916497
20
462.45011666365036
30
0
10
-285.61388050435164
20
462.51503744522097
30
0
10
-285.71152694489115
20
462.56592112295823
30
0
0
SPLINE
5
135
100
AcDbEntity
8
0
100
AcDbSpline
70
0
71
3
72
60
73
56
74
0
42
0.000000001
43
0.0000000001
44
0.0000000001
40
-5.4030027052898326
40
-5.4030027052898326
40
-5.4030027052898326
40
-5.4030027052898326
40
-4.7173192843915883
40
-4.7173192843915883
40
-4.6184703269678211
40
-4.6184703269678211
40
-4.5799935981813196
40
-4.5799935981813196
40
-4.5473950438438218
40
-4.5473950438438218
40
-4.45318896788178
40
-4.45318896788178
40
-4.3495777778067248
40
-4.3495777778067248
40
-4.2146090770706506
40
-4.2146090770706506
40
-4.04483455724609
40
-4.04483455724609
40
-3.85447589390676
40
-3.85447589390676
40
-3.6749456880349705
40
-3.6749456880349705
40
-3.3892052471259491
40
-3.3892052471259491
40
-3.2176811804943894
40
-3.2176811804943894
40
-2.9458758521561279
40
-2.9458758521561279
40
-2.8263747559321435
40
-2.8263747559321435
40
-2.7344203268381491
40
-2.7344203268381491
40
-2.4672978600522875
40
-2.4672978600522875
40
-2.2364393371040321
40
-2.2364393371040321
40
-2.1038278389324008
40
-2.1038278389324008
40
-2.0011485180828155
40
-2.0011485180828155
40
-1.8700021587210414
40
-1.8700021587210414
40
-1.7776215048651041
40
-1.7776215048651041
40
-1.6588826494585391
40
-1.6588826494585391
40
-1.351445106005837
40
-1.351445106005837
40
-1.2481032395458163
40
-1.2481032395458163
40
-1.0217439769518495
40
-1.0217439769518495
40
-0.65141112396107481
40
-0.65141112396107481
40
0
40
0
40
0
40
0
10
-285.71152694489115
20
462.56592112295823
30
0
10
-286.31956729459677
20
462.80534550828003
30
0
10
-286.79871555973784
20
463.10473846394996
30
0
10
-287.09973095652794
20
463.29044167330409
30
0
10
-287.30740743798674
20
463.42049879243245
30
0
10
-287.36161404488894
20
463.45116985062413
30
0
10
-287.37989596920426
20
463.45038100119007
30
0
10
-287.51027888709945
20
463.46597594572745
30
0
10
-287.60932386307263
20
463.47210596294292
30
0
10
-288.1054205778704
20
463.47004623569973
30
0
10
-288.45324435971486
20
463.41396329242468
30
0
10
-289.45190837415851
20
463.26382590455887
30
0
10
-290.22096342704867
20
463.15245911713725
30
0
10
-292.15866833867005
20
463.29457304520236
30
0
10
-293.10091931501051
20
463.64913316980966
30
0
10
-296.27417411430918
20
464.37662655337186
30
0
10
-296.98944377284135
20
464.32143482500555
30
0
10
-298.89022034857032
20
464.22751291105953
30
0
10
-299.67611811132076
20
464.21362103520886
30
0
10
-301.71434570735363
20
464.81172584550723
30
0
10
-302.30545057015303
20
465.20266797721922
30
0
10
-305.03500899408488
20
465.7931923263647
30
0
10
-306.76290082717577
20
465.54312346354834
30
0
10
-308.54950417177923
20
465.23925485385809
30
0
10
-309.07706327541536
20
465.14653983914405
30
0
10
-310.72115276905487
20
465.17915206731175
30
0
10
-311.50368257034438
20
465.45370800945284
30
0
10
-312.88924838064167
20
466.0389042457652
30
0
10
-313.29688526998831
20
466.22158902518612
30
0
10
-313.95503717799136
20
466.35609569366756
30
0
10
-314.19116201422469
20
466.34533231064188
30
0
10
-315.58374838073337
20
466.25363978975577
30
0
10
-316.53304696202883
20
466.15139976651727
30
0
10
-319.2490152638826
20
466.92848277042856
30
0
10
-319.88895688166059
20
467.42156671316701
30
0
10
-321.83706932833536
20
467.39668219666606
30
0
10
-322.75611172840541
20
467.28314141383237
30
0
10
-324.81348534527092
20
467.3298431826189
30
0
10
-325.10592855492115
20
467.41705943527364
30
0
10
-326.51802203572663
20
467.14680706104082
30
0
10
-327.58296075897022
20
466.70943654209123
30
0
10
-329.03943563410633
20
466.2953046867645
30
0
10
-329.69986955770173
20
466.17428978228327
30
0
10
-331.13494754301132
20
466.16789273255063
30
0
10
-331.87713487832178
20
466.35884769357881
30
0
10
-334.64100917052281
20
467.04485580081899
30
0
10
-336.81217576952827
20
467.36453209921046
30
0
10
-340.02395596130555
20
467.30095617403555
30
0
10
-340.83215634451733
20
467.28548019527614
30
0
10
-343.4104508797858
20
467.30308368667988
30
0
10
-345.18072986342645
20
467.31715549883631
30
0
10
-349.84687454986357
20
467.27927016509818
30
0
10
-351.7135853216646
20
467.23820085194916
30
0
10
-356.13137684786381
20
467.27476978951267
30
0
10
-358.03854557387865
20
467.46597080467529
30
0
10
-360.11571755792761
20
468.09858918886761
30
0
0
SPLINE
5
136
100
AcDbEntity
8
0
100
AcDbSpline
70
0
71
3
72
18
73
14
74
0
42
0.000000001
43
0.0000000001
44
0.0000000001
40
-1.4132020781952344
40
-1.4132020781952344
40
-1.4132020781952344
40
-1.4132020781952344
40
-0.84892786622896277
40
-0.84892786622896277
40
-0.63189925290274107
40
-0.63189925290274107
40
-0.49653819752803641
40
-0.49653819752803641
40
-0.38012674016376002
40
-0.38012674016376002
40
-0.23085015804544198
40
-0.23085015804544198
40
0
40
0
40
0
40
0
10
-360.11571755792761
20
468.09858918886761
30
0
10
-362.74195482940297
20
469.1933813198209
30
0
10
-363.57689980510838
20
470.45530535488211
30
0
10
-364.95381754449596
20
471.78592240738624
30
0
10
-365.56175478478349
20
472.30610914188992
30
0
10
-367.12187206753578
20
472.93056706907186
30
0
10
-367.77231878731141
20
473.08327855035145
30
0
10
-368.90351561087635
20
473.14013763467096
30
0
10
-369.33698312157105
20
473.07335955845502
30
0
10
-370.18587541211627
20
472.80477331328876
30
0
10
-370.60965163187376
20
472.55410447871697
30
0
10
-371.58232385805388
20
471.73608266847515
30
0
10
-372.06510823594789
20
471.07631176017742
30
0
10
-372.45243786469786
20
470.41140062365923
30
0
0
LINE
5
137
100
AcDbEntity
8
0
100
AcDbLine
10
-372.45243786469786
20
470.41140062365923
30
0
11
-372.45243786469786
21
605.29934099758725
31
0
0
LINE
5
138
100
AcDbEntity
8
0
100
AcDbLine
10
-372.45243786469786
20
605.29934099758725
30
0
11
-252.45243716937404
21
605.29934099758725
31
0
0
LINE
5
139
100
AcDbEntity
8
0
100
AcDbLine
10
-252.45243716937404
20
605.29934099758725
30
0
11
-252.45243716937404
21
375.29934099758719
31
0
0
LINE
5
140
100
AcDbEntity
8
0
100
AcDbLine
10
-252.45243716937404
20
375.29934099758719
30
0
11
-372.45243747567565
21
375.29934099758719
31
0
0
LINE
5
141
100
AcDbEntity
8
0
100
AcDbLine
10
-372.45243747567565
20
375.29934099758719
30
0
11
-372.45243747567565
21
395.97604973984426
31
0
0
SPLINE
5
142
100
AcDbEntity
8
0
100
AcDbSpline
70
0
71
3
72
20
73
16
74
0
42
0.000000001
43
0.0000000001
44
0.0000000001
40
-6.6397959216149625
40
-6.6397959216149625
40
-6.6397959216149625
40
-6.6397959216149625
40
-4.8097388844305078
40
-4.8097388844305078
40
-2.1907711473560543
40
-2.1907711473560543
40
-1.279701350852112
40
-1.279701350852112
40
-0.65823870596234224
40
-0.65823870596234224
40
-0.39686572927371566
40
-0.39686572927371566
40
-0.17289576580742871
40
-0.17289576580742871
40
0
40
0
40
0
40
0
10
-372.45243747567588
20
395.97604973984454
30
0
10
-372.45312849518882
20
398.72710736469298
30
0
10
-372.48024174858841
20
400.73334451522885
30
0
10
-372.15190255743244
20
404.99833625165104
30
0
10
-371.83672469708091
20
405.16816768217507
30
0
10
-371.28283097299777
20
408.51669729128923
30
0
10
-371.12568063689775
20
409.56099574165046
30
0
10
-370.35237193475928
20
411.38823831349384
30
0
10
-369.81201090410764
20
412.3518686156516
30
0
10
-368.00235529470399
20
414.11811466848059
30
0
10
-367.11272961798608
20
414.91226798472951
30
0
10
-365.23579913824648
20
415.9838451091681
30
0
10
-364.4915151883759
20
416.19737195853236
30
0
10
-363.21992709773326
20
416.352409850301
30
0
10
-362.56537357858554
20
416.35901319163139
30
0
10
-361.99942498689387
20
416.25017370355948
30
0
0
SPLINE
5
143
100
AcDbEntity
8
0
100
AcDbSpline
70
0
71
3
72
18
73
14
74
0
42
0.000000001
43
0.0000000001
44
0.0000000001
40
-0.31491266759704495
40
-0.31491266759704495
40
-0.31491266759704495
40
-0.31491266759704495
40
-0.20953815845763463
40
-0.20953815845763463
40
-0.16791922382000876
40
-0.16791922382000876
40
-0.13923080385753953
40
-0.13923080385753953
40
-0.11001134149028531
40
-0.11001134149028531
40
-0.06057441485724805
40
-0.06057441485724805
40
0
40
0
40
0
40
0
10
-361.99942498689387
20
416.25017370355948
30
0
10
-361.92411440471318
20
416.2351293332884
30
0
10
-361.67359310770615
20
416.19049552913714
30
0
10
-361.39972645716205
20
416.18836241285135
30
0
10
-361.32718870806434
20
416.194407243466
30
0
10
-361.21845593913173
20
416.22326602399482
30
0
10
-361.1761464754855
20
416.24079739737624
30
0
10
-361.09950253167193
20
416.29359225642293
30
0
10
-361.06858120481752
20
416.32687389986233
30
0
10
-360.99991594368731
20
416.43298323539318
30
0
10
-360.97327301257684
20
416.51573936017314
30
0
10
-360.92261660596296
20
416.71884834893262
30
0
10
-360.89848665537318
20
416.8527459097856
30
0
10
-360.85243765217166
20
417.04933950560843
30
0
0
SPLINE
5
144
100
AcDbEntity
8
0
100
AcDbSpline
70
0
71
3
72
34
73
30
74
0
42
0.000000001
43
0.0000000001
44
0.0000000001
40
-0.22968095049884568
40
-0.22968095049884568
40
-0.22968095049884568
40
-0.22968095049884568
40
-0.22079559947668254
40
-0.22079559947668254
40
-0.21327180637993332
40
-0.21327180637993332
40
-0.2045052012399787
40
-0.2045052012399787
40
-0.20089463439569175
40
-0.20089463439569175
40
-0.19006883476136593
40
-0.19006883476136593
40
-0.18506405860855493
40
-0.18506405860855493
40
-0.18033576176573865
40
-0.18033576176573865
40
-0.17055654423615188
40
-0.17055654423615188
40
-0.16447940215699189
40
-0.16447940215699189
40
-0.15155759508232911
40
-0.15155759508232911
40
-0.1245026137229739
40
-0.1245026137229739
40
-0.086281662870904094
40
-0.086281662870904094
40
-0.011533017713591673
40
-0.011533017713591673
40
0
40
0
40
0
40
0
10
-360.85243765217166
20
417.04933950560843
30
0
10
-360.73639945161926
20
417.33024196473127
30
0
10
-360.50632816308519
20
418.05094311362262
30
0
10
-359.65142593666434
20
419.49776470866254
30
0
10
-359.13711288594402
20
420.12989682243654
30
0
10
-357.30396659766984
20
421.49565101155179
30
0
10
-356.40538558514731
20
421.82712407135637
30
0
10
-355.31527648899282
20
422.62295305397765
30
0
10
-355.08481885403563
20
422.84624130858947
30
0
10
-354.34614595544468
20
423.92135455586231
30
0
10
-354.24309306387505
20
425.07928699112051
30
0
10
-353.93183192068489
20
426.59206812826312
30
0
10
-353.78691370770986
20
427.15610259982157
30
0
10
-353.11046093929571
20
428.40116283901153
30
0
10
-352.64028169084639
20
428.86884493119391
30
0
10
-351.79815084209338
20
429.58506521479524
30
0
10
-351.22432273953223
20
429.81614587054924
30
0
10
-350.68446876601291
20
430.0304549799767
30
0
10
-350.46860251259136
20
430.11479084814999
30
0
10
-350.17710586892724
20
430.27766491934472
30
0
10
-350.04185361179043
20
430.47752112894301
30
0
10
-349.60129865472305
20
431.02484888186837
30
0
10
-349.34289410132442
20
431.41219817216904
30
0
10
-348.34400275794707
20
432.56582602311903
30
0
10
-347.72092013557341
20
433.10796571437913
30
0
10
-345.42985821548888
20
434.40820178903471
30
0
10
-344.19401932673134
20
434.38598266693316
30
0
10
-343.13516382442913
20
434.59114150357556
30
0
10
-343.05109060883285
20
434.61366249728803
30
0
10
-343.01494954844287
20
434.62676662531965
30
0
0
SPLINE
5
145
100
AcDbEntity
8
0
100
AcDbSpline
70
0
71
3
72
48
73
44
74
0
42
0.000000001
43
0.0000000001
44
0.0000000001
40
-0.46201890718191596
40
-0.46201890718191596
40
-0.46201890718191596
40
-0.46201890718191596
40
-0.46164915827193026
40
-0.46164915827193026
40
-0.46104213233139174
40
-0.46104213233139174
40
-0.45839418707434837
40
-0.45839418707434837
40
-0.44977175476664533
40
-0.44977175476664533
40
-0.43843885086695589
40
-0.43843885086695589
40
-0.42601638553732918
40
-0.42601638553732918
40
-0.41270218132663955
40
-0.41270218132663955
40
-0.39690512578216591
40
-0.39690512578216591
40
-0.3855147205188903
40
-0.3855147205188903
40
-0.37272476377508723
40
-0.37272476377508723
40
-0.34308723487597181
40
-0.34308723487597181
40
-0.31026720963140125
40
-0.31026720963140125
40
-0.29436828491378753
40
-0.29436828491378753
40
-0.25957089233036046
40
-0.25957089233036046
40
-0.18867295334117065
40
-0.18867295334117065
40
-0.15269827107375089
40
-0.15269827107375089
40
-0.13896581502118752
40
-0.13896581502118752
40
-0.12696159620501773
40
-0.12696159620501773
40
-0.10723053538097509
40
-0.10723053538097509
40
-0.077641849921006742
40
-0.077641849921006742
40
0
40
0
40
0
40
0
10
-343.01494954844304
20
434.62676662531965
30
0
10
-342.99828482183045
20
434.64385017709196
30
0
10
-342.9691076324782
20
434.67682363078865
30
0
10
-342.86321331681756
20
434.82172442790659
30
0
10
-342.81043536914717
20
434.91230902291989
30
0
10
-342.63373214089495
20
435.22626938568044
30
0
10
-342.4722716569517
20
435.57819723406425
30
0
10
-341.96387679464533
20
436.73642410771924
30
0
10
-341.64933227291488
20
437.62173600954748
30
0
10
-340.52383253636941
20
439.9035324148989
30
0
10
-339.91164416468843
20
440.71687855085452
30
0
10
-338.65966689336722
20
442.01066093856269
30
0
10
-337.8173941875541
20
442.71499711441106
30
0
10
-335.08854556736014
20
443.89190183725157
30
0
10
-333.71200347457295
20
444.08888660717798
30
0
10
-330.3024784289554
20
444.77293935105939
30
0
10
-329.5416961319039
20
445.03498779720218
30
0
10
-327.110164681296
20
446.2603964106504
30
0
10
-326.24740919794795
20
446.75853948498582
30
0
10
-324.34114092758182
20
447.49873630844098
30
0
10
-323.59941727215556
20
447.5807491594843
30
0
10
-321.97042955518953
20
447.6350433813929
30
0
10
-321.05418977103909
20
447.3581077951734
30
0
10
-319.89672262408544
20
446.93788630726266
30
0
10
-319.41065456755996
20
446.69131209315418
30
0
10
-318.85420640948973
20
446.53423753088282
30
0
10
-318.67548748817285
20
446.50945234663186
30
0
10
-317.81615222564506
20
446.61517339514768
30
0
10
-317.04656377532433
20
446.9338693391843
30
0
10
-315.1652422252364
20
447.73246459808541
30
0
10
-314.13487964920978
20
448.20349318593594
30
0
10
-312.1222672600768
20
448.551729932559
30
0
10
-311.54261225269619
20
448.57686944096912
30
0
10
-311.055066089646
20
448.61589891759388
30
0
10
-310.97622228711816
20
448.6252998099871
30
0
10
-310.79229512505384
20
448.69575722696288
30
0
10
-310.62008655304004
20
448.77761975863001
30
0
10
-309.88522588470295
20
449.1856447227272
30
0
10
-309.46829083031668
20
449.45430571278229
30
0
10
-308.07547420950198
20
450.14453010670377
30
0
10
-307.4240931778254
20
450.32791713542395
30
0
10
-305.70106932465427
20
450.65214560727793
30
0
10
-304.58515873015278
20
450.44125782821254
30
0
10
-304.33125134206222
20
450.3911412636711
30
0
0
SPLINE
5
146
100
AcDbEntity
8
0
100
AcDbSpline
70
0
71
3
72
20
73
16
74
0
42
0.000000001
43
0.0000000001
44
0.0000000001
40
-1.6878607753596331
40
-1.6878607753596331
40
-1.6878607753596331
40
-1.6878607753596331
40
-1.6148816017744767
40
-1.6148816017744767
40
-1.5344036570900539
40
-1.5344036570900539
40
-1.4140860616183379
40
-1.4140860616183379
40
-1.212595255136599
40
-1.212595255136599
40
-0.69419778406362043
40
-0.69419778406362043
40
-0.22030073472274955
40
-0.22030073472274955
40
0
40
0
40
0
40
0
10
-304.33125134206222
20
450.3911412636711
30
0
10
-303.928107051643
20
450.8317644160465
30
0
10
-303.54417826344832
20
451.1979582023136
30
0
10
-302.59011810005927
20
451.88988544670701
30
0
10
-302.01004951711377
20
452.20303524005863
30
0
10
-300.59671585856455
20
452.79755156611338
30
0
10
-299.6212341367214
20
453.05366837713746
30
0
10
-296.55360284898262
20
454.1262664261011
30
0
10
-294.70316889552697
20
455.01620257948525
30
0
10
-291.61676020109593
20
456.52636350992998
30
0
10
-290.38333993078226
20
457.56923335973386
30
0
10
-289.04827231272509
20
459.01391689357274
30
0
10
-288.53580734805655
20
459.64428487145915
30
0
10
-286.82905623850792
20
460.5110053308976
30
0
10
-286.35289577683875
20
460.67285348357638
30
0
10
-285.71152709287082
20
461.03047794100576
30
0
0
LWPOLYLINE
5
147
100
AcDbEntity
8
0
100
AcDbPolyline
90
12
70
1
43
0.0
10
-242.45243716937404
20
350.29934099758719
10
-242.45243716937404
20
630.29934099758725
10
-252.45243716937404
20
630.29934099758725
10
-252.45243716937404
20
615.29934099758725
10
-372.45243786469786
20
615.29934099758725
10
-372.45243786469786
20
630.29934099758725
10
-382.45243716937404
20
630.29934099758725
10
-382.45243716937404
20
350.29934099758719
10
-372.45243805510154
20
350.29934099758719
10
-372.45243786469786
20
365.29934099758719
10
-252.45243716937404
20
365.29934099758719
10
-252.45243716937404
20
350.29934099758719
0
SPLINE
5
148
100
AcDbEntity
8
0
100
AcDbSpline
70
0
71
3
72
22
73
18
74
0
42
0.000000001
43
0.0000000001
44
0.0000000001
40
-1.1611044761221796
40
-1.1611044761221796
40
-1.1611044761221796
40
-1.1611044761221796
40
-0.75829186019618366
40
-0.75829186019618366
40
-0.53524510614787335
40
-0.53524510614787335
40
-0.44627062788820054
40
-0.44627062788820054
40
-0.39688416656908104
40
-0.39688416656908104
40
-0.35621320827680797
40
-0.35621320827680797
40
-0.31011385943513503
40
-0.31011385943513503
40
-0.23817494856128812
40
-0.23817494856128812
40
0
40
0
40
0
40
0
10
-87.347970019884428
20
456.34030747592499
30
0
10
-86.350530904743849
20
456.83402031968399
30
0
10
-85.204748419113784
20
457.4430712081284
30
0
10
-83.762313074790967
20
458.39782377935927
30
0
10
-83.262489769178273
20
458.77373336165812
30
0
10
-82.774407765517495
20
459.2987253444976
30
0
10
-82.636436191736834
20
459.47298520071053
30
0
10
-82.493935730037165
20
459.75860492133063
30
0
10
-82.455113189781741
20
459.86778292982393
30
0
10
-82.427737722026734
20
460.0739340251904
30
0
10
-82.431975507057899
20
460.16609994332867
30
0
10
-82.481614377378037
20
460.36023730157984
30
0
10
-82.530438385094769
20
460.45401862900394
30
0
10
-82.693335792304453
20
460.67241991791769
30
0
10
-82.828370098190447
20
460.78431865248513
30
0
10
-83.422682702935859
20
461.18049210498356
30
0
10
-84.127770325736549
20
461.41147854599694
30
0
10
-84.901852703588105
20
461.58783010866978
30
0
0
SPLINE
5
149
100
AcDbEntity
8
0
100
AcDbSpline
70
0
71
3
72
70
73
66
74
0
42
0.000000001
43
0.0000000001
44
0.0000000001
40
-0.76108344646042991
40
-0.76108344646042991
40
-0.76108344646042991
40
-0.76108344646042991
40
-0.74174114206116648
40
-0.74174114206116648
40
-0.72546697706638275
40
-0.72546697706638275
40
-0.71152881346283281
40
-0.71152881346283281
40
-0.69470409562465629
40
-0.69470409562465629
40
-0.68908034752454028
40
-0.68908034752454028
40
-0.68550335391225481
40
-0.68550335391225481
40
-0.681933751929651
40
-0.681933751929651
40
-0.67918729367138886
40
-0.67918729367138886
40
-0.67848500854015248
40
-0.67848500854015248
40
-0.6780697533151131
40
-0.6780697533151131
40
-0.67671318248594281
40
-0.67671318248594281
40
-0.67626177027543999
40
-0.67626177027543999
40
-0.67324196430619354
40
-0.67324196430619354
40
-0.67242828622156781
40
-0.67242828622156781
40
-0.67139643932824389
40
-0.67139643932824389
40
-0.66986165629825511
40
-0.66986165629825511
40
-0.66884750670679627
40
-0.66884750670679627
40
-0.66692783464030614
40
-0.66692783464030614
40
-0.6647100267896946
40
-0.6647100267896946
40
-0.66258363672543419
40
-0.66258363672543419
40
-0.65998378050703621
40
-0.65998378050703621
40
-0.65586034423961881
40
-0.65586034423961881
40
-0.64350558200240904
40
-0.64350558200240904
40
-0.53188189245124928
40
-0.53188189245124928
40
-0.39723460466997296
40
-0.39723460466997296
40
-0.31836382208387681
40
-0.31836382208387681
40
-0.27261589778504758
40
-0.27261589778504758
40
-0.24626129434243274
40
-0.24626129434243274
40
-0.23589347886806805
40
-0.23589347886806805
40
-0.22878857739249525
40
-0.22878857739249525
40
-0.19203149763582947
40
-0.19203149763582947
40
0
40
0
40
0
40
0
10
-84.901852600386079
20
461.58783062213172
30
0
10
-85.961112705776216
20
461.80073401953769
30
0
10
-86.892857578511169
20
462.13519388695516
30
0
10
-89.217892039112769
20
462.5615820672017
30
0
10
-89.583618418366882
20
462.51289526236701
30
0
10
-91.238543974433441
20
462.43895321654543
30
0
10
-92.044376394549232
20
462.42665490791637
30
0
10
-94.040554457645683
20
462.81030929442301
30
0
10
-94.812029500318133
20
463.20174363282882
30
0
10
-95.740262164052922
20
463.54217270199831
30
0
10
-96.582894727132441
20
463.87900637813652
30
0
10
-99.51519955406792
20
463.74463949647264
30
0
10
-100.25118035858111
20
463.53597088676139
30
0
10
-101.97735533577772
20
463.31749092977407
30
0
10
-102.94716053330932
20
463.3096038447519
30
0
10
-105.00262732218827
20
463.88699652140917
30
0
10
-105.84962121121806
20
464.29104611615372
30
0
10
-106.28139726213041
20
464.46168594733371
30
0
10
-106.3714537744719
20
464.49104006836473
30
0
10
-106.51550410829996
20
464.53443241614963
30
0
10
-106.53743464400907
20
464.53769633390198
30
0
10
-106.69994867094515
20
464.54545725188791
30
0
10
-106.86726063512053
20
464.52970639166529
30
0
10
-107.45802891916273
20
464.49451658049219
30
0
10
-107.60219250349306
20
464.48657022064276
30
0
10
-108.72873428030931
20
464.43016342172893
30
0
10
-109.98997306680454
20
464.44688296025646
30
0
10
-112.30839630188269
20
465.28701645814607
30
0
10
-112.79657099254571
20
465.49001774169034
30
0
10
-113.4677333875934
20
465.64793639918855
30
0
10
-114.21699029161081
20
465.57617882525966
30
0
10
-116.07287947623966
20
465.47394531608711
30
0
10
-116.89849197163002
20
465.52897887593366
30
0
10
-117.75997224561755
20
465.56496557747653
30
0
10
-117.90668231327543
20
465.56181568669228
30
0
10
-119.15177265160474
20
465.21804233393988
30
0
10
-120.02673705471844
20
464.84265181360786
30
0
10
-122.2175834539356
20
464.32378980199388
30
0
10
-123.18723167814613
20
464.31860775318069
30
0
10
-125.07737186835013
20
464.63586937066418
30
0
10
-125.69304606662922
20
464.8938966502551
30
0
10
-129.55407687418813
20
465.54044922844582
30
0
10
-130.89401691733957
20
465.53323867416509
30
0
10
-132.88153649744146
20
465.49653639865261
30
0
10
-134.10093613942803
20
465.48942625984688
30
0
10
-138.97274039292239
20
465.5399435187872
30
0
10
-141.32868005964724
20
465.48596140317676
30
0
10
-145.63529290171095
20
465.43972537629941
30
0
10
-147.72894643510276
20
465.40820209237046
30
0
10
-152.31166688254751
20
465.98507692049822
30
0
10
-154.02973958697225
20
466.63084723719476
30
0
10
-157.14766325846423
20
467.8711011952941
30
0
10
-157.98215114966871
20
468.21605259967095
30
0
10
-159.32442317662836
20
468.58267007326759
30
0
10
-159.74548117139801
20
468.65829343344058
30
0
10
-160.10558398132423
20
468.68471418563331
30
0
10
-160.18902345962161
20
468.67598452916025
30
0
10
-160.28299793874751
20
468.67086539427066
30
0
10
-160.29829823310888
20
468.67067970179727
30
0
10
-160.31569261624071
20
468.66955372185481
30
0
10
-160.32036871732009
20
468.66887025183883
30
0
10
-160.34672164205637
20
468.65977745358407
30
0
10
-160.42532978230398
20
468.60776135900414
30
0
10
-160.75586426830756
20
468.35092060507532
30
0
10
-161.01507891875204
20
467.9020507960343
30
0
10
-161.33518656325327
20
467.34773545539497
30
0
0
LINE
5
150
100
AcDbEntity
8
0
100
AcDbLine
10
-161.33518656325327
20
467.34773545539502
30
0
11
-161.747165932266
21
467.15024215135691
31
0
0
SPLINE
5
151
100
AcDbEntity
8
0
100
AcDbSpline
70
0
71
3
72
12
73
8
74
0
42
0.000000001
43
0.0000000001
44
0.0000000001
40
-0.60162988505956072
40
-0.60162988505956072
40
-0.60162988505956072
40
-0.60162988505956072
40
-0.3436692227459609
40
-0.3436692227459609
40
-0.11520717177093552
40
-0.11520717177093552
40
0
40
0
40
0
40
0
10
-161.747165932266
20
467.15024215135691
30
0
10
-161.85129699535597
20
466.89729853156177
30
0
10
-162.10099220559843
20
466.19461552181826
30
0
10
-163.08870358793268
20
464.95268593170681
30
0
10
-163.32321720451733
20
464.85741140732608
30
0
10
-164.32700598001489
20
464.30539225367806
30
0
10
-164.66350299000743
20
464.12034057827049
30
0
10
-165
20
463.93528890286291
30
0
0
LINE
5
152
100
AcDbEntity
8
0
100
AcDbLine
10
-165
20
463.93528890286296
30
0
11
-165
21
605
31
0
0
LINE
5
153
100
AcDbEntity
8
0
100
AcDbLine
10
-165
20
605
30
0
11
-45
21
605
31
0
0
LINE
5
154
100
AcDbEntity
8
0
100
AcDbLine
10
-45
20
605
30
0
11
-45
21
375
31
0
0
LINE
5
155
100
AcDbEntity
8
0
100
AcDbLine
10
-45
20
375
30
0
11
-165.00000037130457
21
375
31
0
0
LINE
5
156
100
AcDbEntity
8
0
100
AcDbLine
10
-165.00000037130457
20
375
30
0
11
-165.00000022704211
21
409.75961217300204
31
0
0
SPLINE
5
157
100
AcDbEntity
8
0
100
AcDbSpline
70
0
71
3
72
14
73
10
74
0
42
0.000000001
43
0.0000000001
44
0.0000000001
40
-1.9707652255383836
40
-1.9707652255383836
40
-1.9707652255383836
40
-1.9707652255383836
40
-1.2456800150892817
40
-1.2456800150892817
40
-0.57768567577801266
40
-0.57768567577801266
40
-0.26818878967717746
40
-0.26818878967717746
40
0
40
0
40
0
40
0
10
-165.00000022704211
20
409.75961217300204
30
0
10
-164.62612163559996
20
411.05723219898783
30
0
10
-164.11316095888085
20
412.05900013728603
30
0
10
-162.64230833226375
20
413.93073679809527
30
0
10
-161.51664889293133
20
415.06636751752529
30
0
10
-159.67747812502444
20
416.34898717705363
30
0
10
-158.75353124793051
20
416.91942883316494
30
0
10
-156.57190369516081
20
417.54614991316362
30
0
10
-155.60898835295168
20
417.59099403841674
30
0
10
-154.7204748743525
20
417.49243955490692
30
0
0
SPLINE
5
158
100
AcDbEntity
8
0
100
AcDbSpline
70
0
71
3
72
24
73
20
74
0
42
0.000000001
43
0.0000000001
44
0.0000000001
40
-0.34970160142023066
40
-0.34970160142023066
40
-0.34970160142023066
40
-0.34970160142023066
40
-0.32492458355852744
40
-0.32492458355852744
40
-0.30316462405837713
40
-0.30316462405837713
40
-0.29299072019672495
40
-0.29299072019672495
40
-0.28981828149347899
40
-0.28981828149347899
40
-0.28039354929677429
40
-0.28039354929677429
40
-0.25615756158067554
40
-0.25615756158067554
40
-0.22485985965345429
40
-0.22485985965345429
40
-0.15014696060760327
40
-0.15014696060760327
40
0
40
0
40
0
40
0
10
-154.7204748743525
20
417.49243955490681
30
0
10
-154.43566025778878
20
418.23726814300971
30
0
10
-153.98551649400937
20
419.42314006295766
30
0
10
-152.07295268211314
20
421.54555695732756
30
0
10
-151.03955098853109
20
422.16298420877598
30
0
10
-149.50233226028564
20
423.02763628195885
30
0
10
-149.13075749704905
20
423.22873460490894
30
0
10
-148.79832548532198
20
423.52207787002055
30
0
10
-148.7203075049818
20
423.59625314449255
30
0
10
-148.49191624317055
20
423.94689669714876
30
0
10
-148.37394806262711
20
424.4829594184713
30
0
10
-148.14555591582209
20
425.57633256461634
30
0
10
-148.06408305785101
20
426.15589470150337
30
0
10
-147.65183723053539
20
427.59648218487087
30
0
10
-147.35010915649835
20
428.16476203829745
30
0
10
-146.52472413548918
20
429.47488683845984
30
0
10
-145.84156605538288
20
430.00453146237101
30
0
10
-144.78721427673321
20
430.74548241652008
30
0
10
-144.20531657278741
20
430.95387906615485
30
0
10
-143.74231496710999
20
431.14393069546509
30
0
0
SPLINE
5
159
100
AcDbEntity
8
0
100
AcDbSpline
70
0
71
3
72
12
73
8
74
0
42
0.000000001
43
0.0000000001
44
0.0000000001
40
-0.55063297831934999
40
-0.55063297831934999
40
-0.55063297831934999
40
-0.55063297831934999
40
-0.36323025198538611
40
-0.36323025198538611
40
-0.21102756263358974
40
-0.21102756263358974
40
0
40
0
40
0
40
0
10
-143.74231496711005
20
431.14393069546514
30
0
10
-143.42305037635711
20
431.50793342334447
30
0
10
-143.02578845700353
20
432.13694237759375
30
0
10
-141.78629598446176
20
433.46936972355928
30
0
10
-141.02503058561598
20
434.15450118979834
30
0
10
-138.51092650184961
20
435.45665277669315
30
0
10
-137.19044829758423
20
435.58168566571879
30
0
10
-136.49339271372639
20
435.67613426209738
30
0
0
SPLINE
5
160
100
AcDbEntity
8
0
100
AcDbSpline
70
0
71
3
72
22
73
18
74
0
42
0.000000001
43
0.0000000001
44
0.0000000001
40
-6.8672839440998219
40
-6.8672839440998219
40
-6.8672839440998219
40
-6.8672839440998219
40
-5.0830929614821505
40
-5.0830929614821505
40
-4.2840577391630816
40
-4.2840577391630816
40
-2.708962882895225
40
-2.708962882895225
40
-1.8523284305983823
40
-1.8523284305983823
40
-1.3183948821128277
40
-1.3183948821128277
40
-0.7454214284164471
40
-0.7454214284164471
40
-0.035659565726409603
40
-0.035659565726409603
40
0
40
0
40
0
40
0
10
-136.49339271372642
20
435.67613426209743
30
0
10
-135.93116205602553
20
436.83181790255225
30
0
10
-135.39690150701142
20
438.61296780277343
30
0
10
-133.78038728499132
20
441.14829024673395
30
0
10
-132.9575490825614
20
442.25038797703343
30
0
10
-129.01055591337641
20
445.15031659895948
30
0
10
-126.28877155389355
20
445.21639016536676
30
0
10
-122.51035204656526
20
446.16408491064561
30
0
10
-121.91668819089296
20
446.4953518097434
30
0
10
-119.38900376818138
20
447.79952901456636
30
0
10
-118.60956054566658
20
448.19205584060262
30
0
10
-116.67729776063643
20
448.76280713658582
30
0
10
-115.68151257399309
20
448.87001843519329
30
0
10
-113.36767426242707
20
448.64038640518095
30
0
10
-112.37650078876263
20
448.22410525433747
30
0
10
-111.66366143489277
20
447.91718968734597
30
0
10
-111.28692456462537
20
447.76036587572179
30
0
10
-111.17233826719223
20
447.7287601681769
30
0
0
LINE
5
161
100
AcDbEntity
8
0
100
AcDbLine
10
-111.17233826719223
20
447.72876016817685
30
0
11
-111.1707967876431
21
447.72875609640278
31
0
0
SPLINE
5
162
100
AcDbEntity
8
0
100
AcDbSpline
70
0
71
3
72
16
73
12
74
0
42
0.000000001
43
0.0000000001
44
0.0000000001
40
-0.51666468556382239
40
-0.51666468556382239
40
-0.51666468556382239
40
-0.51666468556382239
40
-0.48575471952190236
40
-0.48575471952190236
40
-0.44280730376207439
40
-0.44280730376207439
40
-0.32858013098189021
40
-0.32858013098189021
40
-0.1182488845227376
40
-0.1182488845227376
40
0
40
0
40
0
40
0
10
-111.1707967876431
20
447.72875609640278
30
0
10
-111.16334620414409
20
447.72914249352249
30
0
10
-111.11702074316253
20
447.73420586895418
30
0
10
-110.9227500114653
20
447.77299232948485
30
0
10
-110.80376362592693
20
447.80458127033143
30
0
10
-110.39021186179187
20
447.93104173350537
30
0
10
-110.0536856052169
20
448.06782745573446
30
0
10
-108.34252029866848
20
448.7979403010209
30
0
10
-107.17624828706334
20
449.31808348729425
30
0
10
-104.966253742235
20
449.73440914515652
30
0
10
-104.28540615143089
20
449.7682579516424
30
0
10
-103.89238463905176
20
449.79823328659961
30
0
0
SPLINE
5
163
100
AcDbEntity
8
0
100
AcDbSpline
70
0
71
3
72
10
73
6
74
0
42
0.000000001
43
0.0000000001
44
0.0000000001
40
-0.59603983191367615
40
-0.59603983191367615
40
-0.59603983191367615
40
-0.59603983191367615
40
-0.26695672243220336
40
-0.26695672243220336
40
0
40
0
40
0
40
0
10
-103.89238463905185
20
449.7982332865995
30
0
10
-103.27360751867528
20
450.10568002678633
30
0
10
-102.16252397758673
20
450.91237470781857
30
0
10
-99.332453350387084
20
451.77202865144358
30
0
10
-98.299232746115237
20
451.78102907448056
30
0
10
-97.413973150560693
20
451.69070361265756
30
0
0
SPLINE
5
164
100
AcDbEntity
8
0
100
AcDbSpline
70
0
71
3
72
12
73
8
74
0
42
0.000000001
43
0.0000000001
44
0.0000000001
40
-1.2095639927449002
40
-1.2095639927449002
40
-1.2095639927449002
40
-1.2095639927449002
40
-0.78757650225035558
40
-0.78757650225035558
40
-0.44663369887800541
40
-0.44663369887800541
40
0
40
0
40
0
40
0
10
-97.413973150560636
20
451.69070361265756
30
0
10
-96.331889931893059
20
452.72334893712781
30
0
10
-95.309267458328307
20
453.25387846275072
30
0
10
-93.147430308342436
20
454.07271212950491
30
0
10
-92.520773653867025
20
454.21793114311095
30
0
10
-90.089662611765789
20
455.07361124207569
30
0
10
-88.688740051703974
20
455.693160950422
30
0
10
-87.347970021085857
20
456.34030747533063
30
0
0
LWPOLYLINE
5
165
100
AcDbEntity
8
0
100
AcDbPolyline
90
12
70
1
43
0.0
10
-175
20
350
10
-165.0000004750618
20
350
10
-165.00000041280745
20
365
10
-45
20
365
10
-45
20
350
10
-35
20
350
10
-35
20
630
10
-45
20
630
10
-45
20
615
10
-165
20
615
10
-165
20
630
10
-175
20
630
0
LINE
5
166
100
AcDbEntity
8
0
100
AcDbLine
10
209.99999957495061
20
375
30
0
11
210
21
421.38936346376101
31
0
0
SPLINE
5
167
100
AcDbEntity
8
0
100
AcDbSpline
70
0
71
3
72
60
73
56
74
0
42
0.000000001
43
0.0000000001
44
0.0000000001
40
-7.2116974981003992
40
-7.2116974981003992
40
-7.2116974981003992
40
-7.2116974981003992
40
-6.2085893021780159
40
-6.2085893021780159
40
-4.959692216765764
40
-4.959692216765764
40
-4.2842745062600143
40
-4.2842745062600143
40
-3.9064092849801715
40
-3.9064092849801715
40
-3.6996404487695864
40
-3.6996404487695864
40
-3.5762377281895668
40
-3.5762377281895668
40
-3.4606950785903456
40
-3.4606950785903456
40
-3.2835942301235193
40
-3.2835942301235193
40
-3.1269546562928294
40
-3.1269546562928294
40
-3.0427881601642612
40
-3.0427881601642612
40
-2.9863190342149109
40
-2.9863190342149109
40
-2.9318426997026319
40
-2.9318426997026319
40
-2.8621022275023145
40
-2.8621022275023145
40
-2.6956696033983012
40
-2.6956696033983012
40
-2.4418496043154687
40
-2.4418496043154687
40
-2.0648844259746921
40
-2.0648844259746921
40
-1.7181347251447614
40
-1.7181347251447614
40
-1.2940184293792194
40
-1.2940184293792194
40
-1.1345358433128219
40
-1.1345358433128219
40
-1.0292575082376954
40
-1.0292575082376954
40
-0.90421970758816061
40
-0.90421970758816061
40
-0.65150331739353895
40
-0.65150331739353895
40
-0.49330197613530835
40
-0.49330197613530835
40
-0.40285308079837651
40
-0.40285308079837651
40
-0.32975817658394596
40
-0.32975817658394596
40
-0.24986549076259087
40
-0.24986549076259087
40
0
40
0
40
0
40
0
10
210
20
421.38936346376101
30
0
10
217.49057414043963
20
424.60556489230055
30
0
10
222.13914476109437
20
428.03314515620957
30
0
10
229.60769401241609
20
435.24419236516729
30
0
10
231.98842655064638
20
439.19123340800627
30
0
10
237.05668758388313
20
444.86343500375136
30
0
10
239.62114076116859
20
447.35896663072219
30
0
10
245.22225255163625
20
450.42103444174404
30
0
10
247.77688600149281
20
451.4752807387132
30
0
10
251.98169599412384
20
452.0532831954996
30
0
10
253.0535344181414
20
451.99084341911765
30
0
10
254.45276554784644
20
451.99314926496214
30
0
10
254.92303878733577
20
452.01685794150245
30
0
10
255.83002135696719
20
452.25147169807963
30
0
10
256.29731966626827
20
452.45828838343687
30
0
10
257.61050604619214
20
453.45894105625854
30
0
10
258.32691823654511
20
454.35446903461286
30
0
10
259.33051157592928
20
455.95396065575778
30
0
10
259.75172259693193
20
456.81791944184124
30
0
10
260.11306568409714
20
458.12506853579248
30
0
10
260.19510161658218
20
458.61334559047242
30
0
10
260.16763693916511
20
459.40520386526919
30
0
10
260.11222365887562
20
459.71898561804784
30
0
10
259.88038995032912
20
460.29981137741061
30
0
10
259.71523870765753
20
460.55096427244928
30
0
10
259.22458536047577
20
461.05096784189664
30
0
10
258.88584625215555
20
461.26013015749379
30
0
10
257.67018665034789
20
461.79967694180107
30
0
10
256.53905116678237
20
461.96726719004494
30
0
10
253.32501923243936
20
462.13350062894909
30
0
10
251.01952538266247
20
461.99867336600244
30
0
10
245.07918838008811
20
461.96727761693558
30
0
10
243.02161703684786
20
462.22594097043884
30
0
10
237.72573090026268
20
463.2893499274611
30
0
10
235.57021253863672
20
463.85503220755089
30
0
10
229.33481082178497
20
463.77854954727059
30
0
10
226.29536431708718
20
462.85494847084055
30
0
10
223.19788245530418
20
462.13908695776854
30
0
10
222.5114152340976
20
462.01152633567773
30
0
10
221.54941194859958
20
461.9889009683194
30
0
10
221.22360677033498
20
462.02987902621885
30
0
10
220.56917463238455
20
462.23960919284565
30
0
10
220.25735259463701
20
462.42881949743673
30
0
10
219.29142637964651
20
463.22972855988144
30
0
10
218.63171217806877
20
464.06058757765288
30
0
10
217.23336273816545
20
465.43713377536403
30
0
10
216.59640638752805
20
465.99320274738517
30
0
10
215.4981037672826
20
466.62461119644513
30
0
10
215.06577599154187
20
466.81104698716024
30
0
10
214.24919220739031
20
466.97985820603719
30
0
10
213.88245438033263
20
466.99234091952542
30
0
10
213.11360661037244
20
466.85843487668853
30
0
10
212.74355932944326
20
466.70293769168245
30
0
10
211.317126432615
20
465.80839532934584
30
0
10
210.53815459855358
20
464.57096728065261
30
0
10
210
20
463.93528890286291
30
0
0
LINE
5
168
100
AcDbEntity
8
0
100
AcDbLine
10
210
20
463.93528890286291
30
0
11
210
21
605
31
0
0
LINE
5
169
100
AcDbEntity
8
0
100
AcDbLine
10
210
20
605
30
0
11
330.00000000000006
21
605
31
0
0
LINE
5
170
100
AcDbEntity
8
0
100
AcDbLine
10
330.00000000000006
20
605
30
0
11
330
21
375
31
0
0
LINE
5
171
100
AcDbEntity
8
0
100
AcDbLine
10
330
20
375
30
0
11
209.99999957495061
21
375
31
0
0
LWPOLYLINE
5
172
100
AcDbEntity
8
0
100
AcDbPolyline
90
12
70
1
43
0.0
10
340.00000000000006
20
630
10
330.00000000000006
20
630
10
330.00000000000006
20
615
10
210
20
615
10
210
20
630
10
200
20
630
10
200
20
350
10
209.99999934588436
20
350
10
209.99999948332407
20
365
10
330
20
365
10
330
20
350
10
340
20
350
0
SPLINE
5
173
100
AcDbEntity
8
0
100
AcDbSpline
70
0
71
3
72
16
73
12
74
0
42
0.000000001
43
0.0000000001
44
0.0000000001
40
-0.10991196322405933
40
-0.10991196322405933
40
-0.10991196322405933
40
-0.10991196322405933
40
-0.10577685101439072
40
-0.10577685101439072
40
-0.10055276241238491
40
-0.10055276241238491
40
-0.08329361339471579
40
-0.08329361339471579
40
-0.040854225824185027
40
-0.040854225824185027
40
0
40
0
40
0
40
0
10
60.240287170471419
20
464.89669263061853
30
0
10
60.228716690453979
20
464.89695127400478
30
0
10
60.191570858693069
20
464.8969572908905
30
0
10
60.074533810106416
20
464.89439395361933
30
0
10
60.002142452807959
20
464.89124481167829
30
0
10
59.767228807885495
20
464.8798558079074
30
0
10
59.557844035152542
20
464.86585952028747
30
0
10
58.921389087493012
20
464.81908826353879
30
0
10
58.3318638206636
20
464.76779081826294
30
0
10
56.778035150114661
20
464.75680212632062
30
0
10
56.175320833857747
20
464.79640975197253
30
0
10
56.039141690507925
20
464.79574768299904
30
0
0
SPLINE
5
174
100
AcDbEntity
8
0
100
AcDbSpline
70
0
71
3
72
26
73
22
74
0
42
0.000000001
43
0.0000000001
44
0.0000000001
40
-2.1657027084430642
40
-2.1657027084430642
40
-2.1657027084430642
40
-2.1657027084430642
40
-2.1605905862125803
40
-2.1605905862125803
40
-2.148776597103224
40
-2.148776597103224
40
-2.1163424098109718
40
-2.1163424098109718
40
-2.0252147786128911
40
-2.0252147786128911
40
-1.8606535281021626
40
-1.8606535281021626
40
-1.6522578734513502
40
-1.6522578734513502
40
-1.49829423043137
40
-1.49829423043137
40
-1.1705248200636578
40
-1.1705248200636578
40
-0.34968014599300568
40
-0.34968014599300568
40
0
40
0
40
0
40
0
10
56.039141690507925
20
464.79574768299904
30
0
10
56.014837003946212
20
464.79241592077972
30
0
10
55.981091705334109
20
464.78526909639669
30
0
10
55.881189166586807
20
464.76234090613156
30
0
10
55.792680342103971
20
464.73911041136523
30
0
10
55.505455615839914
20
464.65533779395201
30
0
10
55.159990904769103
20
464.53543174279946
30
0
10
53.73797897080803
20
464.06102906757269
30
0
10
52.889444773837617
20
463.81506736357386
30
0
10
50.293487449066909
20
463.48731528204348
30
0
10
49.064645759465641
20
463.78510551272564
30
0
10
46.369670003833392
20
464.46355660740346
30
0
10
44.425306196733928
20
464.83407548880314
30
0
10
40.514595192688148
20
464.78267194748724
30
0
10
39.683423815784728
20
464.78171162736368
30
0
10
34.48438038530545
20
464.84942218545569
30
0
10
31.559688604276733
20
464.79107436206476
30
0
10
24.202791112887031
20
464.75249153883328
30
0
10
21.799115936816833
20
465.07699339644455
30
0
10
16.362934915589211
20
467.19647350914471
30
0
10
15.141445250188884
20
467.76393458244763
30
0
10
14.000000208616218
20
468.00000175833702
30
0
0
SPLINE
5
175
100
AcDbEntity
8
0
100
AcDbSpline
70
0
71
3
72
16
73
12
74
0
42
0.000000001
43
0.0000000001
44
0.0000000001
40
-0.39004872566578891
40
-0.39004872566578891
40
-0.39004872566578891
40
-0.39004872566578891
40
-0.1525811348792088
40
-0.1525811348792088
40
-0.079239257056885032
40
-0.079239257056885032
40
-0.042726989380363185
40
-0.042726989380363185
40
-0.020539712070675672
40
-0.020539712070675672
40
0
40
0
40
0
40
0
10
14.000000208616257
20
468.00000175833702
30
0
10
13.371519084282271
20
467.07566185119248
30
0
10
12.303197519304124
20
465.54938183480022
30
0
10
11.184338563830799
20
464.39353284378444
30
0
10
10.952830653734672
20
464.19443248302065
30
0
10
10.644697004382259
20
463.99981076376241
30
0
10
10.529794073174344
20
463.94040437336832
30
0
10
10.341493144520364
20
463.88797722372539
30
0
10
10.267886177243387
20
463.87756316728087
30
0
10
10.125802780988618
20
463.88710938643771
30
0
10
10.061201475364442
20
463.90459798507209
30
0
10
10
20
463.93528890286291
30
0
0
LINE
5
176
100
AcDbEntity
8
0
100
AcDbLine
10
10
20
463.93528890286291
30
0
11
10
21
605
31
0
0
LINE
5
177
100
AcDbEntity
8
0
100
AcDbLine
10
10
20
605
30
0
11
130
21
605
31
0
0
LINE
5
178
100
AcDbEntity
8
0
100
AcDbLine
10
130
20
605
30
0
11
130
21
375
31
0
0
LINE
5
179
100
AcDbEntity
8
0
100
AcDbLine
10
130
20
375
30
0
11
9.999999703880853
21
375
31
0
0
LINE
5
180
100
AcDbEntity
8
0
100
AcDbLine
10
9.999999703880853
20
375
30
0
11
10.000000043350152
21
412.04925640926098
31
0
0
SPLINE
5
181
100
AcDbEntity
8
0
100
AcDbSpline
70
0
71
3
72
42
73
38
74
0
42
0.000000001
43
0.0000000001
44
0.0000000001
40
-5.8055350153403058
40
-5.8055350153403058
40
-5.8055350153403058
40
-5.8055350153403058
40
-5.4270125345842581
40
-5.4270125345842581
40
-4.940664611249189
40
-4.940664611249189
40
-4.6986637670909399
40
-4.6986637670909399
40
-4.4388834511155899
40
-4.4388834511155899
40
-3.7957789748492541
40
-3.7957789748492541
40
-3.538366083051105
40
-3.538366083051105
40
-3.1919116881953751
40
-3.1919116881953751
40
-2.9835015252775015
40
-2.9835015252775015
40
-2.6118524874397822
40
-2.6118524874397822
40
-2.1126627995152027
40
-2.1126627995152027
40
-1.353979349671016
40
-1.353979349671016
40
-0.9059739035188269
40
-0.9059739035188269
40
-0.71128460477880773
40
-0.71128460477880773
40
-0.60462082428580821
40
-0.60462082428580821
40
-0.51961993179294863
40
-0.51961993179294863
40
-0.42509900145862478
40
-0.42509900145862478
40
-0.27982418506359902
40
-0.27982418506359902
40
0
40
0
40
0
40
0
10
10.000000043350152
20
412.04925640926098
30
0
10
13.332602249199025
20
415.71651705503888
30
0
10
20.132939785871233
20
420.49743918279785
30
0
10
33.661705331490793
20
431.57446396377196
30
0
10
36.056258219705953
20
434.99994497532924
30
0
10
40.357602276819264
20
441.13122096461166
30
0
10
41.751889494756853
20
443.08771555669375
30
0
10
45.665619288774579
20
446.65364096144452
30
0
10
47.632479124776893
20
447.66531930064849
30
0
10
53.328038986366153
20
449.82667508141247
30
0
10
56.839807182172216
20
449.42241886807597
30
0
10
60.354120398589338
20
449.41142501396632
30
0
10
61.210242467606832
20
449.47047909182606
30
0
10
63.159545410282504
20
450.03472060414674
30
0
10
63.882611113233992
20
450.58703228826516
30
0
10
65.161004948959288
20
451.21700956757684
30
0
10
65.601480436632983
20
451.36312586473093
30
0
10
67.081460825660955
20
451.47844407484536
30
0
10
67.992730774004372
20
451.19221759597519
30
0
10
70.750609924308407
20
451.12113316256273
30
0
10
72.186606623724586
20
451.55814008747797
30
0
10
81.623211724796022
20
454.79372860937053
30
0
10
84.025008296436766
20
455.74385674374992
30
0
10
86.580657971912586
20
456.9790529259779
30
0
10
87.373818914685472
20
457.43652292188756
30
0
10
88.190720327930762
20
458.09499808752309
30
0
10
88.442562313985064
20
458.33252390071652
30
0
10
88.725422091801818
20
458.73745896982945
30
0
10
88.809542624864036
20
458.89463906094255
30
0
10
88.897376911110442
20
459.19654049814926
30
0
10
88.912731692096543
20
459.33303055492723
30
0
10
88.885790857576666
20
459.62630527703737
30
0
10
88.837900664715491
20
459.7720838048208
30
0
10
88.65465850994967
20
460.12009736369129
30
0
10
88.488154214979488
20
460.30652387045251
30
0
10
87.970121150221871
20
460.77124005259418
30
0
10
87.442384261513524
20
461.11076430916955
30
0
10
86.587690613614939
20
461.48428306800639
30
0
0
SPLINE
5
182
100
AcDbEntity
8
0
100
AcDbSpline
70
0
71
3
72
22
73
18
74
0
42
0.000000001
43
0.0000000001
44
0.0000000001
40
-0.24589828414645709
40
-0.24589828414645709
40
-0.24589828414645709
40
-0.24589828414645709
40
-0.23561739044205438
40
-0.23561739044205438
40
-0.22933812452943042
40
-0.22933812452943042
40
-0.22428670574208387
40
-0.22428670574208387
40
-0.21572433746649591
40
-0.21572433746649591
40
-0.16302352759640104
40
-0.16302352759640104
40
-0.10867055668983347
40
-0.10867055668983347
40
-0.020776710125214176
40
-0.020776710125214176
40
0
40
0
40
0
40
0
10
86.587690613614953
20
461.48428306800639
30
0
10
84.518868125062568
20
462.00820509332232
30
0
10
84.290429905649646
20
461.87795459775214
30
0
10
82.341313975096782
20
461.804417022341
30
0
10
81.344617961565916
20
461.79143389882597
30
0
10
79.262788462017141
20
462.26144419868439
30
0
10
78.494319403593465
20
462.58766478836662
30
0
10
77.517900014564646
20
462.98531199980397
30
0
10
77.296251971284008
20
463.03433314334228
30
0
10
75.918025499088643
20
463.27891253006896
30
0
10
74.664818683375401
20
463.08557141826645
30
0
10
73.175756914110153
20
462.83128662154286
30
0
10
72.476776170433652
20
462.70023772774505
30
0
10
70.200987869862615
20
462.6863996017197
30
0
10
69.031878975903012
20
463.01086679690292
30
0
10
67.3584925208946
20
463.69339367137525
30
0
10
67.035514595425596
20
463.83365290466315
30
0
10
66.97085618951327
20
463.85846505058362
30
0
0
SPLINE
5
183
100
AcDbEntity
8
0
100
AcDbSpline
70
0
71
3
72
14
73
10
74
0
42
0.000000001
43
0.0000000001
44
0.0000000001
40
-0.15073017777984757
40
-0.15073017777984757
40
-0.15073017777984757
40
-0.15073017777984757
40
-0.093298358019317476
40
-0.093298358019317476
40
-0.019338131193945299
40
-0.019338131193945299
40
-0.0022993032436855426
40
-0.0022993032436855426
40
0
40
0
40
0
40
0
10
66.97085618951327
20
463.85846505058362
30
0
10
66.251980422107309
20
463.80980187543707
30
0
10
65.457525230097829
20
463.73542708035365
30
0
10
63.177491133770822
20
463.90979025384115
30
0
10
62.155757369326949
20
464.21133991381475
30
0
10
60.895298752337006
20
464.67973541022366
30
0
10
60.530894944308002
20
464.81937673790651
30
0
10
60.307556845247525
20
464.88673899553561
30
0
10
60.292401185918322
20
464.89077039320387
30
0
10
60.284947365655704
20
464.89255441525393
30
0
0
SPLINE
5
184
100
AcDbEntity
8
0
100
AcDbSpline
70
0
71
3
72
10
73
6
74
0
42
0.000000001
43
0.0000000001
44
0.0000000001
40
-0.0043981603266557943
40
-0.0043981603266557943
40
-0.0043981603266557943
40
-0.0043981603266557943
40
-0.0029631572736030214
40
-0.0029631572736030214
40
0
40
0
40
0
40
0
10
60.284947365655711
20
464.89255441525404
30
0
10
60.280887533931988
20
464.89304559150264
30
0
10
60.275211990004721
20
464.89361686651262
30
0
10
60.260824993326409
20
464.89499471898165
30
0
10
60.250132701113905
20
464.8959024238859
30
0
10
60.240287170471433
20
464.89669263061853
30
0
0
LWPOLYLINE
5
185
100
AcDbEntity
8
0
100
AcDbPolyline
90
12
70
1
43
0.0
10
140
20
350
10
140
20
630
10
130
20
630
10
130
20
615
10
10
20
615
10
10
20
630
10
0
20
630
10
0
20
350
10
9.9999994748146381
20
350
10
9.9999996122543635
20
365
10
130
20
365
10
130
20
350
0
LINE
5
186
100
AcDbEntity
8
0
100
AcDbLine
10
10.000349172673424
20
24.999999997366249
30
0
11
10.000350636346631
21
46.00179279465312
31
0
0
SPLINE
5
187
100
AcDbEntity
8
0
100
AcDbSpline
70
0
71
3
72
190
73
186
74
0
42
0.000000001
43
0.0000000001
44
0.0000000001
40
-9.4711169871595775
40
-9.4711169871595775
40
-9.4711169871595775
40
-9.4711169871595775
40
-8.7080136875333078
40
-8.7080136875333078
40
-7.8951792727817791
40
-7.8951792727817791
40
-7.5163412558517644
40
-7.5163412558517644
40
-7.1037626816149544
40
-7.1037626816149544
40
-6.891920792991904
40
-6.891920792991904
40
-6.7849657885274528
40
-6.7849657885274528
40
-6.57980765112403
40
-6.57980765112403
40
-6.4413668643189226
40
-6.4413668643189226
40
-6.3910824202006902
40
-6.3910824202006902
40
-6.3735302007852876
40
-6.3735302007852876
40
-6.3246661614338038
40
-6.3246661614338038
40
-6.2963429794949839
40
-6.2963429794949839
40
-6.2431259538355528
40
-6.2431259538355528
40
-6.2061156542260409
40
-6.2061156542260409
40
-6.170021455290656
40
-6.170021455290656
40
-6.1338554098602014
40
-6.1338554098602014
40
-6.1078466376898382
40
-6.1078466376898382
40
-6.0923704793448019
40
-6.0923704793448019
40
-6.075022287025714
40
-6.075022287025714
40
-6.0416512775171345
40
-6.0416512775171345
40
-5.964499803612207
40
-5.964499803612207
40
-5.9323815318133004
40
-5.9323815318133004
40
-5.8934717546376802
40
-5.8934717546376802
40
-5.8486047599137265
40
-5.8486047599137265
40
-5.8214444247592958
40
-5.8214444247592958
40
-5.7918348772452841
40
-5.7918348772452841
40
-5.7037789400884575
40
-5.7037789400884575
40
-5.6639782022875833
40
-5.6639782022875833
40
-5.625719460051755
40
-5.625719460051755
40
-5.5494507819095489
40
-5.5494507819095489
40
-5.4679496455758523
40
-5.4679496455758523
40
-5.4189719679337953
40
-5.4189719679337953
40
-5.3884510998922126
40
-5.3884510998922126
40
-5.3431682873121282
40
-5.3431682873121282
40
-5.2984885995737372
40
-5.2984885995737372
40
-5.2568578680345928
40
-5.2568578680345928
40
-5.1789947674393275
40
-5.1789947674393275
40
-5.1022476493153723
40
-5.1022476493153723
40
-5.0508223568319801
40
-5.0508223568319801
40
-4.9772842913790711
40
-4.9772842913790711
40
-4.9391120234151211
40
-4.9391120234151211
40
-4.8731901299453817
40
-4.8731901299453817
40
-4.8471336468223445
40
-4.8471336468223445
40
-4.8237041591626282
40
-4.8237041591626282
40
-4.7740328572366915
40
-4.7740328572366915
40
-4.7195930195854325
40
-4.7195930195854325
40
-4.6531726207756394
40
-4.6531726207756394
40
-4.5686892087691504
40
-4.5686892087691504
40
-4.393632103941532
40
-4.393632103941532
40
-4.3384342982548363
40
-4.3384342982548363
40
-4.286237634846791
40
-4.286237634846791
40
-4.0573647940198407
40
-4.0573647940198407
40
-4.0047075720242455
40
-4.0047075720242455
40
-3.9592243331592076
40
-3.9592243331592076
40
-3.9144711250447788
40
-3.9144711250447788
40
-3.8828388267134937
40
-3.8828388267134937
40
-3.8628338661322092
40
-3.8628338661322092
40
-3.8506958514737466
40
-3.8506958514737466
40
-3.8399825259178066
40
-3.8399825259178066
40
-3.8235811984556975
40
-3.8235811984556975
40
-3.7924264078854892
40
-3.7924264078854892
40
-3.7670269029916201
40
-3.7670269029916201
40
-3.7313294918975402
40
-3.7313294918975402
40
-3.7069670324342661
40
-3.7069670324342661
40
-3.6737085412815071
40
-3.6737085412815071
40
-3.642558995661048
40
-3.642558995661048
40
-3.6012520563038168
40
-3.6012520563038168
40
-3.5210174497281854
40
-3.5210174497281854
40
-3.4885450282556256
40
-3.4885450282556256
40
-3.4545781121235088
40
-3.4545781121235088
40
-3.3941034127540024
40
-3.3941034127540024
40
-3.3631418396926729
40
-3.3631418396926729
40
-3.3393006338371674
40
-3.3393006338371674
40
-3.3071635374021198
40
-3.3071635374021198
40
-3.2734963619004049
40
-3.2734963619004049
40
-3.247828129450554
40
-3.247828129450554
40
-3.2168862437801775
40
-3.2168862437801775
40
-3.16291486132662
40
-3.16291486132662
40
-3.0842936407065902
40
-3.0842936407065902
40
-3.0203712512003351
40
-3.0203712512003351
40
-2.8909866988155448
40
-2.8909866988155448
40
-2.8343086690415173
40
-2.8343086690415173
40
-2.7280154560420402
40
-2.7280154560420402
40
-2.5232975501091284
40
-2.5232975501091284
40
-2.3512931849988625
40
-2.3512931849988625
40
-1.9790766707862633
40
-1.9790766707862633
40
-1.5527908276912146
40
-1.5527908276912146
40
-0.9338913464948031
40
-0.9338913464948031
40
-0.66165368657707857
40
-0.66165368657707857
40
-0.47249224850355775
40
-0.47249224850355775
40
-0.27461979608323073
40
-0.27461979608323073
40
0
40
0
40
0
40
0
10
10.00035063634664
20
46.001792794653156
30
0
10
10.381167915092915
20
47.94755316182767
30
0
10
11.434045062870226
20
48.6697937156123
30
0
10
13.42653059565756
20
53.071787474595951
30
0
10
13.743762094767273
20
55.592537138889483
30
0
10
14.199814820588529
20
58.109880073282405
30
0
10
14.340542130883435
20
58.720156022404204
30
0
10
14.845348781539307
20
59.856424207989114
30
0
10
15.232153562083004
20
60.378684451862839
30
0
10
16.293338540793563
20
61.404137057262894
30
0
10
17.0276590341077
20
62.074616948662381
30
0
10
17.976296848352824
20
62.695497931691328
30
0
10
18.267145815475768
20
62.837473859672684
30
0
10
19.128466062293661
20
63.078820087748099
30
0
10
19.605939341695187
20
62.990115518570128
30
0
10
20.503872534626577
20
62.938729747285109
30
0
10
20.85619859062615
20
62.946555473560963
30
0
10
21.406712132581973
20
63.10236612082398
30
0
10
21.98746377960299
20
63.278856055589578
30
0
10
23.362992175288056
20
64.258524439248475
30
0
10
23.564890147162462
20
64.430978518501007
30
0
10
24.151739710708696
20
65.091370652674343
30
0
10
24.267248948779148
20
65.648540833356833
30
0
10
24.768993636045199
20
66.689279799827261
30
0
10
24.984941934023222
20
67.030675367681184
30
0
10
25.903700698507958
20
67.943286050789013
30
0
10
26.687486259067711
20
68.274124611460081
30
0
10
28.130935478503876
20
69.059353233850828
30
0
10
28.777476276228544
20
69.457378003413424
30
0
10
29.942599673974286
20
70.6205557074598
30
0
10
30.366822346615034
20
71.278465295302439
30
0
10
30.986310679520088
20
72.788533572934583
30
0
10
31.132716787308709
20
73.523021791161341
30
0
10
31.357713667606276
20
74.619404725803506
30
0
10
31.443561053370207
20
75.02688016201634
30
0
10
31.65615467679206
20
75.559046901484862
30
0
10
31.749678573753521
20
75.725459181582337
30
0
10
32.003970503104171
20
76.024250755388422
30
0
10
32.160561454059838
20
76.137189233530293
30
0
10
32.700935475949009
20
76.416054147864116
30
0
10
33.130181358286734
20
76.518961249435591
30
0
10
34.652802376264241
20
77.29910245956988
30
0
10
35.126287492123886
20
78.167156478837953
30
0
10
36.20441329408338
20
79.39220043004488
30
0
10
36.533716112751058
20
79.709203711539146
30
0
10
37.406715716945463
20
80.25589620980287
30
0
10
37.896300081160092
20
80.39989397470103
30
0
10
39.061149299853049
20
80.595453977207697
30
0
10
39.693716992636226
20
80.619434647120428
30
0
10
40.651198890383455
20
80.842888820738509
30
0
10
40.983909562645174
20
80.965846531340247
30
0
10
41.63851215223157
20
81.37774075374017
30
0
10
41.937674796244863
20
81.668912803428555
30
0
10
43.036200577416565
20
83.202939452845925
30
0
10
43.480767381010708
20
84.942407377455638
30
0
10
44.567215510240999
20
87.207478913820623
30
0
10
44.970012354728794
20
87.881211599938268
30
0
10
46.019461566348795
20
89.007636833445048
30
0
10
46.603590177531601
20
89.41363453087402
30
0
10
48.66952084377175
20
90.345544866811764
30
0
10
50.267667556418957
20
90.500940823680963
30
0
10
53.939458999232464
20
91.426992781419017
30
0
10
55.063723754229208
20
91.993283212146451
30
0
10
57.159126070439441
20
93.137848491893863
30
0
10
57.857397463853729
20
93.536899449027672
30
0
10
58.941227534990176
20
93.926177127188936
30
0
10
59.324731316682239
20
94.006714249497691
30
0
10
60.285861275775197
20
94.017329743731892
30
0
10
60.78377775689237
20
93.854194075336693
30
0
10
61.843420738060516
20
93.444657470503671
30
0
10
62.381004584307973
20
93.208502310261508
30
0
10
63.586590192052554
20
92.969002808394436
30
0
10
64.182313879045722
20
92.963067446579998
30
0
10
66.191069043800269
20
93.371114519857414
30
0
10
67.5049280692716
20
94.082523610871235
30
0
10
69.959160836209961
20
95.073510231490587
30
0
10
70.506314595067792
20
95.118763513348981
30
0
10
71.746740278426614
20
95.221050233489862
30
0
10
72.169770683115303
20
95.255871117601956
30
0
10
73.492898416749298
20
95.778843784021007
30
0
10
74.224585657667802
20
96.338735100352181
30
0
10
75.480264476981688
20
96.961101361869183
30
0
10
75.896909861482769
20
97.114622396352729
30
0
10
77.085821191420422
20
97.295162891702788
30
0
10
77.669946485517485
20
97.114335788110736
30
0
10
78.417931998088875
20
96.98083460048808
30
0
10
78.617610273992753
20
96.957056480739325
30
0
10
78.985930238007199
20
96.985509110798759
30
0
10
79.143806737203604
20
97.029454211132588
30
0
10
79.628133374269098
20
97.27829915680816
30
0
10
79.900723097262187
20
97.585932938330004
30
0
10
80.539871427091015
20
98.295491468108636
30
0
10
80.874740003784581
20
98.661220228993272
30
0
10
82.039129853686603
20
99.385100055526991
30
0
10
82.777097361380854
20
99.609372193128124
30
0
10
85.030223623446815
20
100.32854763978224
30
0
10
86.212601310389175
20
100.72408310008434
30
0
10
92.543714603240375
20
103.61034893239744
30
0
10
93.939044130741792
20
104.86135100159574
30
0
10
95.349674761844355
20
106.39627526294858
30
0
10
95.588584142235661
20
106.68311248450433
30
0
10
96.184657052428605
20
107.14780455136901
30
0
10
96.477913940667875
20
107.28648694697652
30
0
10
98.58954172242882
20
108.22961528086417
30
0
10
99.426608021321243
20
108.85171967260463
30
0
10
101.29688685607044
20
110.21658132112775
30
0
10
101.51561066913787
20
110.38509817588934
30
0
10
101.8509774857955
20
110.74927823548785
30
0
10
102.0582660716012
20
111.02593475984045
30
0
10
102.4271659747811
20
112.04068076811312
30
0
10
102.55306323080157
20
112.67018551818438
30
0
10
102.56322516560246
20
113.70926300203942
30
0
10
102.5068479187958
20
114.0644717448647
30
0
10
102.36795180258717
20
114.51042602842489
30
0
10
102.29884471205526
20
114.66253778633896
30
0
10
102.16509592220341
20
114.85628090759872
30
0
10
102.10481650441615
20
114.92440745232014
30
0
10
101.96953980292277
20
115.02405205833391
30
0
10
101.90070969293214
20
115.05635742858755
30
0
10
101.70611603760443
20
115.10361211469173
30
0
10
101.57489027099192
20
115.099201457297
30
0
10
101.12197112762632
20
115.03536324159739
30
0
10
100.71564611239309
20
114.92720945668218
30
0
10
99.741301719081349
20
114.80292223492714
30
0
10
99.146108723068735
20
114.76436835441095
30
0
10
97.705765821748145
20
115.00659115616182
30
0
10
97.251138924406163
20
115.35703356362433
30
0
10
96.399902623048362
20
115.85739287292782
30
0
10
96.027835849070513
20
116.03733867163562
30
0
10
94.721364506472895
20
116.23875479749213
30
0
10
93.903541442663027
20
116.13635400362421
30
0
10
92.661950404978512
20
115.94996459279568
30
0
10
92.248412124061929
20
115.87046637346093
30
0
10
91.096500556069799
20
115.92848063986753
30
0
10
90.42143219286416
20
116.13973370998255
30
0
10
87.354821339807543
20
116.93504710730784
30
0
10
86.318427532327874
20
117.06815300706168
30
0
10
84.1870849300835
20
116.97186717369773
30
0
10
83.712630263016052
20
116.92103928002312
30
0
10
82.734156956804711
20
117.0181711106858
30
0
10
82.346764177043553
20
117.16424113339016
30
0
10
80.914413153310107
20
117.74126436176022
30
0
10
79.49628530213441
20
118.34365022322699
30
0
10
75.774531450299378
20
118.30100031864887
30
0
10
74.73216882482032
20
118.12627779620772
30
0
10
73.557806144763902
20
117.92375692545201
30
0
10
73.18572687954574
20
117.85656550304881
30
0
10
72.349239241890345
20
117.86206097198787
30
0
10
71.968963665486015
20
117.99095455037011
30
0
10
70.841103805768299
20
118.46013350620854
30
0
10
70.187974282962301
20
118.76369033628475
30
0
10
68.861464620725911
20
119.04837762365617
30
0
10
68.377288549591555
20
119.05706007127426
30
0
10
67.300025953687111
20
119.00160390815631
30
0
10
66.772938767978246
20
118.92562760058669
30
0
10
65.141362617750914
20
119.07465467247
30
0
10
64.378088834957637
20
119.52199913209523
30
0
10
61.83721388986018
20
120.27519007851247
30
0
10
60.889437729393293
20
120.08698071179282
30
0
10
58.618416697026547
20
119.96319528945163
30
0
10
58.270884509454213
20
120.03431106250999
30
0
10
56.326342780950114
20
120.09747402935018
30
0
10
55.430355093211652
20
119.79684585967208
30
0
10
53.445179541711298
20
119.12186874161932
30
0
10
52.945834419118434
20
118.95795873910161
30
0
10
51.624233337159104
20
118.78434035545459
30
0
10
51.13654555463021
20
119.06634321667725
30
0
10
45.825291493120275
20
120.15501263771215
30
0
10
43.773182371725845
20
120.02600247746065
30
0
10
41.06480420520068
20
119.9738656842253
30
0
10
40.617489167091129
20
119.99772693005312
30
0
10
35.553837434477856
20
120.03437126131257
30
0
10
32.381992248805147
20
119.96074484638027
30
0
10
27.576979480897421
20
119.94600707280144
30
0
10
25.977581486375648
20
120.0135721768429
30
0
10
22.045463558296049
20
120.87504086710396
30
0
10
20.154119062881186
20
121.88694806759607
30
0
10
17.180420802657792
20
122.87517326441277
30
0
10
16.256907198486608
20
123.10799043941964
30
0
10
14.717266956342892
20
123.2049374606779
30
0
10
14.090549247599878
20
123.16003518742156
30
0
10
12.842840514339333
20
122.81652255111958
30
0
10
12.26889660071199
20
122.51870683818339
30
0
10
11.028989487090113
20
121.54156533642657
30
0
10
10.458188172556689
20
120.79329848845501
30
0
10
10.000355793529913
20
120.00061606258757
30
0
0
LINE
5
188
100
AcDbEntity
8
0
100
AcDbLine
10
10.000355793529913
20
120.00061606258757
30
0
11
10.00036520201148
21
255.00000000008163
31
0
0
LINE
5
189
100
AcDbEntity
8
0
100
AcDbLine
10
10.00036520201148
20
255.00000000008163
30
0
11
130
21
255
31
0
0
LINE
5
190
100
AcDbEntity
8
0
100
AcDbLine
10
130
20
255
30
0
11
130
21
25.000000000000036
31
0
0
LINE
5
191
100
AcDbEntity
8
0
100
AcDbLine
10
130
20
25.000000000000036
30
0
11
10.000349172673424
21
24.999999997366249
31
0
0
LWPOLYLINE
5
192
100
AcDbEntity
8
0
100
AcDbPolyline
90
12
70
1
43
0.0
10
0
20
280
10
0
20
0
10
10.000347430354068
20
-6.1298532571672008e-11
10
10.000348475745682
20
14.999999999989706
10
130
20
15.000000000000036
10
130
20
0
10
140
20
0
10
140
20
280
10
130
20
280
10
130
20
265
10
10.000365898939219
20
265.00000000007196
10
10.000366944330835
20
279.99999999957561
0
LWPOLYLINE
5
193
100
AcDbEntity
8
0
100
AcDbPolyline
90
4
70
1
43
0.0
10
-289.99999985098839
20
263
10
-289.99999985098839
20
278
10
-254.99999985098839
20
278
10
-254.99999985098839
20
263
0
LINE
5
194
100
AcDbEntity
8
0
100
AcDbLine
10
-170
20
25
30
0
11
-231.73054601628417
21
25
31
0
0
SPLINE
5
195
100
AcDbEntity
8
0
100
AcDbSpline
70
0
71
3
72
1338
73
1334
74
0
42
0.000000001
43
0.0000000001
44
0.0000000001
40
-30115.601539165185
40
-30115.601539165185
40
-30115.601539165185
40
-30115.601539165185
40
-29493.616134356078
40
-29493.616134356078
40
-29372.269674048788
40
-29372.269674048788
40
-29262.514035575943
40
-29262.514035575943
40
-29178.591621155079
40
-29178.591621155079
40
-29112.999096984626
40
-29112.999096984626
40
-29048.28589467956
40
-29048.28589467956
40
-28971.867277744092
40
-28971.867277744092
40
-28856.092627364356
40
-28856.092627364356
40
-28655.025878902485
40
-28655.025878902485
40
-28399.44037396965
40
-28399.44037396965
40
-28300.564287734855
40
-28300.564287734855
40
-28244.717330301144
40
-28244.717330301144
40
-28201.034003789078
40
-28201.034003789078
40
-28151.557628641411
40
-28151.557628641411
40
-28083.305319419193
40
-28083.305319419193
40
-27943.504420181333
40
-27943.504420181333
40
-27612.141608319504
40
-27612.141608319504
40
-27452.390673243925
40
-27452.390673243925
40
-27334.955608931308
40
-27334.955608931308
40
-27210.315963432906
40
-27210.315963432906
40
-26999.188884507104
40
-26999.188884507104
40
-26738.098348260912
40
-26738.098348260912
40
-26651.867306759119
40
-26651.867306759119
40
-26608.915381180086
40
-26608.915381180086
40
-26580.264330520553
40
-26580.264330520553
40
-26551.584536283004
40
-26551.584536283004
40
-26512.00533796438
40
-26512.00533796438
40
-26436.798207575957
40
-26436.798207575957
40
-25992.981159135914
40
-25992.981159135914
40
-25678.882808256381
40
-25678.882808256381
40
-25486.819711272932
40
-25486.819711272932
40
-25282.417989787271
40
-25282.417989787271
40
-24943.840048407314
40
-24943.840048407314
40
-24808.240163781524
40
-24808.240163781524
40
-24715.225227594838
40
-24715.225227594838
40
-24613.658008254282
40
-24613.658008254282
40
-24469.665293104001
40
-24469.665293104001
40
-24296.694141273263
40
-24296.694141273263
40
-24199.140294672587
40
-24199.140294672587
40
-24108.578274393101
40
-24108.578274393101
40
-23991.985245423886
40
-23991.985245423886
40
-23704.699265119732
40
-23704.699265119732
40
-23182.911126848416
40
-23182.911126848416
40
-23011.478450720955
40
-23011.478450720955
40
-22928.791894676313
40
-22928.791894676313
40
-22875.887206212923
40
-22875.887206212923
40
-22824.646292777052
40
-22824.646292777052
40
-22756.548700173364
40
-22756.548700173364
40
-22584.929690148627
40
-22584.929690148627
40
-22328.840173413246
40
-22328.840173413246
40
-21901.445885810681
40
-21901.445885810681
40
-21611.372404530717
40
-21611.372404530717
40
-21124.868211404395
40
-21124.868211404395
40
-20970.509412528238
40
-20970.509412528238
40
-20789.853327756366
40
-20789.853327756366
40
-20589.521606050817
40
-20589.521606050817
40
-20378.161500574428
40
-20378.161500574428
40
-19983.698221755934
40
-19983.698221755934
40
-19725.892934198011
40
-19725.892934198011
40
-19637.276932717294
40
-19637.276932717294
40
-19597.135394277891
40
-19597.135394277891
40
-19574.14107360625
40
-19574.14107360625
40
-19554.214791212973
40
-19554.214791212973
40
-19530.811566817338
40
-19530.811566817338
40
-19495.734857361895
40
-19495.734857361895
40
-19349.561445336207
40
-19349.561445336207
40
-19136.550564593239
40
-19136.550564593239
40
-19051.355099740311
40
-19051.355099740311
40
-19004.986715759467
40
-19004.986715759467
40
-18970.557472471577
40
-18970.557472471577
40
-18935.741920330784
40
-18935.741920330784
40
-18889.809747256284
40
-18889.809747256284
40
-18817.653304326926
40
-18817.653304326926
40
-18651.448267623171
40
-18651.448267623171
40
-18528.101333575611
40
-18528.101333575611
40
-18465.417258395952
40
-18465.417258395952
40
-18418.020101845999
40
-18418.020101845999
40
-18366.260244298246
40
-18366.260244298246
40
-18290.050051476235
40
-18290.050051476235
40
-18145.271252348775
40
-18145.271252348775
40
-18039.890171512721
40
-18039.890171512721
40
-17975.620901090399
40
-17975.620901090399
40
-17924.085560533444
40
-17924.085560533444
40
-17867.208664695761
40
-17867.208664695761
40
-17763.728817986699
40
-17763.728817986699
40
-17690.656174361549
40
-17690.656174361549
40
-17649.066622454029
40
-17649.066622454029
40
-17612.55861061671
40
-17612.55861061671
40
-17569.355228235228
40
-17569.355228235228
40
-17504.366384460183
40
-17504.366384460183
40
-17412.938809981144
40
-17412.938809981144
40
-17344.0234302424
40
-17344.0234302424
40
-17289.180007492385
40
-17289.180007492385
40
-17232.601502301492
40
-17232.601502301492
40
-17157.899981951297
40
-17157.899981951297
40
-17006.311696806086
40
-17006.311696806086
40
-16871.774261143164
40
-16871.774261143164
40
-16815.828732936236
40
-16815.828732936236
40
-16782.031484728512
40
-16782.031484728512
40
-16751.434020664139
40
-16751.434020664139
40
-16714.310374413759
40
-16714.310374413759
40
-16632.489027416734
40
-16632.489027416734
40
-16479.33426911589
40
-16479.33426911589
40
-16421.830325743893
40
-16421.830325743893
40
-16389.379700028952
40
-16389.379700028952
40
-16363.04674176019
40
-16363.04674176019
40
-16332.79583702679
40
-16332.79583702679
40
-16289.374556489054
40
-16289.374556489054
40
-16077.653316300155
40
-16077.653316300155
40
-15981.784751891882
40
-15981.784751891882
40
-15921.36151521668
40
-15921.36151521668
40
-15866.500703513682
40
-15866.500703513682
40
-15802.909865318916
40
-15802.909865318916
40
-15704.168835519369
40
-15704.168835519369
40
-15625.992400553436
40
-15625.992400553436
40
-15578.857629914737
40
-15578.857629914737
40
-15544.115958408687
40
-15544.115958408687
40
-15507.95280834838
40
-15507.95280834838
40
-15424.439256865076
40
-15424.439256865076
40
-15360.807017427551
40
-15360.807017427551
40
-15326.088684613562
40
-15326.088684613562
40
-15296.858617634536
40
-15296.858617634536
40
-15263.104140988697
40
-15263.104140988697
40
-15214.007629795895
40
-15214.007629795895
40
-15143.135331289493
40
-15143.135331289493
40
-15087.131233794697
40
-15087.131233794697
40
-15041.373720215719
40
-15041.373720215719
40
-14993.549529058473
40
-14993.549529058473
40
-14929.807492241531
40
-14929.807492241531
40
-14803.742454032317
40
-14803.742454032317
40
-14691.801247458186
40
-14691.801247458186
40
-14645.352896256636
40
-14645.352896256636
40
-14617.771999225393
40
-14617.771999225393
40
-14593.894673472314
40
-14593.894673472314
40
-14565.309281168573
40
-14565.309281168573
40
-14522.671085880263
40
-14522.671085880263
40
-14245.326952764832
40
-14245.326952764832
40
-14163.73904993934
40
-14163.73904993934
40
-14124.647590919565
40
-14124.647590919565
40
-14100.697242118649
40
-14100.697242118649
40
-14079.607654280442
40
-14079.607654280442
40
-14054.63063405992
40
-14054.63063405992
40
-14018.052822514404
40
-14018.052822514404
40
-13946.801973214348
40
-13946.801973214348
40
-13789.727323830348
40
-13789.727323830348
40
-13726.915483651896
40
-13726.915483651896
40
-13689.892742664904
40
-13689.892742664904
40
-13657.333340540717
40
-13657.333340540717
40
-13618.781905489241
40
-13618.781905489241
40
-13508.821748015687
40
-13508.821748015687
40
-13420.190129331151
40
-13420.190129331151
40
-13370.483007575058
40
-13370.483007575058
40
-13323.427616571747
40
-13323.427616571747
40
-13227.933099919914
40
-13227.933099919914
40
-13156.856979102025
40
-13156.856979102025
40
-13114.730662801416
40
-13114.730662801416
40
-13074.234026668917
40
-13074.234026668917
40
-13023.881167359797
40
-13023.881167359797
40
-12944.377841030642
40
-12944.377841030642
40
-12861.518380912739
40
-12861.518380912739
40
-12811.433498606177
40
-12811.433498606177
40
-12779.30022171873
40
-12779.30022171873
40
-12753.401165938596
40
-12753.401165938596
40
-12728.155603962086
40
-12728.155603962086
40
-12696.589327984642
40
-12696.589327984642
40
-12630.225737990038
40
-12630.225737990038
40
-12578.036006637209
40
-12578.036006637209
40
-12513.221715416141
40
-12513.221715416141
40
-12472.118255889949
40
-12472.118255889949
40
-12448.877003340767
40
-12448.877003340767
40
-12433.997743374724
40
-12433.997743374724
40
-12421.341500487646
40
-12421.341500487646
40
-12407.297687259406
40
-12407.297687259406
40
-12386.640165083505
40
-12386.640165083505
40
-12345.946105840816
40
-12345.946105840816
40
-12124.04018949913
40
-12124.04018949913
40
-11885.837484463247
40
-11885.837484463247
40
-11789.314316468941
40
-11789.314316468941
40
-11735.528073010968
40
-11735.528073010968
40
-11695.313618044782
40
-11695.313618044782
40
-11655.500715509039
40
-11655.500715509039
40
-11608.089404409518
40
-11608.089404409518
40
-11549.286156200815
40
-11549.286156200815
40
-11490.325424359768
40
-11490.325424359768
40
-11440.611074049382
40
-11440.611074049382
40
-11342.390787618609
40
-11342.390787618609
40
-11297.984509806765
40
-11297.984509806765
40
-11264.64551717852
40
-11264.64551717852
40
-11221.317522769405
40
-11221.317522769405
40
-11166.715797411969
40
-11166.715797411969
40
-11090.128071834619
40
-11090.128071834619
40
-10994.966617069531
40
-10994.966617069531
40
-10959.397533301395
40
-10959.397533301395
40
-10940.290182615912
40
-10940.290182615912
40
-10926.066979281648
40
-10926.066979281648
40
-10910.696911663785
40
-10910.696911663785
40
-10884.057784131965
40
-10884.057784131965
40
-10838.404088077152
40
-10838.404088077152
40
-10807.813572528908
40
-10807.813572528908
40
-10785.564515537741
40
-10785.564515537741
40
-10760.704713820422
40
-10760.704713820422
40
-10726.167750102028
40
-10726.167750102028
40
-10656.225598234847
40
-10656.225598234847
40
-10623.544001282033
40
-10623.544001282033
40
-10609.23849955669
40
-10609.23849955669
40
-10600.754152156038
40
-10600.754152156038
40
-10593.479269410003
40
-10593.479269410003
40
-10585.098673485929
40
-10585.098673485929
40
-10571.845417661492
40
-10571.845417661492
40
-10547.0836708311
40
-10547.0836708311
40
-10498.957893351722
40
-10498.957893351722
40
-10437.128901276101
40
-10437.128901276101
40
-10356.603595094117
40
-10356.603595094117
40
-10329.45724804637
40
-10329.45724804637
40
-10313.231220476291
40
-10313.231220476291
40
-10299.333078898082
40
-10299.333078898082
40
-10284.942772278237
40
-10284.942772278237
40
-10269.814747565568
40
-10269.814747565568
40
-10256.803581045035
40
-10256.803581045035
40
-10244.218418997685
40
-10244.218418997685
40
-10229.481525120722
40
-10229.481525120722
40
-10208.128930116007
40
-10208.128930116007
40
-10152.484497966037
40
-10152.484497966037
40
-10112.691899533796
40
-10112.691899533796
40
-10070.969884810173
40
-10070.969884810173
40
-10020.367668922807
40
-10020.367668922807
40
-9983.1247503029517
40
-9983.1247503029517
40
-9958.0132446617317
40
-9958.0132446617317
40
-9936.951633837507
40
-9936.951633837507
40
-9913.7640874340359
40
-9913.7640874340359
40
-9851.2367044457096
40
-9851.2367044457096
40
-9819.6900795471174
40
-9819.6900795471174
40
-9801.3665701982809
40
-9801.3665701982809
40
-9770.8369403214565
40
-9770.8369403214565
40
-9725.3925988948631
40
-9725.3925988948631
40
-9702.9392700232165
40
-9702.9392700232165
40
-9689.1782710471543
40
-9689.1782710471543
40
-9678.3809084027525
40
-9678.3809084027525
40
-9667.1489806268164
40
-9667.1489806268164
40
-9652.3811478483967
40
-9652.3811478483967
40
-9629.4704834646127
40
-9629.4704834646127
40
-9613.5245462293133
40
-9613.5245462293133
40
-9599.1701300295681
40
-9599.1701300295681
40
-9577.6094531919098
40
-9577.6094531919098
40
-9550.500983500091
40
-9550.500983500091
40
-9533.0819012382271
40
-9533.0819012382271
40
-9520.1421791519206
40
-9520.1421791519206
40
-9510.6358226440643
40
-9510.6358226440643
40
-9500.9764562988657
40
-9500.9764562988657
40
-9481.2644737945757
40
-9481.2644737945757
40
-9469.5760527467773
40
-9469.5760527467773
40
-9463.265822346817
40
-9463.265822346817
40
-9457.742055729017
40
-9457.742055729017
40
-9451.3268065459779
40
-9451.3268065459779
40
-9441.8767993883484
40
-9441.8767993883484
40
-9416.9071288342293
40
-9416.9071288342293
40
-9368.6722947384696
40
-9368.6722947384696
40
-9359.9715136637842
40
-9359.9715136637842
40
-9357.4180763279765
40
-9357.4180763279765
40
-9356.3417605490358
40
-9356.3417605490358
40
-9355.712920955044
40
-9355.712920955044
40
-9355.1715743052591
40
-9355.1715743052591
40
-9354.5433759565913
40
-9354.5433759565913
40
-9353.5433788253322
40
-9353.5433788253322
40
-9350.5064327258697
40
-9350.5064327258697
40
-9338.1700378924834
40
-9338.1700378924834
40
-9333.8382050149248
40
-9333.8382050149248
40
-9331.3958068675875
40
-9331.3958068675875
40
-9329.375715099879
40
-9329.375715099879
40
-9327.1888380976761
40
-9327.1888380976761
40
-9323.2654148287056
40
-9323.2654148287056
40
-9321.153930331282
40
-9321.153930331282
40
-9319.8363996677017
40
-9319.8363996677017
40
-9318.5624153242843
40
-9318.5624153242843
40
-9316.8903394681038
40
-9316.8903394681038
40
-9314.0329355096655
40
-9314.0329355096655
40
-9307.0352060569803
40
-9307.0352060569803
40
-9283.9899472012421
40
-9283.9899472012421
40
-9252.4585917448476
40
-9252.4585917448476
40
-9236.3969839849051
40
-9236.3969839849051
40
-9221.6841405090181
40
-9221.6841405090181
40
-9202.4760263920016
40
-9202.4760263920016
40
-9167.6648714757339
40
-9167.6648714757339
40
-9100.2852097536124
40
-9100.2852097536124
40
-9018.3690252224551
40
-9018.3690252224551
40
-8990.729337993851
40
-8990.729337993851
40
-8980.0790625675691
40
-8980.0790625675691
40
-8974.2301659720069
40
-8974.2301659720069
40
-8969.5370708193823
40
-8969.5370708193823
40
-8964.3227339470359
40
-8964.3227339470359
40
-8956.8794888421435
40
-8956.8794888421435
40
-8937.0095441620524
40
-8937.0095441620524
40
-8908.234785208042
40
-8908.234785208042
40
-8895.4530329905119
40
-8895.4530329905119
40
-8887.2688227636772
40
-8887.2688227636772
40
-8879.6780558931678
40
-8879.6780558931678
40
-8871.0299942853817
40
-8871.0299942853817
40
-8858.9674300702827
40
-8858.9674300702827
40
-8845.4391643697654
40
-8845.4391643697654
40
-8834.7996718433915
40
-8834.7996718433915
40
-8824.8114662618136
40
-8824.8114662618136
40
-8813.16482704589
40
-8813.16482704589
40
-8762.2614477402858
40
-8762.2614477402858
40
-8746.6692893462987
40
-8746.6692893462987
40
-8737.0561485510498
40
-8737.0561485510498
40
-8728.5004649349976
40
-8728.5004649349976
40
-8718.7133542764732
40
-8718.7133542764732
40
-8706.6616236791833
40
-8706.6616236791833
40
-8696.6879458526055
40
-8696.6879458526055
40
-8688.5783143246408
40
-8688.5783143246408
40
-8680.2748159962721
40
-8680.2748159962721
40
-8669.5394366419496
40
-8669.5394366419496
40
-8646.8630317257066
40
-8646.8630317257066
40
-8635.8387228137744
40
-8635.8387228137744
40
-8629.3974212177072
40
-8629.3974212177072
40
-8623.7089322288666
40
-8623.7089322288666
40
-8616.8850094779555
40
-8616.8850094779555
40
-8605.9075697820954
40
-8605.9075697820954
40
-8580.9052995037146
40
-8580.9052995037146
40
-8561.5371394489321
40
-8561.5371394489321
40
-8546.5831871163318
40
-8546.5831871163318
40
-8528.04280426685
40
-8528.04280426685
40
-8496.9010661678294
40
-8496.9010661678294
40
-8419.4818812901613
40
-8419.4818812901613
40
-8260.5974155762797
40
-8260.5974155762797
40
-8154.755985728626
40
-8154.755985728626
40
-8006.4314151046974
40
-8006.4314151046974
40
-7848.3640081407339
40
-7848.3640081407339
40
-7734.313477705573
40
-7734.313477705573
40
-7588.2691670661743
40
-7588.2691670661743
40
-7388.9219691636617
40
-7388.9219691636617
40
-7251.6519473684566
40
-7251.6519473684566
40
-7168.5712143527135
40
-7168.5712143527135
40
-7106.9085792996675
40
-7106.9085792996675
40
-7041.692934808133
40
-7041.692934808133
40
-6935.3318214703795
40
-6935.3318214703795
40
-6790.1404377173394
40
-6790.1404377173394
40
-6703.6510583060508
40
-6703.6510583060508
40
-6542.0784342039533
40
-6542.0784342039533
40
-6484.0841291284078
40
-6484.0841291284078
40
-6445.9388784517541
40
-6445.9388784517541
40
-6408.58690249347
40
-6408.58690249347
40
-6360.9071458324606
40
-6360.9071458324606
40
-6280.9331312558497
40
-6280.9331312558497
40
-6231.52598234367
40
-6231.52598234367
40
-6204.4066641076861
40
-6204.4066641076861
40
-6186.5155778841881
40
-6186.5155778841881
40
-6169.4200383024463
40
-6169.4200383024463
40
-6147.412092509845
40
-6147.412092509845
40
-6105.0138708516133
40
-6105.0138708516133
40
-6032.2059836887493
40
-6032.2059836887493
40
-5991.7031034180836
40
-5991.7031034180836
40
-5956.4114360325812
40
-5956.4114360325812
40
-5917.8875503803938
40
-5917.8875503803938
40
-5870.6961356627353
40
-5870.6961356627353
40
-5825.9182070076331
40
-5825.9182070076331
40
-5787.4938810537415
40
-5787.4938810537415
40
-5747.920819396345
40
-5747.920819396345
40
-5697.1868594000061
40
-5697.1868594000061
40
-5620.2427816143418
40
-5620.2427816143418
40
-5397.3652230773041
40
-5397.3652230773041
40
-5275.0428531408297
40
-5275.0428531408297
40
-5199.0421931712517
40
-5199.0421931712517
40
-5126.9959469276
40
-5126.9959469276
40
-5034.4515268080395
40
-5034.4515268080395
40
-4927.4038517323743
40
-4927.4038517323743
40
-4853.7881959086253
40
-4853.7881959086253
40
-4800.2645774395769
40
-4800.2645774395769
40
-4749.8176794106703
40
-4749.8176794106703
40
-4691.3061595190184
40
-4691.3061595190184
40
-4611.72884497413
40
-4611.72884497413
40
-4368.6679570392835
40
-4368.6679570392835
40
-4249.2255427195123
40
-4249.2255427195123
40
-4182.0609736555207
40
-4182.0609736555207
40
-4118.9952461542107
40
-4118.9952461542107
40
-4047.0942353011355
40
-4047.0942353011355
40
-3938.7240099665592
40
-3938.7240099665592
40
-3825.1896440590531
40
-3825.1896440590531
40
-3740.5921048061546
40
-3740.5921048061546
40
-3661.8177723177569
40
-3661.8177723177569
40
-3573.259196940629
40
-3573.259196940629
40
-3448.7963145460262
40
-3448.7963145460262
40
-3215.2614001091915
40
-3215.2614001091915
40
-2914.0103910379776
40
-2914.0103910379776
40
-2792.3469780910132
40
-2792.3469780910132
40
-2726.1634089267413
40
-2726.1634089267413
40
-2675.1884162093465
40
-2675.1884162093465
40
-2621.244343282925
40
-2621.244343282925
40
-2546.3229040625861
40
-2546.3229040625861
40
-2407.7479462186079
40
-2407.7479462186079
40
-2326.4418223321613
40
-2326.4418223321613
40
-2259.5512585197157
40
-2259.5512585197157
40
-2042.8907367874353
40
-2042.8907367874353
40
-1932.4876189777406
40
-1932.4876189777406
40
-1883.6953142212139
40
-1883.6953142212139
40
-1855.5457047465584
40
-1855.5457047465584
40
-1832.3826973377136
40
-1832.3826973377136
40
-1808.313741934574
40
-1808.313741934574
40
-1777.3754106286722
40
-1777.3754106286722
40
-1752.5161872206354
40
-1752.5161872206354
40
-1730.7064822511602
40
-1730.7064822511602
40
-1688.8091987101425
40
-1688.8091987101425
40
-1615.563879667621
40
-1615.563879667621
40
-1571.0398130195381
40
-1571.0398130195381
40
-1549.9003492646
40
-1549.9003492646
40
-1535.6702601229026
40
-1535.6702601229026
40
-1522.263443612329
40
-1522.263443612329
40
-1507.8357147772815
40
-1507.8357147772815
40
-1494.3202323055752
40
-1494.3202323055752
40
-1483.729169317777
40
-1483.729169317777
40
-1474.1868526509797
40
-1474.1868526509797
40
-1463.24834156774
40
-1463.24834156774
40
-1436.6619251772306
40
-1436.6619251772306
40
-1419.2842478631501
40
-1419.2842478631501
40
-1409.0320988049607
40
-1409.0320988049607
40
-1400.1345662342264
40
-1400.1345662342264
40
-1390.5293927828864
40
-1390.5293927828864
40
-1379.0018906446483
40
-1379.0018906446483
40
-1367.9569637814254
40
-1367.9569637814254
40
-1356.7417513871408
40
-1356.7417513871408
40
-1343.1785075479504
40
-1343.1785075479504
40
-1289.2878600659326
40
-1289.2878600659326
40
-1212.8437712245097
40
-1212.8437712245097
40
-1151.2526076385764
40
-1151.2526076385764
40
-1126.3757799379778
40
-1126.3757799379778
40
-1114.0643302757012
40
-1114.0643302757012
40
-1105.7385962640251
40
-1105.7385962640251
40
-1097.6278255095024
40
-1097.6278255095024
40
-1087.2141716431927
40
-1087.2141716431927
40
-1045.7585245884359
40
-1045.7585245884359
40
-1030.9402239413887
40
-1030.9402239413887
40
-1021.4181152211247
40
-1021.4181152211247
40
-1012.0690268637552
40
-1012.0690268637552
40
-1001.1513222043554
40
-1001.1513222043554
40
-980.59604931118554
40
-980.59604931118554
40
-965.45867713579844
40
-965.45867713579844
40
-955.58906300802857
40
-955.58906300802857
40
-945.20080936463455
40
-945.20080936463455
40
-930.08126522984048
40
-930.08126522984048
40
-907.57570492391358
40
-907.57570492391358
40
-895.40924225336619
40
-895.40924225336619
40
-885.71120888552798
40
-885.71120888552798
40
-875.95791055899781
40
-875.95791055899781
40
-865.45926901311179
40
-865.45926901311179
40
-854.37984094919182
40
-854.37984094919182
40
-844.59165919206418
40
-844.59165919206418
40
-834.12201561844643
40
-834.12201561844643
40
-814.64403920990833
40
-814.64403920990833
40
-806.32317793010714
40
-806.32317793010714
40
-800.44480591355148
40
-800.44480591355148
40
-794.5999844446776
40
-794.5999844446776
40
-787.1214132110631
40
-787.1214132110631
40
-773.92063592158581
40
-773.92063592158581
40
-726.96518214340415
40
-726.96518214340415
40
-697.37876000392282
40
-697.37876000392282
40
-674.29977744555322
40
-674.29977744555322
40
-647.48291384112213
40
-647.48291384112213
40
-613.86128983649644
40
-613.86128983649644
40
-591.29392119130694
40
-591.29392119130694
40
-575.8296070645506
40
-575.8296070645506
40
-561.46757246779998
40
-561.46757246779998
40
-544.10922802494383
40
-544.10922802494383
40
-504.19834179005966
40
-504.19834179005966
40
-406.30046163716173
40
-406.30046163716173
40
-371.35571991350906
40
-371.35571991350906
40
-358.55153665093172
40
-358.55153665093172
40
-353.33870540598031
40
-353.33870540598031
40
-350.24224870730376
40
-350.24224870730376
40
-347.43830651574808
40
-347.43830651574808
40
-344.06344216491328
40
-344.06344216491328
40
-338.64074309858364
40
-338.64074309858364
40
-320.66711645543285
40
-320.66711645543285
40
-308.27914838540988
40
-308.27914838540988
40
-304.13673946237139
40
-304.13673946237139
40
-302.26608699101632
40
-302.26608699101632
40
-301.23961764891396
40
-301.23961764891396
40
-300.42151615553377
40
-300.42151615553377
40
-299.50091763785736
40
-299.50091763785736
40
-298.14641076117925
40
-298.14641076117925
40
-291.58229223634754
40
-291.58229223634754
40
-283.34918390064956
40
-283.34918390064956
40
-280.27983665607815
40
-280.27983665607815
40
-278.79952116011776
40
-278.79952116011776
40
-277.84986596353122
40
-277.84986596353122
40
-276.99946525314527
40
-276.99946525314527
40
-276.06317630535978
40
-276.06317630535978
40
-274.8816324153791
40
-274.8816324153791
40
-271.88914719289903
40
-271.88914719289903
40
-270.17993362630773
40
-270.17993362630773
40
-268.3990667008502
40
-268.3990667008502
40
-267.22599988534267
40
-267.22599988534267
40
-266.54969713557665
40
-266.54969713557665
40
-266.08383405074136
40
-266.08383405074136
40
-265.6325234878181
40
-265.6325234878181
40
-265.05823841262986
40
-265.05823841262986
40
-264.15845401715904
40
-264.15845401715904
40
-260.41760714517375
40
-260.41760714517375
40
-258.501989804978
40
-258.501989804978
40
-257.41308143129578
40
-257.41308143129578
40
-256.44137539767183
40
-256.44137539767183
40
-255.28152114850508
40
-255.28152114850508
40
-253.08420235028885
40
-253.08420235028885
40
-250.56024004299962
40
-250.56024004299962
40
-249.18046258695148
40
-249.18046258695148
40
-247.77869521913809
40
-247.77869521913809
40
-243.31114546179231
40
-243.31114546179231
40
-241.11469542433093
40
-241.11469542433093
40
-239.84994616060891
40
-239.84994616060891
40
-238.82262614377493
40
-238.82262614377493
40
-237.74482637387558
40
-237.74482637387558
40
-236.41639052230602
40
-236.41639052230602
40
-235.03393566191994
40
-235.03393566191994
40
-233.82640829098577
40
-233.82640829098577
40
-232.55672085550884
40
-232.55672085550884
40
-227.52348663142195
40
-227.52348663142195
40
-224.75106059974536
40
-224.75106059974536
40
-221.26795599861956
40
-221.26795599861956
40
-218.52515734541976
40
-218.52515734541976
40
-217.04678937418018
40
-217.04678937418018
40
-216.09748887112377
40
-216.09748887112377
40
-215.21400619119649
40
-215.21400619119649
40
-214.12460437615894
40
-214.12460437615894
40
-208.87840838912459
40
-208.87840838912459
40
-206.92999195212607
40
-206.92999195212607
40
-205.62762959523556
40
-205.62762959523556
40
-204.36727754240277
40
-204.36727754240277
40
-202.84777676481903
40
-202.84777676481903
40
-201.00846035012688
40
-201.00846035012688
40
-199.30046664317669
40
-199.30046664317669
40
-197.11753992833903
40
-197.11753992833903
40
-188.2821908245372
40
-188.2821908245372
40
-184.27909977629039
40
-184.27909977629039
40
-181.18745136731877
40
-181.18745136731877
40
-177.84884094359984
40
-177.84884094359984
40
-174.62079559540291
40
-174.62079559540291
40
-172.73449823398113
40
-172.73449823398113
40
-171.6409915595782
40
-171.6409915595782
40
-170.88059343839097
40
-170.88059343839097
40
-170.13378636540298
40
-170.13378636540298
40
-169.15813320609053
40
-169.15813320609053
40
-167.64140269137232
40
-167.64140269137232
40
-157.35170831724491
40
-157.35170831724491
40
-152.41460691574648
40
-152.41460691574648
40
-148.09175407913207
40
-148.09175407913207
40
-143.65769822466481
40
-143.65769822466481
40
-135.20338366268112
40
-135.20338366268112
40
-131.2264139849899
40
-131.2264139849899
40
-129.49443021890772
40
-129.49443021890772
40
-128.56029589689638
40
-128.56029589689638
40
-127.85281810201822
40
-127.85281810201822
40
-127.11724572883038
40
-127.11724572883038
40
-126.0937220983828
40
-126.0937220983828
40
-124.43198190030549
40
-124.43198190030549
40
-118.14905037366394
40
-118.14905037366394
40
-113.04113727429262
40
-113.04113727429262
40
-106.34554993273447
40
-106.34554993273447
40
-98.06883817792766
40
-98.06883817792766
40
-94.000897580881713
40
-94.000897580881713
40
-92.165186140837449
40
-92.165186140837449
40
-91.204097631879691
40
-91.204097631879691
40
-90.505264568000143
40
-90.505264568000143
40
-89.790418024337058
40
-89.790418024337058
40
-88.805908254221791
40
-88.805908254221791
40
-87.12345498431722
40
-87.12345498431722
40
-66.451829183010375
40
-66.451829183010375
40
-62.848537233387951
40
-62.848537233387951
40
-61.762499887674849
40
-61.762499887674849
40
-61.322283669462934
40
-61.322283669462934
40
-61.074290568453797
40
-61.074290568453797
40
-60.869666713845994
40
-60.869666713845994
40
-60.638954267394126
40
-60.638954267394126
40
-60.280103846066631
40
-60.280103846066631
40
-59.190070188773099
40
-59.190070188773099
40
-56.737249016657252
40
-56.737249016657252
40
-48.340813482699865
40
-48.340813482699865
40
-46.284509115020533
40
-46.284509115020533
40
-44.671364325247971
40
-44.671364325247971
40
-41.781751552120859
40
-41.781751552120859
40
-40.448691523509311
40
-40.448691523509311
40
-39.633010513340672
40
-39.633010513340672
40
-38.820216695006636
40
-38.820216695006636
40
-37.782722504613659
40
-37.782722504613659
40
-35.259423299255658
40
-35.259423299255658
40
-34.073611284686919
40
-34.073611284686919
40
-33.121797314738544
40
-33.121797314738544
40
-32.092009059743305
40
-32.092009059743305
40
-30.714046040584588
40
-30.714046040584588
40
-29.224180061505109
40
-29.224180061505109
40
-28.139762699339723
40
-28.139762699339723
40
-27.15397801767806
40
-27.15397801767806
40
-25.987906171912702
40
-25.987906171912702
40
-23.882675226612673
40
-23.882675226612673
40
-22.353338372528079
40
-22.353338372528079
40
-21.542962183723844
40
-21.542962183723844
40
-19.905361577720953
40
-19.905361577720953
40
-19.006723623828634
40
-19.006723623828634
40
-18.337479099934868
40
-18.337479099934868
40
-17.73476500855887
40
-17.73476500855887
40
-17.455404317083676
40
-17.455404317083676
40
-17.284986784792213
40
-17.284986784792213
40
-17.128026716067538
40
-17.128026716067538
40
-16.953578358599231
40
-16.953578358599231
40
-16.721208579463227
40
-16.721208579463227
40
-16.178081696478078
40
-16.178081696478078
40
-15.759336216908547
40
-15.759336216908547
40
-15.577846718613147
40
-15.577846718613147
40
-15.47293782080383
40
-15.47293782080383
40
-15.38949305880633
40
-15.38949305880633
40
-15.300656808363406
40
-15.300656808363406
40
-15.175654688703158
40
-15.175654688703158
40
-14.982003100822359
40
-14.982003100822359
40
-14.322404111085394
40
-14.322404111085394
40
-13.543050405584625
40
-13.543050405584625
40
-12.758618207572704
40
-12.758618207572704
40
-12.296687545667021
40
-12.296687545667021
40
-12.047311893194294
40
-12.047311893194294
40
-11.897487824532851
40
-11.897487824532851
40
-11.774374683102268
40
-11.774374683102268
40
-11.637202348855343
40
-11.637202348855343
40
-11.429503500655661
40
-11.429503500655661
40
-10.96352037592276
40
-10.96352037592276
40
-8.6701599435945198
40
-8.6701599435945198
40
-8.0058262082210678
40
-8.0058262082210678
40
-7.6943052646270464
40
-7.6943052646270464
40
-7.5076540538153207
40
-7.5076540538153207
40
-7.3458292728064656
40
-7.3458292728064656
40
-7.1565084721472099
40
-7.1565084721472099
40
-6.7561443720076007
40
-6.7561443720076007
40
-5.903707089578373
40
-5.903707089578373
40
-5.5936067510544687
40
-5.5936067510544687
40
-5.4250794095597037
40
-5.4250794095597037
40
-5.2980053826123106
40
-5.2980053826123106
40
-5.1603232337994642
40
-5.1603232337994642
40
-4.9556123554600493
40
-4.9556123554600493
40
-4.3764585508920346
40
-4.3764585508920346
40
-3.3431605782624043
40
-3.3431605782624043
40
-2.934657112781546
40
-2.934657112781546
40
-2.8471664590348453
40
-2.8471664590348453
40
-2.8335325941965648
40
-2.8335325941965648
40
-2.8301604559752365
40
-2.8301604559752365
40
-2.8289047510642851
40
-2.8289047510642851
40
-2.8282468293452023
40
-2.8282468293452023
40
-2.8277470979938473
40
-2.8277470979938473
40
-2.827213593718672
40
-2.827213593718672
40
-2.8264296336520238
40
-2.8264296336520238
40
-2.8250104185525537
40
-2.8250104185525537
40
-2.8207679561771304
40
-2.8207679561771304
40
-2.808904139397443
40
-2.808904139397443
40
-2.7851277572051769
40
-2.7851277572051769
40
-2.5971374633768769
40
-2.5971374633768769
40
-2.169397245561103
40
-2.169397245561103
40
-1.9016964340031008
40
-1.9016964340031008
40
-1.7900849491095365
40
-1.7900849491095365
40
-1.7283856506060504
40
-1.7283856506060504
40
-1.6806755479344626
40
-1.6806755479344626
40
-1.6304375425566835
40
-1.6304375425566835
40
-1.5597998708453316
40
-1.5597998708453316
40
-1.4494512912833393
40
-1.4494512912833393
40
-1.2478766256517992
40
-1.2478766256517992
40
-1.0584476464949961
40
-1.0584476464949961
40
-0.84057770432150525
40
-0.84057770432150525
40
-0.57747914803995271
40
-0.57747914803995271
40
-0.36168583470852556
40
-0.36168583470852556
40
-0.21853231451351909
40
-0.21853231451351909
40
-0.11164407676044151
40
-0.11164407676044151
40
0
40
0
40
0
40
0
10
-231.73054601628417
20
25
30
0
10
-232.16883805902171
20
25.938330688134016
30
0
10
-233.06390901905817
20
26.652614605036096
30
0
10
-233.38375560576142
20
27.570021390196814
30
0
10
-233.40113812215685
20
27.689175924417526
30
0
10
-233.40423032948908
20
27.87056098519087
30
0
10
-233.39259029630028
20
27.945536514766665
30
0
10
-233.35548083816735
20
28.057702884357173
30
0
10
-233.33237733646519
20
28.104136020913067
30
0
10
-233.27620103110505
20
28.175583480973518
30
0
10
-233.24679044225758
20
28.202528247834579
30
0
10
-233.17888485836926
20
28.243149283761319
30
0
10
-233.14213533544427
20
28.256028622200144
30
0
10
-233.05720019737888
20
28.268012631418674
30
0
10
-233.01084170638117
20
28.263858768483971
30
0
10
-232.89736956168898
20
28.234914868084928
30
0
10
-232.8322617759095
20
28.200713495953174
30
0
10
-232.67211595652589
20
28.092689785547542
30
0
10
-232.5764214791252
20
27.998841567374079
30
0
10
-232.37945081335013
20
27.787031154609643
30
0
10
-232.28190449370376
20
27.667499519921858
30
0
10
-232.16179442307177
20
27.558306371012762
30
0
10
-232.13022912053435
20
27.534233490284755
30
0
10
-232.08306973898317
20
27.509498806351786
30
0
10
-232.06469403512267
20
27.50226346586631
30
0
10
-232.03081297499716
20
27.49657162326195
30
0
10
-232.01601333640298
20
27.496614423116384
30
0
10
-231.98453495884334
20
27.503255462647743
30
0
10
-231.96924055125291
20
27.510436444628652
30
0
10
-231.93569570896702
20
27.533319095506101
30
0
10
-231.91707358294863
20
27.552197462365982
30
0
10
-231.86125296566541
20
27.625770093555918
30
0
10
-231.82580469269195
20
27.696315461237507
30
0
10
-231.7013389546529
20
27.983515744750296
30
0
10
-231.60686937938621
20
28.264699289886416
30
0
10
-231.39820454156057
20
28.633515616968541
30
0
10
-231.31674146277786
20
28.750930571609807
30
0
10
-231.14367182921401
20
28.916902142537978
30
0
10
-231.06154238787593
20
28.974496151506393
30
0
10
-230.86889831279339
20
29.057098955631421
30
0
10
-230.76489392170288
20
29.076503430293258
30
0
10
-230.47429423838304
20
29.080062541168779
30
0
10
-230.28836234903048
20
29.030183765813927
30
0
10
-229.90550091676567
20
28.889736133668961
30
0
10
-229.71340907348431
20
28.791240887790856
30
0
10
-229.52271768333279
20
28.724776360390543
30
0
10
-229.48083866801002
20
28.713608584681175
30
0
10
-229.42724575493347
20
28.708377266640305
30
0
10
-229.40841782391144
20
28.708300745789206
30
0
10
-229.37907353545071
20
28.714369071357627
30
0
10
-229.36786423609993
20
28.718445346370025
30
0
10
-229.34747167166387
20
28.731114070869062
30
0
10
-229.33900306005444
20
28.73926716812128
30
0
10
-229.32242355620792
20
28.762540570398162
30
0
10
-229.31622487451153
20
28.77837605163586
30
0
10
-229.30442987917857
20
28.824836166290048
30
0
10
-229.30241352228634
20
28.863744573291385
30
0
10
-229.32531600066258
20
29.194512536482264
30
0
10
-229.52893852513259
20
29.765529926081506
30
0
10
-229.83297054103431
20
30.918415470126071
30
0
10
-229.94978672832804
20
31.462122887907938
30
0
10
-229.96961498543715
20
32.262435151909507
30
0
10
-229.93752362641825
20
32.503820932467249
30
0
10
-229.81601192297518
20
32.91532141957353
30
0
10
-229.72301319435996
20
33.078753800851985
30
0
10
-229.43296573325685
20
33.434222546672956
30
0
10
-229.21504446961023
20
33.564944554190426
30
0
10
-228.98409957119412
20
33.737111545861282
30
0
10
-228.92544250792179
20
33.785816661614867
30
0
10
-228.85000902177774
20
33.877051963364309
30
0
10
-228.82553916083924
20
33.917152889206001
30
0
10
-228.79227557625154
20
34.012595197798035
30
0
10
-228.78644961460981
20
34.065012168814491
30
0
10
-228.79297846840419
20
34.203399169367309
30
0
10
-228.81376923398409
20
34.289921514676543
30
0
10
-228.86544067547871
20
34.489204017276251
30
0
10
-228.89705162281118
20
34.601822524716333
30
0
10
-228.91223729186441
20
34.77552043917855
30
0
10
-228.91078724711858
20
34.838639541567971
30
0
10
-228.88384996542626
20
34.95701930575224
30
0
10
-228.86092413138525
20
35.008947528895106
30
0
10
-228.78411892936927
20
35.118238334530517
30
0
10
-228.72656839995352
20
35.167964445707021
30
0
10
-228.50909858275742
20
35.309701279979031
30
0
10
-228.28894596750661
20
35.379011936078889
30
0
10
-227.56606455605265
20
35.528605484893149
30
0
10
-227.0088868878527
20
35.565553662622605
30
0
10
-226.49012575707641
20
35.673740401188248
30
0
10
-226.38138722548061
20
35.704943292844689
30
0
10
-226.25686977779588
20
35.763658248190822
30
0
10
-226.21588524294853
20
35.787668406680268
30
0
10
-226.1613045223711
20
35.837309391085846
30
0
10
-226.14292990134123
20
35.859423555062115
30
0
10
-226.11649714759918
20
35.909606291386645
30
0
10
-226.10899068295669
20
35.935825333772215
30
0
10
-226.10323444817072
20
36.000554557942927
30
0
10
-226.10907925944218
20
36.037913836633273
30
0
10
-226.14545776714482
20
36.162945560288279
30
0
10
-226.20724923069577
20
36.265668796158835
30
0
10
-226.42756581581008
20
36.556457785574551
30
0
10
-226.61748033974573
20
36.759983881517606
30
0
10
-227.1857383897281
20
37.378886063845577
30
0
10
-227.60433318164309
20
37.843680169144356
30
0
10
-228.12648308922354
20
38.737665921571519
30
0
10
-228.28115212851654
20
39.118564191095587
30
0
10
-228.46259220423914
20
40.228654529214872
30
0
10
-228.29500237680989
20
40.78599007109095
30
0
10
-228.20392955215613
20
41.298795500524299
30
0
10
-228.19238761033193
20
41.402480548721215
30
0
10
-228.20791653355434
20
41.608203366465006
30
0
10
-228.24063503333201
20
41.689461934281312
30
0
10
-228.33511376711894
20
41.87342653769182
30
0
10
-228.39660757219326
20
41.971666580684527
30
0
10
-228.48808726370223
20
42.252570587585183
30
0
10
-228.51341926448183
20
42.431046781597502
30
0
10
-228.45454940967929
20
43.157735059312046
30
0
10
-228.26871362699279
20
43.737731507935038
30
0
10
-227.99082339782316
20
44.582863600887023
30
0
10
-227.89254708924489
20
44.875409361223589
30
0
10
-227.83972283729781
20
45.146281426231035
30
0
10
-227.83339479000617
20
45.203701449116984
30
0
10
-227.83624686761971
20
45.269426525644512
30
0
10
-227.83901230096987
20
45.291429842829238
30
0
10
-227.84962691093043
20
45.322043832424413
30
0
10
-227.85492550987334
20
45.332746056430153
30
0
10
-227.86861541143426
20
45.350029395845709
30
0
10
-227.87619815748073
20
45.356592704613725
30
0
10
-227.89562643046588
20
45.367459740725195
30
0
10
-227.90718328926084
20
45.370718344440292
30
0
10
-227.93697646854713
20
45.3744135314668
30
0
10
-227.95661339823542
20
45.372762525521694
30
0
10
-228.06120722923598
20
45.352225305873858
30
0
10
-228.17922812307802
20
45.290545949420633
30
0
10
-228.52094996019898
20
45.096308923245246
30
0
10
-228.76787116279701
20
44.944446320005824
30
0
10
-229.09920481235102
20
44.814425718353419
30
0
10
-229.20500437201295
20
44.781704897999681
30
0
10
-229.361951895385
20
44.766216652945907
30
0
10
-229.41890601516639
20
44.76716395811173
30
0
10
-229.5132830911821
20
44.788735512009552
30
0
10
-229.55125661670724
20
44.804073598467113
30
0
10
-229.62015703834561
20
44.850206918065936
30
0
10
-229.64880098803394
20
44.879706725862661
30
0
10
-229.70222901929091
20
44.960319858289992
30
0
10
-229.7212869165952
20
45.012916802713093
30
0
10
-229.7504852644837
20
45.151479943879664
30
0
10
-229.75016480079586
20
45.243137419468923
30
0
10
-229.72298430063142
20
45.528236781756149
30
0
10
-229.65811817363044
20
45.740165363428815
30
0
10
-229.56247574370479
20
46.080035763600762
30
0
10
-229.52610891306313
20
46.219283244537557
30
0
10
-229.51066756412791
20
46.409586894729415
30
0
10
-229.51176104607947
20
46.475982602338675
30
0
10
-229.53673020757063
20
46.586622406882974
30
0
10
-229.55468762713767
20
46.631169140143385
30
0
10
-229.61128872973558
20
46.716184767058955
30
0
10
-229.64944105211814
20
46.752484529909715
30
0
10
-229.75884341941668
20
46.82567550045011
30
0
10
-229.83566811807282
20
46.853698754362895
30
0
10
-230.05714068128754
20
46.904404136021903
30
0
10
-230.22725276540382
20
46.905751373222735
30
0
10
-230.50544571198398
20
46.860525497658294
30
0
10
-230.62590797822352
20
46.825551522830231
30
0
10
-230.79494949161526
20
46.738086731446089
30
0
10
-230.85587776004363
20
46.696334838408433
30
0
10
-230.94579604497116
20
46.602502074339782
30
0
10
-230.97769217260202
20
46.555187196033188
30
0
10
-231.02340688566289
20
46.442105280034617
30
0
10
-231.03298955792604
20
46.380113942084165
30
0
10
-231.03338512148082
20
46.199491640361046
30
0
10
-231.00237998837602
20
46.079358775953835
30
0
10
-230.95667482169318
20
45.880306159053042
30
0
10
-230.93953390394552
20
45.798490863560204
30
0
10
-230.93682314208149
20
45.677925552728873
30
0
10
-230.94079835088505
20
45.634030469108538
30
0
10
-230.96470663654657
20
45.555335341570697
30
0
10
-230.98203778568401
20
45.52199154613308
30
0
10
-231.03467002234328
20
45.456760150645877
30
0
10
-231.07064383772627
20
45.428852112627325
30
0
10
-231.17025548466955
20
45.374217451975937
30
0
10
-231.24201503442481
20
45.353304286948912
30
0
10
-231.42675157025235
20
45.329221183660906
30
0
10
-231.54688425404342
20
45.336498030932226
30
0
10
-231.74759189862783
20
45.388055337514743
30
0
10
-231.83201419578896
20
45.423156710315297
30
0
10
-231.96499862810759
20
45.511988690816636
30
0
10
-232.01693649970994
20
45.560168741320325
30
0
10
-232.1009414571501
20
45.677292800316287
30
0
10
-232.12980648085644
20
45.743242185688857
30
0
10
-232.16798061613446
20
45.90899036988376
30
0
10
-232.16679130568565
20
46.007474227068002
30
0
10
-232.12640330111395
20
46.297548518307849
30
0
10
-232.04665521649349
20
46.499974701330721
30
0
10
-231.89756668193763
20
46.849703028433055
30
0
10
-231.82730587532279
20
47.002405887188125
30
0
10
-231.77641323395983
20
47.183907237339341
30
0
10
-231.76679787501706
20
47.23492146850522
30
0
10
-231.76662186310256
20
47.30978833397873
30
0
10
-231.77003831683521
20
47.338076000468014
30
0
10
-231.78748203739929
20
47.388993254072346
30
0
10
-231.79999512426545
20
47.410542451541531
30
0
10
-231.83772167010645
20
47.452743649202411
30
0
10
-231.86348210032725
20
47.470409264357365
30
0
10
-231.95216470003533
20
47.514816714224118
30
0
10
-232.03251636253293
20
47.531935053833941
30
0
10
-232.29630259431156
20
47.563112707710395
30
0
10
-232.50202979254144
20
47.560661347587654
30
0
10
-232.72988403476512
20
47.594941535574279
30
0
10
-232.78811993531434
20
47.608369380417912
30
0
10
-232.86456371915978
20
47.641372153358326
30
0
10
-232.89120434835172
20
47.65662129183967
30
0
10
-232.93191091557975
20
47.692910542094566
30
0
10
-232.94673855068356
20
47.711711193754013
30
0
10
-232.97019884838653
20
47.75869026614015
30
0
10
-232.97655350849539
20
47.785804724193056
30
0
10
-232.98162571584908
20
47.853903511710527
30
0
10
-232.97597473856283
20
47.897470064642881
30
0
10
-232.91127882304036
20
48.163800647896792
30
0
10
-232.71938090909754
20
48.467226726851521
30
0
10
-232.52320786348602
20
48.918101231238033
30
0
10
-232.47349668788772
20
49.060462111165734
30
0
10
-232.44043156769808
20
49.286686956284854
30
0
10
-232.43895002086435
20
49.375480353839727
30
0
10
-232.47119580228207
20
49.541062616437301
30
0
10
-232.50084539178249
20
49.613875093772947
30
0
10
-232.59695610563324
20
49.7578957865882
30
0
10
-232.66518664236099
20
49.821880797762162
30
0
10
-232.86114169882785
20
49.955092949071258
30
0
10
-233.00278888050315
20
50.008966828909891
30
0
10
-233.24319819486635
20
50.060268944899981
30
0
10
-233.35169932686821
20
50.068624328451875
30
0
10
-233.50889374720157
20
50.052096412262173
30
0
10
-233.56869321930532
20
50.038611271349119
30
0
10
-233.66268956804734
20
49.995868854123991
30
0
10
-233.69903405567101
20
49.971893950187834
30
0
10
-233.76204424457393
20
49.908290162757439
30
0
10
-233.78582078231219
20
49.870575842272302
30
0
10
-233.8429865941126
20
49.730350130222654
30
0
10
-233.84579121187124
20
49.613564453962454
30
0
10
-233.84877914958116
20
49.405905264505499
30
0
10
-233.84943304713681
20
49.314985618408294
30
0
10
-233.87408130574428
20
49.187281540008271
30
0
10
-233.88769077088938
20
49.142827380019142
30
0
10
-233.92828616000872
20
49.068486245962461
30
0
10
-233.95197963403342
20
49.038913939685926
30
0
10
-234.0159349269835
20
48.985536133114699
30
0
10
-234.05569825846089
20
48.965459020634228
30
0
10
-234.16017032332439
20
48.932811684981338
30
0
10
-234.230054765505
20
48.927123911543966
30
0
10
-234.40576435634014
20
48.940160641779414
30
0
10
-234.51693433198329
20
48.971088915518564
30
0
10
-234.70031109457548
20
49.062776400162413
30
0
10
-234.77623675464781
20
49.116161370369056
30
0
10
-234.89012238288976
20
49.234861944958794
30
0
10
-234.93210427645138
20
49.295800790471901
30
0
10
-234.99165312419501
20
49.435056220476987
30
0
10
-235.00627519505048
20
49.509791531973477
30
0
10
-235.00777114088987
20
49.690590708953657
30
0
10
-234.9837275559413
20
49.792991301873137
30
0
10
-234.87644104771636
20
50.081130845586941
30
0
10
-234.75138319807576
20
50.269053354767465
30
0
10
-234.52349584121109
20
50.592524959182683
30
0
10
-234.41883553996564
20
50.732862348428405
30
0
10
-234.3273282812099
20
50.906953328415064
30
0
10
-234.30627198981071
20
50.957015774177634
30
0
10
-234.2896621635129
20
51.032931602900497
30
0
10
-234.28684964017964
20
51.062147343801186
30
0
10
-234.29291052972548
20
51.115924044364306
30
0
10
-234.3001198386404
20
51.13938416443694
30
0
10
-234.32659160194186
20
51.18778968734577
30
0
10
-234.34682119334275
20
51.210022203572841
30
0
10
-234.40475982968724
20
51.257312712216738
30
0
10
-234.44844182979463
20
51.280293554217479
30
0
10
-234.81292343084945
20
51.425121256484346
30
0
10
-235.44217920118811
20
51.435156152775718
30
0
10
-236.03648130894098
20
51.53196229444297
30
0
10
-236.15518793895293
20
51.559269153330625
30
0
10
-236.29019457674201
20
51.614294659420864
30
0
10
-236.33023043703184
20
51.635429331794768
30
0
10
-236.38201564811726
20
51.676855501533872
30
0
10
-236.39974954216197
20
51.695144666483003
30
0
10
-236.42495871176581
20
51.735323133900735
30
0
10
-236.4328258222547
20
51.755585461076961
30
0
10
-236.44089036812744
20
51.803429662239182
30
0
10
-236.43906497070526
20
51.829684584912471
30
0
10
-236.42508964004949
20
51.892927497522841
30
0
10
-236.40807429268676
20
51.931470104001065
30
0
10
-236.34329515485334
20
52.044592327628642
30
0
10
-236.27873551907402
20
52.123789214203285
30
0
10
-236.05286358691944
20
52.375911347843846
30
0
10
-235.85287986515866
20
52.563462843837399
30
0
10
-235.65860289143114
20
52.818385818562305
30
0
10
-235.61172619450912
20
52.891805672343175
30
0
10
-235.56498516073876
20
53.006990150139536
30
0
10
-235.55262067883888
20
53.052147870670431
30
0
10
-235.54762313561085
20
53.13885478260049
30
0
10
-235.55288724824794
20
53.178114872477373
30
0
10
-235.58240809334606
20
53.261850315944415
30
0
10
-235.60869932905771
20
53.302244901342718
30
0
10
-235.73006186015991
20
53.441939904937598
30
0
10
-235.87565475643197
20
53.527102052243627
30
0
10
-236.14323853190697
20
53.682548003186483
30
0
10
-236.26313052235105
20
53.751815265722541
30
0
10
-236.41040601408571
20
53.876896105329124
30
0
10
-236.45410043600162
20
53.924196955818708
30
0
10
-236.51732146367044
20
54.026537704209034
30
0
10
-236.53684391483412
20
54.079135343991211
30
0
10
-236.56451524506207
20
54.254555328495762
30
0
10
-236.53773171762617
20
54.377845113633455
30
0
10
-236.48823314582157
20
54.599386978151145
30
0
10
-236.46646695163093
20
54.694916832969824
30
0
10
-236.46126205500312
20
54.842369765432224
30
0
10
-236.46579889478218
20
54.89689779252123
30
0
10
-236.4962772006628
20
55.000209294120175
30
0
10
-236.52042288561347
20
55.0457427252679
30
0
10
-236.5949544389774
20
55.137335291434951
30
0
10
-236.64772596803689
20
55.177638535692324
30
0
10
-236.79541708007403
20
55.259029078593016
30
0
10
-236.90360112588579
20
55.290701705926999
30
0
10
-237.12874488440534
20
55.320115396275078
30
0
10
-237.24758015684057
20
55.316583493943213
30
0
10
-237.41684617176622
20
55.27991665590524
30
0
10
-237.48116660972912
20
55.257860093013214
30
0
10
-237.57274059934667
20
55.203142918132251
30
0
10
-237.6056554281439
20
55.176701857672526
30
0
10
-237.65294446797668
20
55.118341609215008
30
0
10
-237.66909052393757
20
55.089176176821766
30
0
10
-237.68824974944732
20
55.025902287039933
30
0
10
-237.69105281270046
20
54.993728792817166
30
0
10
-237.68377881777695
20
54.920464263549647
30
0
10
-237.67073164247594
20
54.883477250722407
30
0
10
-237.62460721027895
20
54.783549839562923
30
0
10
-237.57938933295478
20
54.724139823224853
30
0
10
-237.51548558386509
20
54.57747412335695
30
0
10
-237.48685932270894
20
54.484505129068872
30
0
10
-237.48227911982804
20
54.165823112665954
30
0
10
-237.52146791707375
20
53.96304184836707
30
0
10
-237.63016046429175
20
53.673351869194647
30
0
10
-237.68318256355752
20
53.571329490358465
30
0
10
-237.7794046706953
20
53.444880290584571
30
0
10
-237.82046837275237
20
53.401314858919889
30
0
10
-237.89737409456507
20
53.347369549396404
30
0
10
-237.93024180905505
20
53.330380135454966
30
0
10
-237.99554612241133
20
53.312185171134836
30
0
10
-238.02620944676517
20
53.309314965955565
30
0
10
-238.09154284102669
20
53.316363611368118
30
0
10
-238.1240371051469
20
53.32747258250982
30
0
10
-238.19898305233212
20
53.368561020829254
30
0
10
-238.23762160870572
20
53.404214705335917
30
0
10
-238.33466815725922
20
53.52047326061421
30
0
10
-238.38003528259475
20
53.616071733338913
30
0
10
-238.57159359949486
20
54.099950730688505
30
0
10
-238.59035736368384
20
54.713163146334509
30
0
10
-238.58794556537961
20
55.7705298811277
30
0
10
-238.56352217133622
20
56.318327108758297
30
0
10
-238.63714139286952
20
56.941290349973457
30
0
10
-238.6720861208583
20
57.113770744395822
30
0
10
-238.76506829334096
20
57.341334481056272
30
0
10
-238.80842721794517
20
57.420366578257862
30
0
10
-238.90890480758881
20
57.5367551183367
30
0
10
-238.95892721468408
20
57.578598258829075
30
0
10
-239.07434784629797
20
57.639976160556479
30
0
10
-239.13636092838919
20
57.657956131884454
30
0
10
-239.27799661750208
20
57.671206939031492
30
0
10
-239.35591387964178
20
57.661248652211427
30
0
10
-239.52165819401205
20
57.610276783144776
30
0
10
-239.60788816705599
20
57.562314934741863
30
0
10
-239.75623137347952
20
57.438907343002782
30
0
10
-239.81844341495233
20
57.363251893009419
30
0
10
-239.90271141827608
20
57.205389424535809
30
0
10
-239.9389109816033
20
57.109882689525897
30
0
10
-239.97584281130261
20
56.732048635790726
30
0
10
-239.89364647502731
20
56.485488410157181
30
0
10
-239.81463413734286
20
56.186473747227112
30
0
10
-239.79431130293179
20
56.096815006866663
30
0
10
-239.79021869396223
20
55.949850837184513
30
0
10
-239.79865641994948
20
55.894863926789114
30
0
10
-239.8432170813532
20
55.774693521593733
30
0
10
-239.88404724749091
20
55.719234681999851
30
0
10
-239.98605147307757
20
55.590588375827295
30
0
10
-240.04906316267338
20
55.517337705905128
30
0
10
-240.17857698072834
20
55.253062648384841
30
0
10
-240.21635579641597
20
55.06700016769593
30
0
10
-240.25984230955299
20
54.494686729482027
30
0
10
-240.25044297759993
20
54.137998553061557
30
0
10
-240.29671893548283
20
53.763518537400913
30
0
10
-240.31509930676177
20
53.675084550510739
30
0
10
-240.3578928766207
20
53.565520631594637
30
0
10
-240.37738577433785
20
53.527577100099592
30
0
10
-240.42294408083734
20
53.471849617550795
30
0
10
-240.44562764491897
20
53.451879278953747
30
0
10
-240.50137868931915
20
53.42052764717846
30
0
10
-240.53272479701778
20
53.411322989509586
30
0
10
-240.62278152296807
20
53.400243574923223
30
0
10
-240.68641253162946
20
53.408475725829703
30
0
10
-240.87101451847499
20
53.452452962574867
30
0
10
-240.99980231984375
20
53.50348383888894
30
0
10
-241.21689518322182
20
53.56535613833735
30
0
10
-241.30420683151368
20
53.583819859352495
30
0
10
-241.45208417479805
20
53.586335047667262
30
0
10
-241.51268476281007
20
53.578379538900471
30
0
10
-241.63730872616043
20
53.535184173294255
30
0
10
-241.6949561098001
20
53.498878586360583
30
0
10
-241.81896014656832
20
53.388535507706479
30
0
10
-241.8808724206431
20
53.30461489720043
30
0
10
-242.05271453347757
20
53.015071940234179
30
0
10
-242.14629974526355
20
52.772684162229012
30
0
10
-242.29005395443249
20
52.479374745381847
30
0
10
-242.33921311576188
20
52.390017081466112
30
0
10
-242.41633030100277
20
52.293748937070021
30
0
10
-242.44400227899962
20
52.264595237625386
30
0
10
-242.49334647156769
20
52.230392623152689
30
0
10
-242.51338834133202
20
52.219994380323804
30
0
10
-242.5533942136974
20
52.208872320691739
30
0
10
-242.57216625847065
20
52.207201275451453
30
0
10
-242.61314365289653
20
52.211837917620869
30
0
10
-242.63385649690821
20
52.219219815828893
30
0
10
-242.68375476130069
20
52.246745122913765
30
0
10
-242.71070853356764
20
52.271721366980309
30
0
10
-242.77605913892745
20
52.347656227715007
30
0
10
-242.81104131059095
20
52.410342738234526
30
0
10
-242.89145380743639
20
52.585670275141936
30
0
10
-242.93702391114837
20
52.736351835351584
30
0
10
-243.01158135431041
20
53.14183499425571
30
0
10
-243.08056859867111
20
53.648534141692387
30
0
10
-242.76195829784155
20
55.387406411380326
30
0
10
-242.33129653822303
20
56.21989455726834
30
0
10
-242.02041857157181
20
57.125854467939646
30
0
10
-241.96135400847524
20
57.34530669557347
30
0
10
-241.93615563623018
20
57.67269039655703
30
0
10
-241.94176550659716
20
57.796384464272165
30
0
10
-241.99966461330223
20
58.01706983538989
30
0
10
-242.04389542920831
20
58.110637343132666
30
0
10
-242.17254948463037
20
58.280984614489071
30
0
10
-242.25528340616691
20
58.352695544666979
30
0
10
-242.4470547519206
20
58.464851608207823
30
0
10
-242.55711425893824
20
58.50344173151376
30
0
10
-242.7664860339612
20
58.533832089098667
30
0
10
-242.86558948106008
20
58.531466666008697
30
0
10
-243.05351970839524
20
58.489044308258009
30
0
10
-243.13952330902953
20
58.450939422415075
30
0
10
-243.3078021729855
20
58.331862882315882
30
0
10
-243.38128137115655
20
58.248851782109874
30
0
10
-243.52775220108796
20
58.018632324360162
30
0
10
-243.58528623649701
20
57.859717467669363
30
0
10
-243.73264595334655
20
57.298707099082705
30
0
10
-243.75412710977429
20
56.809016404388686
30
0
10
-243.87594892090479
20
55.96314927852081
30
0
10
-243.95309280402341
20
55.601116212165635
30
0
10
-244.27361043650353
20
54.885942714210152
30
0
10
-244.47845200148993
20
54.635088012758885
30
0
10
-244.88445509124475
20
54.240307147259486
30
0
10
-245.13257233928837
20
54.079352302143342
30
0
10
-245.54540799109984
20
53.898869224900629
30
0
10
-245.72098231002309
20
53.850400767675254
30
0
10
-245.99747067464409
20
53.825758657102952
30
0
10
-246.11114808054506
20
53.830611265729871
30
0
10
-246.3101966810581
20
53.881470325714034
30
0
10
-246.39416813545273
20
53.919955812898344
30
0
10
-246.55255216638648
20
54.037733712717568
30
0
10
-246.61816423036399
20
54.115398655053482
30
0
10
-246.81987107122549
20
54.441025575624025
30
0
10
-246.87539003548866
20
54.736107390215629
30
0
10
-247.0712845912627
20
55.151140222521697
30
0
10
-247.13125715049969
20
55.233030564194586
30
0
10
-247.19702735438455
20
55.36607740888779
30
0
10
-247.21359275254144
20
55.41289968849015
30
0
10
-247.23148016655344
20
55.556725272559255
30
0
10
-247.21369920775584
20
55.654569737392514
30
0
10
-247.12729854004832
20
55.976002071655429
30
0
10
-247.04006876642643
20
56.230542948130676
30
0
10
-246.98827961369733
20
56.645178347960972
30
0
10
-246.98378836665992
20
56.789795664022051
30
0
10
-247.01966506121832
20
57.008917960834751
30
0
10
-247.04379420198705
20
57.091378244268924
30
0
10
-247.11423362779871
20
57.224291587829669
30
0
10
-247.15397224464024
20
57.276510571995018
30
0
10
-247.25562493344609
20
57.365161465610768
30
0
10
-247.31510506672905
20
57.398022020881271
30
0
10
-247.46613585918001
20
57.448400679076869
30
0
10
-247.55837366835937
20
57.456664659696401
30
0
10
-247.78876988993278
20
57.443611957249246
30
0
10
-247.93396942229109
20
57.402868741845879
30
0
10
-248.14816297984092
20
57.29987365858775
30
0
10
-248.23464102936333
20
57.244205534483008
30
0
10
-248.36669403640659
20
57.114475630413253
30
0
10
-248.40267957024844
20
57.055359989113356
30
0
10
-248.45873246920246
20
56.926722976759514
30
0
10
-248.4700805479105
20
56.847712522609221
30
0
10
-248.48547174853593
20
56.656730053032838
30
0
10
-248.48744827413245
20
56.534746907839725
30
0
10
-248.53638325124791
20
56.330630046114933
30
0
10
-248.56164128216446
20
56.2721683314914
30
0
10
-248.60513629338016
20
56.198193732201567
30
0
10
-248.62787494947557
20
56.168136303665186
30
0
10
-248.6756292779684
20
56.12644496263669
30
0
10
-248.69822987939645
20
56.112227963144974
30
0
10
-248.74908286698638
20
56.093526621796258
30
0
10
-248.77547910163179
20
56.089884639184191
30
0
10
-248.85869312172272
20
56.093250366789349
30
0
10
-248.91247465564587
20
56.115033826511137
30
0
10
-248.99131821804065
20
56.145356494681693
30
0
10
-249.01902282969476
20
56.155614541467436
30
0
10
-249.05895019389908
20
56.162826768298622
30
0
10
-249.07335548988115
20
56.163897556574668
30
0
10
-249.09991030655721
20
56.160412174931892
30
0
10
-249.11144291837951
20
56.156640281464206
30
0
10
-249.13494600426935
20
56.14334482809867
30
0
10
-249.14665460907815
20
56.133021253963349
30
0
10
-249.17407340782836
20
56.098617640683599
30
0
10
-249.1889753494616
20
56.070400130646689
30
0
10
-249.24040458281775
20
55.935665602717037
30
0
10
-249.27059179080834
20
55.781282196791139
30
0
10
-249.37476683754323
20
55.161335818854525
30
0
10
-249.52614122259209
20
54.16495508119506
30
0
10
-249.7593588245885
20
53.413134278812848
30
0
10
-249.80758198208832
20
53.274077687466132
30
0
10
-249.87395715260459
20
53.15363712814684
30
0
10
-249.89136440833718
20
53.126461272615231
30
0
10
-249.917896654255
20
53.098370995293457
30
0
10
-249.92706674917946
20
53.090220629989432
30
0
10
-249.9428770255812
20
53.081221666709567
30
0
10
-249.94915383043542
20
53.0786469187954
30
0
10
-249.96144309359838
20
53.076415646124019
30
0
10
-249.96711577953775
20
53.07644863493374
30
0
10
-249.97932844984302
20
53.079036923253454
30
0
10
-249.98537275943852
20
53.0818928930574
30
0
10
-249.99973456959609
20
53.091671805181377
30
0
10
-250.00735217824524
20
53.100059687868225
30
0
10
-250.03293920898997
20
53.134582787168796
30
0
10
-250.0499928325184
20
53.175023768609329
30
0
10
-250.12937381744447
20
53.427269431421138
30
0
10
-250.17379852556587
20
53.795298870523183
30
0
10
-250.28711442798081
20
54.186608177919268
30
0
10
-250.32238311453565
20
54.282317334039753
30
0
10
-250.39270036646616
20
54.401617414505708
30
0
10
-250.4207302942726
20
54.437805227957483
30
0
10
-250.47900110820362
20
54.489252050619392
30
0
10
-250.50833324221131
20
54.507281565505046
30
0
10
-250.57766651963743
20
54.531486912564013
30
0
10
-250.61486815292187
20
54.53538404438455
30
0
10
-250.72157826121074
20
54.531681482903466
30
0
10
-250.79079424829973
20
54.512582600129207
30
0
10
-250.89008469680198
20
54.494552960245748
30
0
10
-250.9238739546245
20
54.490290733989454
30
0
10
-250.97502561931495
20
54.493392283636616
30
0
10
-250.99435413114804
20
54.497026189145629
30
0
10
-251.03019807289027
20
54.511793013087377
30
0
10
-251.04559616543787
20
54.522185743465002
30
0
10
-251.07667096794569
20
54.553360698083146
30
0
10
-251.08972973146132
20
54.575192883626535
30
0
10
-251.11635020991898
20
54.637250758106632
30
0
10
-251.12508315023268
20
54.682801440255879
30
0
10
-251.14057864975587
20
54.828660495507521
30
0
10
-251.13114547681926
20
54.959670922686271
30
0
10
-251.02519109150541
20
55.556827812020984
30
0
10
-250.8097704165346
20
55.926814286484053
30
0
10
-250.66695194227151
20
56.165980021248359
30
0
10
-250.59255353627492
20
56.273281176226824
30
0
10
-250.51916233951684
20
56.430442584725888
30
0
10
-250.49970105235616
20
56.485690577322877
30
0
10
-250.48468135679923
20
56.597167741326963
30
0
10
-250.48772231224763
20
56.64916911189507
30
0
10
-250.51851724128667
20
56.768831480226616
30
0
10
-250.55230256141104
20
56.831156693677428
30
0
10
-250.66951656065947
20
56.988786306351365
30
0
10
-250.77564060318173
20
57.07619474068877
30
0
10
-251.08509641405422
20
57.283739053828732
30
0
10
-251.34535810352531
20
57.397686236915888
30
0
10
-251.94345793693273
20
57.591084179987192
30
0
10
-252.28787832677966
20
57.658166321158205
30
0
10
-252.63635937590493
20
57.674654853059764
30
0
10
-252.73999458236483
20
57.673776295283034
30
0
10
-252.85910517059239
20
57.64910041543844
30
0
10
-252.89429831534625
20
57.638744803877245
30
0
10
-252.94055153265262
20
57.613858999235184
30
0
10
-252.9560753793931
20
57.602925157537868
30
0
10
-252.97889645781441
20
57.578284350309097
30
0
10
-252.98687630449481
20
57.56591968240852
30
0
10
-252.99821943301228
20
57.536454454498802
30
0
10
-253.00051376399597
20
57.520171482257318
30
0
10
-252.99956642303403
20
57.479851726518802
30
0
10
-252.99354319212742
20
57.455022903790407
30
0
10
-252.95929262547833
20
57.362999850942884
30
0
10
-252.90780004561526
20
57.286491688234797
30
0
10
-252.76071944402605
20
57.085568816244241
30
0
10
-252.65462655581456
20
56.953674294271039
30
0
10
-252.54975023726146
20
56.760462867920658
30
0
10
-252.52102472306609
20
56.695000841932135
30
0
10
-252.49768876093447
20
56.586132453829492
30
0
10
-252.49437455660146
20
56.542692663631904
30
0
10
-252.50531552981329
20
56.459646821552639
30
0
10
-252.51803340687999
20
56.422131860772275
30
0
10
-252.56143132853086
20
56.347772486064429
30
0
10
-252.59298021348599
20
56.314165972470285
30
0
10
-252.6802266332034
20
56.247496022910724
30
0
10
-252.742053746062
20
56.218712652726872
30
0
10
-252.88198457535577
20
56.180346901521325
30
0
10
-252.96174029624882
20
56.173377773480262
30
0
10
-253.09823349000655
20
56.187564984006933
30
0
10
-253.15753403975202
20
56.20314960091514
30
0
10
-253.26271984279501
20
56.255173354032415
30
0
10
-253.30723369254787
20
56.289274196305584
30
0
10
-253.38812459716945
20
56.382365984820247
30
0
10
-253.41887065423271
20
56.440945254368685
30
0
10
-253.53669386288198
20
56.777844053444049
30
0
10
-253.49765390270721
20
57.637601351966616
30
0
10
-253.50085771597799
20
58.147396320427589
30
0
10
-253.50551464112047
20
58.259840450193529
30
0
10
-253.54115944421761
20
58.422987915824791
30
0
10
-253.56191341335926
20
58.483401684960477
30
0
10
-253.62298383728816
20
58.587149972088135
30
0
10
-253.65941296479932
20
58.629113110296061
30
0
10
-253.75531424434581
20
58.70329065738197
30
0
10
-253.81436167989906
20
58.730795001234398
30
0
10
-253.95327731419951
20
58.768421729999318
30
0
10
-254.03565795809354
20
58.773292353008131
30
0
10
-254.17974187658808
20
58.755131620155971
30
0
10
-254.24447206206173
20
58.736525681489276
30
0
10
-254.35043651411257
20
58.682043352810503
30
0
10
-254.39350713364286
20
58.650187442069154
30
0
10
-254.46598920254743
20
58.569773137545297
30
0
10
-254.49297262662816
20
58.52322866102319
30
0
10
-254.53471270702866
20
58.404376979633128
30
0
10
-254.54205003530359
20
58.332788818250201
30
0
10
-254.53887465097534
20
58.111985290871012
30
0
10
-254.49927376361839
20
57.954011889026347
30
0
10
-254.46807536367339
20
57.743942912545791
30
0
10
-254.46202742290299
20
57.677915662435638
30
0
10
-254.47064204418308
20
57.583234171541136
30
0
10
-254.47792600176911
20
57.548558292491585
30
0
10
-254.50454438106118
20
57.4880077171333
30
0
10
-254.52170085631809
20
57.463071438425793
30
0
10
-254.57082364613612
20
57.415780802115762
30
0
10
-254.60302452096258
20
57.396932899072425
30
0
10
-254.6929197265855
20
57.36090096698242
30
0
10
-254.75596667692403
20
57.351013865569513
30
0
10
-254.95130208871683
20
57.339967874174739
30
0
10
-255.11173803294474
20
57.36361005271965
30
0
10
-255.37302172256716
20
57.43940199574179
30
0
10
-255.49236958709739
20
57.487801119170953
30
0
10
-255.66922141381792
20
57.60357351489472
30
0
10
-255.72006934475104
20
57.654179370625897
30
0
10
-255.80134454709562
20
57.760032702952685
30
0
10
-255.83172160721892
20
57.824322864043467
30
0
10
-255.88239737264081
20
58.015843541353348
30
0
10
-255.8819971077736
20
58.156845068623255
30
0
10
-255.81824938096076
20
58.754695315474692
30
0
10
-255.65624889087118
20
59.42577634560876
30
0
10
-255.42827466346171
20
62.442981395615938
30
0
10
-255.80918696847291
20
63.605107441129327
30
0
10
-255.94033071394085
20
63.997295269170181
30
0
10
-255.98150316187139
20
64.11037679527584
30
0
10
-256.0248349204814
20
64.393627406102695
30
0
10
-255.99996056445846
20
64.538032328953278
30
0
10
-255.90269047503648
20
64.993887927797772
30
0
10
-255.8331558791117
20
65.288402013981525
30
0
10
-255.8227590598035
20
65.854911848393257
30
0
10
-255.8519074450069
20
66.087286180926299
30
0
10
-256.02124925090919
20
66.599761276258519
30
0
10
-256.16622165776766
20
66.805019384038317
30
0
10
-256.45277229608212
20
67.134902033273946
30
0
10
-256.6460691403035
20
67.281909721473227
30
0
10
-256.9626846171617
20
67.447528331153293
30
0
10
-257.09210212443293
20
67.493464048061469
30
0
10
-257.28327844809291
20
67.525127243476462
30
0
10
-257.35864796264468
20
67.528634980629491
30
0
10
-257.48424574273821
20
67.50794918654519
30
0
10
-257.53514431148454
20
67.490795949082795
30
0
10
-257.63128107954952
20
67.433627725966574
30
0
10
-257.6719327187069
20
67.394839364268677
30
0
10
-257.76299803395653
20
67.27399348924861
30
0
10
-257.80503636664565
20
67.177916134548795
30
0
10
-257.8966701884284
20
66.908117400445946
30
0
10
-258.01655873798848
20
66.503473429414356
30
0
10
-258.08991899445692
20
66.071598670945633
30
0
10
-258.09718052333255
20
65.922065044886082
30
0
10
-258.02633574642198
20
65.477272394894598
30
0
10
-257.8825213001802
20
65.254872611333127
30
0
10
-257.75281134745387
20
64.951425144957994
30
0
10
-257.72505956827411
20
64.871885784059117
30
0
10
-257.70575280310834
20
64.742874596770662
30
0
10
-257.7049118580544
20
64.691361198698431
30
0
10
-257.72417140917247
20
64.59071722733259
30
0
10
-257.74321414304336
20
64.544909072799982
30
0
10
-257.80686909218792
20
64.448866945826197
30
0
10
-257.85513636469153
20
64.403959921187152
30
0
10
-257.99688425795949
20
64.305636199404304
30
0
10
-258.1049236877775
20
64.262823576371872
30
0
10
-258.2666768769742
20
64.228645448147589
30
0
10
-258.32717817503271
20
64.223492710517107
30
0
10
-258.40872551146214
20
64.230824219768479
30
0
10
-258.43847432110988
20
64.236690107781399
30
0
10
-258.48279151054589
20
64.255483639968134
30
0
10
-258.4992117577907
20
64.265386016306593
30
0
10
-258.52658970794442
20
64.290934288527566
30
0
10
-258.53692853906648
20
64.305520195148745
30
0
10
-258.55415683641002
20
64.343705892708826
30
0
10
-258.5585156174663
20
64.367215149391285
30
0
10
-258.56253177352949
20
64.435920388876184
30
0
10
-258.55445542462326
20
64.487378358168442
30
0
10
-258.52529280347079
20
64.629964575286195
30
0
10
-258.49722993464519
20
64.7307173273676
30
0
10
-258.48507910118559
20
64.889193763838989
30
0
10
-258.48701628101816
20
64.946048891117925
30
0
10
-258.51185330209665
20
65.049275642561554
30
0
10
-258.53145383219936
20
65.093621659821238
30
0
10
-258.59102392248309
20
65.177687477850569
30
0
10
-258.63093649332575
20
65.214001687397214
30
0
10
-258.73217671144766
20
65.277450946092074
30
0
10
-258.79579275961754
20
65.300380133797645
30
0
10
-258.92235359511221
20
65.321429698200518
30
0
10
-258.9863472896572
20
65.320955304901929
30
0
10
-259.10013196660907
20
65.297808874316786
30
0
10
-259.15039959583726
20
65.278351554390412
30
0
10
-259.24231070706185
20
65.219759911104774
30
0
10
-259.28139580453217
20
65.181546722170026
30
0
10
-259.35353771312839
20
65.077726995433153
30
0
10
-259.37946191913875
20
65.010833356564689
30
0
10
-259.41948156897001
20
64.836356418091682
30
0
10
-259.42129549016892
20
64.721999126084626
30
0
10
-259.39218893896123
20
64.303820210204691
30
0
10
-259.28570071835122
20
63.951938985796588
30
0
10
-259.18180650756869
20
63.454065311478516
30
0
10
-259.15610678685437
20
63.283797077968799
30
0
10
-259.16575210575286
20
63.027843403828442
30
0
10
-259.18182295313227
20
62.931243326805571
30
0
10
-259.25188271508824
20
62.753108686936862
30
0
10
-259.30166637879557
20
62.676748849538825
30
0
10
-259.4494939134392
20
62.524570195922642
30
0
10
-259.54968457502366
20
62.462777348257397
30
0
10
-259.76143517895468
20
62.370282543352815
30
0
10
-259.88765323581748
20
62.339353966658791
30
0
10
-260.09598373556889
20
62.328318191718068
30
0
10
-260.18311869341142
20
62.335203289540473
30
0
10
-260.32398953150511
20
62.375329175539029
30
0
10
-260.3804115928117
20
62.400908624863327
30
0
10
-260.47730177241357
20
62.471274392058149
30
0
10
-260.51633698307808
20
62.513306124172857
30
0
10
-260.58187235148233
20
62.620315450663917
30
0
10
-260.60321500373902
20
62.684332741357657
30
0
10
-260.6284355800762
20
62.841508171393123
30
0
10
-260.62440749933421
20
62.943872000510368
30
0
10
-260.53140297301184
20
63.395136184462856
30
0
10
-260.30716400229358
20
63.709666243434278
30
0
10
-260.10607074141217
20
64.003868961038251
30
0
10
-260.04882890972931
20
64.09086343939957
30
0
10
-259.99185075799903
20
64.22251133981311
30
0
10
-259.97656299328173
20
64.272151468513599
30
0
10
-259.96747128402728
20
64.372254920787171
30
0
10
-259.97270364505522
20
64.419177413194703
30
0
10
-260.00396606482025
20
64.51821980678271
30
0
10
-260.03341780200918
20
64.572659036321184
30
0
10
-260.14908359962084
20
64.714530692101192
30
0
10
-260.24736688220446
20
64.792640985264882
30
0
10
-260.4725801011935
20
64.92027937994024
30
0
10
-260.60317304315146
20
64.969696736274869
30
0
10
-260.83163847696841
20
65.00976109884553
30
0
10
-260.93172551175746
20
65.012653620340132
30
0
10
-261.12028555900332
20
64.979391998950234
30
0
10
-261.20506483784914
20
64.946645905939135
30
0
10
-261.37005464938647
20
64.840717245272316
30
0
10
-261.44292415780075
20
64.766524009407803
30
0
10
-261.58718947999989
20
64.562784180166034
30
0
10
-261.64678023628528
20
64.421704150981583
30
0
10
-261.75390917755556
20
64.017326676270187
30
0
10
-261.73919846795803
20
63.77764350376524
30
0
10
-261.67259718598041
20
63.284925755349221
30
0
10
-261.59987580144622
20
62.965019033636068
30
0
10
-261.57841356777362
20
62.543938164826045
30
0
10
-261.58085489765773
20
62.411288633610489
30
0
10
-261.62084336840894
20
62.227416683539857
30
0
10
-261.64262989295656
20
62.162980769361489
30
0
10
-261.70228894637961
20
62.06178025083689
30
0
10
-261.73468922143729
20
62.023100416329953
30
0
10
-261.81738590521019
20
61.958038018724643
30
0
10
-261.8655711486989
20
61.934907453263108
30
0
10
-261.9899167396286
20
61.900014378385066
30
0
10
-262.06743954216915
20
61.896798838503877
30
0
10
-262.28057408019771
20
61.915339193853413
30
0
10
-262.42662463555621
20
61.961999261087712
30
0
10
-262.62440329854701
20
62.060587606311756
30
0
10
-262.73142579311161
20
62.122376813939582
30
0
10
-262.9028561971586
20
62.298125846706455
30
0
10
-262.95448103944989
20
62.383616325058711
30
0
10
-263.1076749461775
20
62.771658216641697
30
0
10
-263.07922671908733
20
63.176802261086976
30
0
10
-263.11329470768362
20
63.950425676768212
30
0
10
-263.13834490188231
20
64.246296607645476
30
0
10
-263.23711224347949
20
64.610162979604098
30
0
10
-263.27953212876162
20
64.726689904353037
30
0
10
-263.37526189033753
20
64.881948506539914
30
0
10
-263.41771503564871
20
64.934931928675326
30
0
10
-263.51204761794133
20
65.011873714538339
30
0
10
-263.55942226492169
20
65.038096819575557
30
0
10
-263.6664924781208
20
65.070754729389947
30
0
10
-263.72322253637702
20
65.075300902204461
30
0
10
-263.85277358630049
20
65.062929703860505
30
0
10
-263.92463444796584
20
65.039637675128333
30
0
10
-264.04173704888848
20
64.978243911956298
30
0
10
-264.1165823562805
20
64.930539293610281
30
0
10
-264.25264044838633
20
64.76661170555532
30
0
10
-264.305242901197
20
64.670188685630279
30
0
10
-264.43639244770486
20
64.30103613298084
30
0
10
-264.48802102993722
20
63.965644032388589
30
0
10
-264.51659266480726
20
63.133125921497182
30
0
10
-264.40576660876991
20
62.776471077174698
30
0
10
-264.19167226243422
20
62.2128264461032
30
0
10
-264.10850965638764
20
62.018056868481167
30
0
10
-264.0432518301713
20
61.749949998157419
30
0
10
-264.02898709419526
20
61.658145107500381
30
0
10
-264.03609016457966
20
61.50912496760489
30
0
10
-264.04730185183746
20
61.450331385498345
30
0
10
-264.09193665826479
20
61.342801312644461
30
0
10
-264.12290960240631
20
61.296442024714928
30
0
10
-264.20580280810805
20
61.214005165571514
30
0
10
-264.2576141019747
20
61.18065690181993
30
0
10
-264.36585516724324
20
61.136495478720747
30
0
10
-264.42257283192339
20
61.124069667314956
30
0
10
-264.52317176722806
20
61.121865075385465
30
0
10
-264.56759555699921
20
61.127778237712896
30
0
10
-264.64702241606005
20
61.155153078617339
30
0
10
-264.68138783963246
20
61.174629060749872
30
0
10
-264.74596845433297
20
61.230947038769621
30
0
10
-264.77236869376327
20
61.267673001667831
30
0
10
-264.8431551799568
20
61.408171055134275
30
0
10
-264.85915267002343
20
61.532428294517814
30
0
10
-264.89171960628488
20
61.734417614084862
30
0
10
-264.90617793584886
20
61.813481323651814
30
0
10
-264.94897117812627
20
61.924379362467747
30
0
10
-264.96964807221946
20
61.963474811677429
30
0
10
-265.02222855414277
20
62.026801986812224
30
0
10
-265.0510964576992
20
62.050868089441913
30
0
10
-265.12098303759319
20
62.088383394440186
30
0
10
-265.16078700874402
20
62.099705885195284
30
0
10
-265.25078524604913
20
62.108596410125244
30
0
10
-265.30112729190421
20
62.102945165243277
30
0
10
-265.39363419376093
20
62.074625458034625
30
0
10
-265.4364665350862
20
62.052552737264762
30
0
10
-265.51140760746989
20
61.993120936009554
30
0
10
-265.54213191564463
20
61.95660008764434
30
0
10
-265.59355899488304
20
61.862842599473247
30
0
10
-265.60891770551689
20
61.806379848392339
30
0
10
-265.64358627897366
20
61.516955972084105
30
0
10
-265.54283858859492
20
61.225225356428254
30
0
10
-265.36451996207387
20
60.328953249183002
30
0
10
-265.39319217648324
20
60.04113118313721
30
0
10
-265.32734744215844
20
59.410037683980178
30
0
10
-265.26892336182357
20
59.21533576166982
30
0
10
-265.24097452255501
20
58.876349575750886
30
0
10
-265.23759177141028
20
58.751658652127965
30
0
10
-265.26835201378412
20
58.577630449206751
30
0
10
-265.28494691609092
20
58.51899261129784
30
0
10
-265.32983209936424
20
58.431779684827859
30
0
10
-265.35269278603545
20
58.399429307008234
30
0
10
-265.40979202076971
20
58.346050310267977
30
0
10
-265.441988275874
20
58.326358382494455
30
0
10
-265.52460526667909
20
58.295683234271905
30
0
10
-265.57440704142823
20
58.289966874443131
30
0
10
-265.82083135651089
20
58.294215905367011
30
0
10
-266.06089252707329
20
58.402542245805591
30
0
10
-266.33194229400152
20
58.483264456642644
30
0
10
-266.39660665586553
20
58.497820541937465
30
0
10
-266.49159305053797
20
58.502259031545435
30
0
10
-266.52561415195657
20
58.499106492232173
30
0
10
-266.58798305447203
20
58.480742393056588
30
0
10
-266.61528606726921
20
58.466066244125592
30
0
10
-266.66950200661387
20
58.422024364559356
30
0
10
-266.69485980290136
20
58.39124258244081
30
0
10
-266.76394825096986
20
58.284760034750704
30
0
10
-266.80652038498567
20
58.189579939837643
30
0
10
-266.84717885416023
20
58.082026073569317
30
0
10
-266.85968100134716
20
58.039668694477257
30
0
10
-266.86725529467856
20
57.97587942879963
30
0
10
-266.86708432865862
20
57.95063622394234
30
0
10
-266.85591783872127
20
57.899560775388245
30
0
10
-266.84493279138371
20
57.87628169649004
30
0
10
-266.8072653191964
20
57.822354960540139
30
0
10
-266.77620578096241
20
57.793837701596324
30
0
10
-266.68974867518847
20
57.722383468435879
30
0
10
-266.62932823640165
20
57.678903432941738
30
0
10
-266.55352018691354
20
57.598480129409523
30
0
10
-266.52986981377501
20
57.567363048401425
30
0
10
-266.4997363818656
20
57.504604238282717
30
0
10
-266.49118945550157
20
57.475262045825318
30
0
10
-266.48612799531099
20
57.413743710619187
30
0
10
-266.48985073792704
20
57.383025022318222
30
0
10
-266.50975622381287
20
57.322085247006527
30
0
10
-266.52659155926142
20
57.292913005866559
30
0
10
-266.57138779145112
20
57.241286142596479
30
0
10
-266.59945677886583
20
57.219760444514769
30
0
10
-266.65890874872906
20
57.190251708250415
30
0
10
-266.69596996073119
20
57.177581564957578
30
0
10
-266.79742952733909
20
57.170676622028026
30
0
10
-266.85005388189728
20
57.178822072637189
30
0
10
-266.99601804892944
20
57.216543448268176
30
0
10
-267.08800208593107
20
57.259192779268048
30
0
10
-267.21003586071186
20
57.291734422851732
30
0
10
-267.24608415901389
20
57.298059340464178
30
0
10
-267.30517291059999
20
57.296932579209283
30
0
10
-267.32906750390549
20
57.292972454736805
30
0
10
-267.37449562414713
20
57.275345525688309
30
0
10
-267.39454214333796
20
57.262299234463882
30
0
10
-267.43440374328543
20
57.223944708812688
30
0
10
-267.45136661435976
20
57.197423496628957
30
0
10
-267.48649055948158
20
57.118929912922923
30
0
10
-267.49513481346912
20
57.064145463181376
30
0
10
-267.5109505875194
20
56.86911821711648
30
0
10
-267.47160605217772
20
56.698360657531751
30
0
10
-267.43410584446457
20
56.425589222695614
30
0
10
-267.42609516064755
20
56.32146721433611
30
0
10
-267.44924886121669
20
56.13429935899218
30
0
10
-267.47312016143127
20
56.044162374658704
30
0
10
-267.58526236895767
20
55.842119824650453
30
0
10
-267.66840794290323
20
55.756078845024284
30
0
10
-267.85072208842445
20
55.61059786870171
30
0
10
-267.96819684215706
20
55.547810250649263
30
0
10
-268.16374768451948
20
55.484602903645296
30
0
10
-268.24776206093441
20
55.46863493965639
30
0
10
-268.38644421719027
20
55.470142084721878
30
0
10
-268.44264000867975
20
55.478708421599194
30
0
10
-268.54468129468421
20
55.516535282899326
30
0
10
-268.5886183638508
20
55.543394846701581
30
0
10
-268.67348498984933
20
55.622248834203475
30
0
10
-268.70851706857661
20
55.675181199306664
30
0
10
-268.79712108025268
20
55.864564811653693
30
0
10
-268.82368678142336
20
56.037194938256789
30
0
10
-268.85691147534425
20
56.714391400870532
30
0
10
-268.78004966767008
20
57.37099877849964
30
0
10
-268.8666082700347
20
58.200634016367651
30
0
10
-268.90240447326914
20
58.366218703284083
30
0
10
-268.95706760918949
20
58.518779987674762
30
0
10
-268.97691498947739
20
58.565350409874135
30
0
10
-269.01170291081326
20
58.615678588352694
30
0
10
-269.0238018515405
20
58.630224158826167
30
0
10
-269.04602008066604
20
58.647719231054239
30
0
10
-269.05515869277673
20
58.65314895485205
30
0
10
-269.07420188767736
20
58.659577660353087
30
0
10
-269.08346442429939
20
58.660784118223646
30
0
10
-269.10446376071627
20
58.659233735877869
30
0
10
-269.11545047757045
20
58.655680999208187
30
0
10
-269.14235303906537
20
58.642541133303027
30
0
10
-269.15925060872939
20
58.629615199036628
30
0
10
-269.23513794631469
20
58.557032819361311
30
0
10
-269.30231997679556
20
58.457145020922788
30
0
10
-269.46181338328364
20
58.250567104093491
30
0
10
-269.64318475517115
20
58.02176834232678
30
0
10
-269.93827597930692
20
57.797341596443495
30
0
10
-270.00873199581815
20
57.753871313594736
30
0
10
-270.09807332629873
20
57.716474932161184
30
0
10
-270.12915583843994
20
57.706326685341622
30
0
10
-270.17562962723741
20
57.701101475644812
30
0
10
-270.19254276934441
20
57.701198229269266
30
0
10
-270.22167509482006
20
57.707503882005611
30
0
10
-270.23374339879035
20
57.712377088333454
30
0
10
-270.25714370674234
20
57.727944500427746
30
0
10
-270.2672376073827
20
57.73865556011679
30
0
10
-270.28772615727377
20
57.769178147476026
30
0
10
-270.29630415987936
20
57.791291964123758
30
0
10
-270.3320387641885
20
57.932993656894723
30
0
10
-270.31230657337773
20
58.135970823991123
30
0
10
-270.23797541082541
20
58.716287548473893
30
0
10
-270.17653018348477
20
59.119070492366468
30
0
10
-270.18417202530537
20
59.581331458039166
30
0
10
-270.19570301037896
20
59.709178418053142
30
0
10
-270.24151615779937
20
59.869289366656389
30
0
10
-270.26248502297813
20
59.922170793554784
30
0
10
-270.31189503910502
20
59.996184479227495
30
0
10
-270.33516314685221
20
60.022207643211487
30
0
10
-270.38844244774174
20
60.060965538518012
30
0
10
-270.41625526303346
20
60.073898053002424
30
0
10
-270.4797978228479
20
60.08896628975512
30
0
10
-270.51414008529736
20
60.089415018579516
30
0
10
-270.59061527068775
20
60.077386427567163
30
0
10
-270.63435882438364
20
60.061224420168969
30
0
10
-270.7837869533513
20
59.972863677794251
30
0
10
-270.84086879583504
20
59.876617796289295
30
0
10
-270.94249479176335
20
59.75639048191168
30
0
10
-270.98891973676109
20
59.710833490661237
30
0
10
-271.13716593732244
20
59.629524333003772
30
0
10
-271.22326546524016
20
59.604075913583721
30
0
10
-271.35088779338366
20
59.58696110077647
30
0
10
-271.39978632570029
20
59.586405499385251
30
0
10
-271.46706410810003
20
59.597366722483322
30
0
10
-271.49199718039443
20
59.60427727990357
30
0
10
-271.52942066743975
20
59.623534330344555
30
0
10
-271.54336748811136
20
59.633520542901749
30
0
10
-271.56623581734459
20
59.658407002293885
30
0
10
-271.57462936208094
20
59.672411354200705
30
0
10
-271.58748767614418
20
59.707961507192252
30
0
10
-271.58979368361406
20
59.729240983568488
30
0
10
-271.58803533826352
20
59.783535174048261
30
0
10
-271.57953808780445
20
59.817997228500204
30
0
10
-271.52504529416541
20
59.979492234299187
30
0
10
-271.41969001409387
20
60.131527075800115
30
0
10
-271.29713563206542
20
60.344900823989313
30
0
10
-271.26083231522477
20
60.416206941083445
30
0
10
-271.22858280183715
20
60.524306213024218
30
0
10
-271.2212737130659
20
60.565137058366282
30
0
10
-271.22371271054152
20
60.642693472344781
30
0
10
-271.23162072479261
20
60.67735606523258
30
0
10
-271.26500883396096
20
60.75031257006831
30
0
10
-271.29214141631002
20
60.7847585673452
30
0
10
-271.38292057072897
20
60.87230358737515
30
0
10
-271.46154873963928
20
60.918428065358647
30
0
10
-271.62852988513117
20
61.006608835248095
30
0
10
-271.71739805839672
20
61.047444960113239
30
0
10
-271.82910181499943
20
61.124729352542928
30
0
10
-271.86316638177641
20
61.154460530138408
30
0
10
-271.91801934170775
20
61.225235698890863
30
0
10
-271.93674550802723
20
61.264127272535013
30
0
10
-271.98565083872643
20
61.446302963235063
30
0
10
-271.94823975054527
20
61.620452040207425
30
0
10
-271.91732865904606
20
61.894604443750566
30
0
10
-271.91126088495639
20
61.986383604434074
30
0
10
-271.92735970462491
20
62.119454378609269
30
0
10
-271.93891019774776
20
62.167839275859748
30
0
10
-271.97672930553915
20
62.24818127414202
30
0
10
-271.99923982654406
20
62.280275422140946
30
0
10
-272.05854347199158
20
62.336035720250749
30
0
10
-272.09418539837276
20
62.357463293830264
30
0
10
-272.18111853397841
20
62.39019370149569
30
0
10
-272.23317473825216
20
62.397636630259299
30
0
10
-272.33783760253789
20
62.394224073949445
30
0
10
-272.39158610297403
20
62.382572895361164
30
0
10
-272.48355493157823
20
62.342892666050354
30
0
10
-272.52280608074784
20
62.317167005419748
30
0
10
-272.59099045822848
20
62.249486921361296
30
0
10
-272.61725904451731
20
62.208900456235376
30
0
10
-272.71164119589758
20
61.98247448098342
30
0
10
-272.66395617857887
20
61.744353445911734
30
0
10
-272.67420142610513
20
61.337423089651828
30
0
10
-272.6944205729269
20
61.180803872917295
30
0
10
-272.84655113891137
20
60.797639385870625
30
0
10
-272.97873343852194
20
60.63160236296298
30
0
10
-273.16292748036835
20
60.443308477568955
30
0
10
-273.25064434699902
20
60.37272851892947
30
0
10
-273.38298875698263
20
60.299349690506702
30
0
10
-273.43410027980264
20
60.277419651739379
30
0
10
-273.51934448998463
20
60.260015755278658
30
0
10
-273.55348229627384
20
60.257787432972513
30
0
10
-273.61854465024959
20
60.267080860197396
30
0
10
-273.64779197696072
20
60.277407342272689
30
0
10
-273.70859066339142
20
60.313691540184976
30
0
10
-273.73664870430662
20
60.341280360537993
30
0
10
-273.87516000390184
20
60.521226291453345
30
0
10
-273.92325518376407
20
60.78923754492547
30
0
10
-274.03394421012581
20
61.093380291120056
30
0
10
-274.06881005621364
20
61.170539018571297
30
0
10
-274.14506607137139
20
61.278579363433337
30
0
10
-274.18100934085368
20
61.317080209626553
30
0
10
-274.26625704695635
20
61.377029252679705
30
0
10
-274.31249714812765
20
61.397111044155146
30
0
10
-274.4225910062334
20
61.421357179898536
30
0
10
-274.48540208614622
20
61.420777412479495
30
0
10
-274.61934440957737
20
61.397105447390999
30
0
10
-274.69101984414078
20
61.369110730903543
30
0
10
-274.81348843828727
20
61.292775942250167
30
0
10
-274.86569929471631
20
61.245849102127238
30
0
10
-274.96118273225329
20
61.118821663106324
30
0
10
-274.98837994798197
20
61.046255402455579
30
0
10
-275.06509725961109
20
60.744836589586917
30
0
10
-274.99083393688551
20
60.4635355737392
30
0
10
-274.95564857683894
20
60.04091203454108
30
0
10
-274.95482685565929
20
59.905777970595445
30
0
10
-275.00325126204393
20
59.667175361827574
30
0
10
-275.04381869847043
20
59.549968253205847
30
0
10
-275.21104303871402
20
59.302510746687332
30
0
10
-275.32260048242313
20
59.204216480646252
30
0
10
-275.53101826767369
20
59.065914028068178
30
0
10
-275.63840376459063
20
59.017344059519786
30
0
10
-275.79063211234927
20
58.976835865780885
30
0
10
-275.84374209616601
20
58.969529414804256
30
0
10
-275.91733011679952
20
58.972212244507809
30
0
10
-275.94498541307746
20
58.976326879621304
30
0
10
-275.98792029529289
20
58.992226582668785
30
0
10
-276.00433290413821
20
59.001269390607483
30
0
10
-276.03256923858788
20
59.0255291001505
30
0
10
-276.04360664336826
20
59.039888330715129
30
0
10
-276.06268862838454
20
59.077927819472592
30
0
10
-276.06810546682624
20
59.101778667936138
30
0
10
-276.07341001451493
20
59.163104187711227
30
0
10
-276.06887289381814
20
59.204113959675695
30
0
10
-276.00141830447063
20
59.526495181796847
30
0
10
-275.72252792457925
20
59.965005191604533
30
0
10
-275.44765129785168
20
60.66578152784183
30
0
10
-275.37974713559368
20
60.901632070454582
30
0
10
-275.3447771654848
20
61.357684363107083
30
0
10
-275.36723253651053
20
61.563457963371349
30
0
10
-275.50094648173337
20
61.974476671796253
30
0
10
-275.61746728994751
20
62.18937178645276
30
0
10
-276.15588301357025
20
62.843125367665408
30
0
10
-276.67708588256926
20
63.207950341198227
30
0
10
-277.25822424761236
20
63.514236285933414
30
0
10
-277.44174034976157
20
63.591072778966407
30
0
10
-277.66981373144051
20
63.644065574628115
30
0
10
-277.74601548368253
20
63.65527197064268
30
0
10
-277.85524215600026
20
63.648655707051496
30
0
10
-277.89388724512099
20
63.641716001786278
30
0
10
-277.95627580362645
20
63.616249880291065
30
0
10
-277.98076565142458
20
63.601186703871939
30
0
10
-278.02377623483181
20
63.560481464472943
30
0
10
-278.04052852652421
20
63.53585396314449
30
0
10
-278.06985348931585
20
63.469881312923455
30
0
10
-278.07748165320299
20
63.427452638908207
30
0
10
-278.08276690710375
20
63.317301631766583
30
0
10
-278.0714957047868
20
63.244935442034446
30
0
10
-277.99506782509798
20
62.927793492236262
30
0
10
-277.83792639034112
20
62.641627555118895
30
0
10
-277.59321413485236
20
62.069964066305239
30
0
10
-277.49453706092868
20
61.785978054001482
30
0
10
-277.41042028415006
20
61.008917924659286
30
0
10
-277.48392057834553
20
60.621084162975222
30
0
10
-277.68283112971113
20
59.946918987368264
30
0
10
-277.85017400467655
20
59.607239555206206
30
0
10
-278.0976488847607
20
59.247815458953276
30
0
10
-278.18024100930649
20
59.151195536927965
30
0
10
-278.29271945712105
20
59.055353945823782
30
0
10
-278.33324335384293
20
59.02616935192902
30
0
10
-278.39714794614446
20
58.997696034095796
30
0
10
-278.42074018712418
20
58.990236982893208
30
0
10
-278.46206693064067
20
58.986179391074948
30
0
10
-278.47939397786541
20
58.987196921393462
30
0
10
-278.51353001696702
20
58.99643488455596
30
0
10
-278.52916276650626
20
59.004506595629856
30
0
10
-278.56275404134226
20
59.030570362433849
30
0
10
-278.57836058449539
20
59.050379569358824
30
0
10
-278.61244520328484
20
59.107717794574825
30
0
10
-278.6270137684611
20
59.151095097279821
30
0
10
-278.76137767467787
20
59.69249618374154
30
0
10
-278.50063099753066
20
60.955284081169552
30
0
10
-278.42158921978859
20
61.688636769518972
30
0
10
-278.41414916576497
20
61.791766345426815
30
0
10
-278.42114017437507
20
61.883779509803333
30
0
10
-278.424166112195
20
61.905472793751713
30
0
10
-278.43227328527178
20
61.92967235918524
30
0
10
-278.43541704414127
20
61.936968439026558
30
0
10
-278.44208414552236
20
61.946385744465069
30
0
10
-278.44493095915192
20
61.949503399181161
30
0
10
-278.45110729769726
20
61.953918927931895
30
0
10
-278.4541584285214
20
61.955363730448425
30
0
10
-278.46125501452855
20
61.957085863439275
30
0
10
-278.46509729773538
20
61.957122663369937
30
0
10
-278.47486973736983
20
61.955614542560426
30
0
10
-278.48072379150017
20
61.95318453072997
30
0
10
-278.50200772582838
20
61.94154344269127
30
0
10
-278.52184362884122
20
61.923724821821473
30
0
10
-278.60441660764548
20
61.821540377494387
30
0
10
-278.66876247635662
20
61.70709104107604
30
0
10
-278.85685972565068
20
61.353436410380226
30
0
10
-279.22892952583663
20
60.633952376799414
30
0
10
-279.43045913650877
20
59.430767922389819
30
0
10
-279.45232228422918
20
59.235118276537094
30
0
10
-279.55298271105022
20
58.905032704359058
30
0
10
-279.61753550719209
20
58.769405556550453
30
0
10
-279.91720032747628
20
58.394702797007426
30
0
10
-280.18669696152352
20
58.234516130757271
30
0
10
-280.53178827308165
20
57.98419288538603
30
0
10
-280.63275730890575
20
57.903549117288897
30
0
10
-280.75788631101904
20
57.759507847255293
30
0
10
-280.79844098068884
20
57.699468109799604
30
0
10
-280.85321656590685
20
57.565142095574082
30
0
10
-280.86534594183684
20
57.496384217074386
30
0
10
-280.86383632968852
20
57.331683846511694
30
0
10
-280.84223618070757
20
57.236374993675021
30
0
10
-280.72640219904417
20
56.894990967016966
30
0
10
-280.57270187073806
20
56.629936826584014
30
0
10
-280.43006771328231
20
56.220506242199939
30
0
10
-280.39585591583563
20
56.083400826082638
30
0
10
-280.38528681521456
20
55.833130175352295
30
0
10
-280.39896610285325
20
55.724761437255495
30
0
10
-280.47391472741049
20
55.505579673972775
30
0
10
-280.5364008319446
20
55.403331243479712
30
0
10
-280.7222051047911
20
55.192657000465069
30
0
10
-280.85735063002005
20
55.095617158861089
30
0
10
-281.15682144668574
20
54.94614903415966
30
0
10
-281.33122339833074
20
54.893692115640256
30
0
10
-281.6297375664065
20
54.864730966096943
30
0
10
-281.75784548111716
20
54.871169512979165
30
0
10
-281.99144664969037
20
54.932882254839384
30
0
10
-282.09303284950215
20
54.98231534833959
30
0
10
-282.29286660123012
20
55.135641656305559
30
0
10
-282.37898602363384
20
55.241580771548477
30
0
10
-282.57965168248302
20
55.566593615186612
30
0
10
-282.68382481969832
20
55.844423603694544
30
0
10
-282.87289886390801
20
56.487083217238485
30
0
10
-283.07431242298742
20
57.187461815458242
30
0
10
-283.17694928519063
20
58.052271321100271
30
0
10
-283.17615803900856
20
58.325627234427138
30
0
10
-283.01777476421705
20
59.130387500426949
30
0
10
-282.72661494134485
20
59.507689159563945
30
0
10
-282.3001973252787
20
60.181463345189755
30
0
10
-282.15811062204489
20
60.430863317879783
30
0
10
-282.00196016315465
20
60.925936789067492
30
0
10
-281.95041481878019
20
61.200757092450331
30
0
10
-282.01025668411893
20
61.849530964918706
30
0
10
-282.09861722689891
20
62.131158511006753
30
0
10
-282.24038167890984
20
62.428933741875674
30
0
10
-282.29831452387691
20
62.529984070854454
30
0
10
-282.40839253293348
20
62.656227923277612
30
0
10
-282.44578993514688
20
62.686493773043125
30
0
10
-282.51079655720071
20
62.725971833670016
30
0
10
-282.5440326593598
20
62.739516174387575
30
0
10
-282.61989863720595
20
62.753335267046438
30
0
10
-282.65970541034335
20
62.751333420554694
30
0
10
-282.75211364332711
20
62.731525646890908
30
0
10
-282.8076771108237
20
62.708040880725164
30
0
10
-283.00736464243164
20
62.59554088990339
30
0
10
-283.16423244270021
20
62.464398553746619
30
0
10
-283.45867924835937
20
62.233420379175286
30
0
10
-283.59764062553262
20
62.129042396364852
30
0
10
-283.78130154178746
20
62.035062421236411
30
0
10
-283.83773139074219
20
62.012379093691536
30
0
10
-283.92279894764778
20
61.995779706947644
30
0
10
-283.9550982394922
20
61.993387952144232
30
0
10
-284.01159411970713
20
62.001169462772829
30
0
10
-284.03530986656131
20
62.008761070783493
30
0
10
-284.08062524554015
20
62.034569559699335
30
0
10
-284.10034068336432
20
62.052508557760362
30
0
10
-284.14007742312265
20
62.103567946524059
30
0
10
-284.15636111587577
20
62.139109122804619
30
0
10
-284.1848814610417
20
62.231335122190366
30
0
10
-284.19291263451373
20
62.298381554033078
30
0
10
-284.18069463251868
20
62.619307465674098
30
0
10
-284.05047251783992
20
62.814407965124595
30
0
10
-283.82688508514843
20
63.562811159146875
30
0
10
-283.81564553473788
20
63.939467216099146
30
0
10
-283.8493403867667
20
64.48688064450198
30
0
10
-283.90096793766088
20
64.737462834283036
30
0
10
-284.01887392859794
20
65.054685304030869
30
0
10
-284.06988047842657
20
65.153196019112883
30
0
10
-284.15466166482895
20
65.267877408048932
30
0
10
-284.18998313310783
20
65.30705335032151
30
0
10
-284.25439431397172
20
65.354334651364908
30
0
10
-284.2809939652318
20
65.369068502409448
30
0
10
-284.33316554684484
20
65.385205943166397
30
0
10
-284.35728969622505
20
65.388272824278502
30
0
10
-284.40922220972561
20
65.384362332666541
30
0
10
-284.43520095686767
20
65.376346863439366
30
0
10
-284.49678094946148
20
65.345150898965144
30
0
10
-284.52953046702316
20
65.31675643384537
30
0
10
-284.62040205345397
20
65.217227475262277
30
0
10
-284.67370379391588
20
65.121336179772953
30
0
10
-284.93684859732366
20
64.539456839554816
30
0
10
-285.07608643366683
20
63.694408469103976
30
0
10
-285.29436169713557
20
62.975982185565307
30
0
10
-285.34573022674402
20
62.83917927920821
30
0
10
-285.43017012492885
20
62.690786893799391
30
0
10
-285.46020006467631
20
62.648201991986916
30
0
10
-285.51433686059755
20
62.595964970705481
30
0
10
-285.53718912299763
20
62.578818882868354
30
0
10
-285.58502307392081
20
62.556715146714438
30
0
10
-285.60825162884714
20
62.550923822040787
30
0
10
-285.66132211145333
20
62.548837588816468
30
0
10
-285.68937522384931
20
62.554418375713752
30
0
10
-285.77325206382778
20
62.584462007594759
30
0
10
-285.83174231345117
20
62.625365463719575
30
0
10
-286.02012119810718
20
62.790060451891563
30
0
10
-286.15349377500002
20
62.953136325393643
30
0
10
-286.32989337501624
20
63.109069133238933
30
0
10
-286.37799921202725
20
63.1456818716537
30
0
10
-286.4517996713131
20
63.183255781801591
30
0
10
-286.47983535306412
20
63.19393535824247
30
0
10
-286.53044548782009
20
63.201990929845394
30
0
10
-286.5521855145098
20
63.201924953059475
30
0
10
-286.59711071563044
20
63.192493572477098
30
0
10
-286.61850291011388
20
63.182719975140877
30
0
10
-286.66743156850811
20
63.149146334149862
30
0
10
-286.69194338127124
20
63.121454352532062
30
0
10
-286.76962388791628
20
63.010372057363917
30
0
10
-286.82186830039319
20
62.878068826793466
30
0
10
-286.94808704182611
20
62.307462961843015
30
0
10
-286.98449103138807
20
61.80559090865394
30
0
10
-286.99963369607542
20
61.187751349175727
30
0
10
-286.99878964635684
20
61.067196953622016
30
0
10
-286.99942307333595
20
61.009806042596757
30
0
10
-286.99960318069708
20
61.00338830281747
30
0
10
-286.99997464344727
20
61.000138039271363
30
0
10
-287.00004914066074
20
60.999599311624443
30
0
10
-287.00017806276355
20
60.999176569079026
30
0
10
-287.00020985828286
20
60.99909010187914
30
0
10
-287.00026211070025
20
60.999002052425453
30
0
10
-287.00027962500207
20
60.99897711547964
30
0
10
-287.00031068640078
20
60.998948147507676
30
0
10
-287.00032273433141
20
60.998939264832678
30
0
10
-287.00034615670512
20
60.998928657804939
30
0
10
-287.00035675304076
20
60.998925834405384
30
0
10
-287.00037966842569
20
60.99892457919097
30
0
10
-287.00039119688756
20
60.998926504121343
30
0
10
-287.00041878819928
20
60.998936248511143
30
0
10
-287.00043386341599
20
60.99894621439087
30
0
10
-287.00047115330625
20
60.998977808284167
30
0
10
-287.00049325888205
20
60.99900571507191
30
0
10
-287.00057128935151
20
60.999123459464712
30
0
10
-287.00062870846244
20
60.999258932188489
30
0
10
-287.00083863379677
20
60.999877135286582
30
0
10
-287.00100844337237
20
61.000640020344761
30
0
10
-287.00157197138691
20
61.003836296930075
30
0
10
-287.00197897713838
20
61.006996431435276
30
0
10
-287.00418564473813
20
61.0248111565597
30
0
10
-287.00730840354674
20
61.057651652940251
30
0
10
-287.02413786586874
20
61.210582085909699
30
0
10
-287.04859754669201
20
61.412081690340486
30
0
10
-287.12641361329054
20
61.750158847967143
30
0
10
-287.16949651328196
20
61.89952635953987
30
0
10
-287.25444444363688
20
62.068866536296966
30
0
10
-287.28577109503863
20
62.120293827618639
30
0
10
-287.34496202382201
20
62.183616069424659
30
0
10
-287.36906802034906
20
62.203938568999433
30
0
10
-287.4173170286428
20
62.229759863097264
30
0
10
-287.43967892650983
20
62.237289851461156
30
0
10
-287.48830825162372
20
62.243098879741432
30
0
10
-287.51300879638796
20
62.240660056309274
30
0
10
-287.57117201131507
20
62.224225997222156
30
0
10
-287.60279814860502
20
62.206322874038349
30
0
10
-287.67514069634046
20
62.151825979187613
30
0
10
-287.71804650691303
20
62.105120716586406
30
0
10
-287.83236497983796
20
61.942398379881432
30
0
10
-287.89882770496126
20
61.799582957722627
30
0
10
-287.98866205561797
20
61.483138807264524
30
0
10
-288.03809551366817
20
61.238806484861151
30
0
10
-287.95594948154275
20
60.539622423752995
30
0
10
-287.81195615458716
20
60.205347807038734
30
0
10
-287.48316124427208
20
59.357783918415585
30
0
10
-287.24837668999459
20
58.699130804826289
30
0
10
-287.19989880570193
20
56.976066588253133
30
0
10
-287.3230364966513
20
56.187061588213822
30
0
10
-287.70324644319828
20
55.055570389259117
30
0
10
-287.91535856000496
20
54.610545658603456
30
0
10
-288.41758828268706
20
53.946039235597034
30
0
10
-288.67219699366296
20
53.700610895642114
30
0
10
-289.28880599226227
20
53.312229569167059
30
0
10
-289.63302427061501
20
53.188139485728243
30
0
10
-289.99999985098839
20
53.12631509441097
30
0
0
LINE
5
196
100
AcDbEntity
8
0
100
AcDbLine
10
-289.99999985098833
20
53.12631509441097
30
0
11
-289.99999985098839
21
255
31
0
0
LINE
5
197
100
AcDbEntity
8
0
100
AcDbLine
10
-289.99999985098839
20
255
30
0
11
-170
21
255
31
0
0
LINE
5
198
100
AcDbEntity
8
0
100
AcDbLine
10
-170
20
255
30
0
11
-170
21
25
31
0
0
LWPOLYLINE
5
199
100
AcDbEntity
8
0
100
AcDbPolyline
90
4
70
1
43
0.0
10
-160
20
280
10
-300
20
280
10
-300
20
0
10
-160
20
0
0
SPLINE
5
200
100
AcDbEntity
8
0
100
AcDbSpline
70
0
71
3
72
12
73
8
74
0
42
0.000000001
43
0.0000000001
44
0.0000000001
40
-1.1695404235509963
40
-1.1695404235509963
40
-1.1695404235509963
40
-1.1695404235509963
40
-0.93837374351432079
40
-0.93837374351432079
40
-0.62012908210586148
40
-0.62012908210586148
40
0
40
0
40
0
40
0
10
-462.99999944865704
20
240.00000357627869
30
0
10
-462.70573701651296
20
240.81703561457152
30
0
10
-462.60045804606926
20
241.46391447597281
30
0
10
-462.51525536516556
20
242.62013389671512
30
0
10
-462.58260816463769
20
243.19805631693276
30
0
10
-462.87747552913146
20
244.90341697572762
30
0
10
-463.19888670211515
20
246.0355560932058
30
0
10
-463.14081876031184
20
248.10183726355774
30
0
0
SPLINE
5
201
100
AcDbEntity
8
0
100
AcDbSpline
70
0
71
3
72
12
73
8
74
0
42
0.000000001
43
0.0000000001
44
0.0000000001
40
-0.66015735486905913
40
-0.66015735486905913
40
-0.66015735486905913
40
-0.66015735486905913
40
-0.4875626417382154
40
-0.4875626417382154
40
-0.25711038566986888
40
-0.25711038566986888
40
0
40
0
40
0
40
0
10
-463.14081875964285
20
248.10183726359782
30
0
10
-463.18519996224609
20
248.84560692164041
30
0
10
-463.13440522034455
20
249.38389901803421
30
0
10
-462.83421270231759
20
250.76041797582246
30
0
10
-462.51389132455904
20
251.68316672698509
30
0
10
-461.93393196017371
20
253.19536027354718
30
0
10
-461.47134604570238
20
254.2842213952932
30
0
10
-460.99999941885392
20
255.00000117661628
30
0
0
LINE
5
202
100
AcDbEntity
8
0
100
AcDbLine
10
-460.99999941885392
20
255.00000117661628
30
0
11
-370
21
255.00000354007534
31
0
0
LINE
5
203
100
AcDbEntity
8
0
100
AcDbLine
10
-370
20
255.00000354007534
30
0
11
-370
21
25
31
0
0
LINE
5
204
100
AcDbEntity
8
0
100
AcDbLine
10
-370
20
25
30
0
11
-465
21
25
31
0
0
SPLINE
5
205
100
AcDbEntity
8
0
100
AcDbSpline
70
0
71
3
72
44
73
40
74
0
42
0.000000001
43
0.0000000001
44
0.0000000001
40
-3.5544055598441071
40
-3.5544055598441071
40
-3.5544055598441071
40
-3.5544055598441071
40
-3.2515651338661842
40
-3.2515651338661842
40
-3.0644292831317053
40
-3.0644292831317053
40
-2.7441932740437665
40
-2.7441932740437665
40
-2.6110283392735565
40
-2.6110283392735565
40
-2.3856043908467286
40
-2.3856043908467286
40
-2.2289536571099231
40
-2.2289536571099231
40
-2.0322273832173194
40
-2.0322273832173194
40
-1.4669603115684946
40
-1.4669603115684946
40
-1.1073861490182817
40
-1.1073861490182817
40
-0.59373655980682116
40
-0.59373655980682116
40
-0.29915060636803603
40
-0.29915060636803603
40
-0.043107937860521112
40
-0.043107937860521112
40
-0.01198765918420848
40
-0.01198765918420848
40
-0.0054836571603249298
40
-0.0054836571603249298
40
-0.0032676490658466511
40
-0.0032676490658466511
40
-0.0022122434260182762
40
-0.0022122434260182762
40
-0.0015191496659438238
40
-0.0015191496659438238
40
-0.00085441103034627271
40
-0.00085441103034627271
40
0
40
0
40
0
40
0
10
-465
20
25
30
0
10
-465.83769543243881
20
57.801991660187397
30
0
10
-466.03506412691365
20
65.05248267032573
30
0
10
-465.68440746186462
20
71.981854882408896
30
0
10
-465.41039495622044
20
72.896675994528536
30
0
10
-464.82071240090477
20
76.676224727293715
30
0
10
-464.91635031056535
20
79.245823731023378
30
0
10
-465.0226480652791
20
83.994622590308254
30
0
10
-465.02434971873782
20
85.390075555415436
30
0
10
-464.98791139030288
20
89.146602606112623
30
0
10
-464.99044569274105
20
91.508328861646646
30
0
10
-465.00106656325931
20
95.511064067209531
30
0
10
-464.99411154983187
20
97.15219996512262
30
0
10
-464.99947075449916
20
100.85429840964028
30
0
10
-465.02524327388011
20
103.09051602573939
30
0
10
-464.65682266771779
20
112.6894002544151
30
0
10
-463.64862060952879
20
115.01370610212641
30
0
10
-462.70206223322316
20
120.37240398739817
30
0
10
-462.60597362245585
20
122.28538862039869
30
0
10
-462.86194750915081
20
129.57693455651767
30
0
10
-463.36384041783282
20
134.01754703014734
30
0
10
-462.49810418628959
20
142.52420755694746
30
0
10
-462.04597761294087
20
144.55908056839439
30
0
10
-461.89901513918574
20
153.07905438955422
30
0
10
-462.13766364174126
20
157.51270249096802
30
0
10
-462.09601800761288
20
159.50399705173916
30
0
10
-462.08619190865716
20
159.74869680225066
30
0
10
-462.05634520104417
20
159.91717464548393
30
0
10
-462.04933756020375
20
159.94862131572123
30
0
10
-462.03668513278171
20
159.97899935368565
30
0
10
-462.03283528549525
20
159.98654921512414
30
0
10
-462.02613158554021
20
159.99513652381478
30
0
10
-462.02358937778905
20
159.9977977187844
30
0
10
-462.01877189015067
20
160.00108173998072
30
0
10
-462.01669753276008
20
160.00209613069433
30
0
10
-462.01230616230919
20
160.0032019017041
30
0
10
-462.01013406429672
20
160.00329632712894
30
0
10
-462.00512408363778
20
160.00254203589219
30
0
10
-462.00245589685011
20
160.00144359981763
30
0
10
-461.99999943375587
20
160.00000238418579
30
0
0
SPLINE
5
206
100
AcDbEntity
8
0
100
AcDbSpline
70
0
71
3
72
10
73
6
74
0
42
0.000000001
43
0.0000000001
44
0.0000000001
40
-0.9227138198306728
40
-0.9227138198306728
40
-0.9227138198306728
40
-0.9227138198306728
40
-0.52046273317201697
40
-0.52046273317201697
40
0
40
0
40
0
40
0
10
-461.99999943375587
20
160.00000238418579
30
0
10
-461.31817951922937
20
161.54632034854257
30
0
10
-461.0568703210688
20
162.96967598943613
30
0
10
-460.88548563654638
20
165.93930342656438
30
0
10
-461.09163313955287
20
167.72276409073143
30
0
10
-461.41758379566841
20
169.42674476322514
30
0
0
SPLINE
5
207
100
AcDbEntity
8
0
100
AcDbSpline
70
0
71
3
72
26
73
22
74
0
42
0.000000001
43
0.0000000001
44
0.0000000001
40
-3.2434645264070663
40
-3.2434645264070663
40
-3.2434645264070663
40
-3.2434645264070663
40
-3.1533773880422267
40
-3.1533773880422267
40
-2.9843266344565826
40
-2.9843266344565826
40
-2.7826918205170248
40
-2.7826918205170248
40
-2.1712848621346743
40
-2.1712848621346743
40
-1.7137161089817292
40
-1.7137161089817292
40
-1.4447949637530877
40
-1.4447949637530877
40
-1.1544492584652644
40
-1.1544492584652644
40
-0.75319909004700514
40
-0.75319909004700514
40
-0.23881383457506272
40
-0.23881383457506272
40
0
40
0
40
0
40
0
10
-461.41758379566841
20
169.42674476322514
30
0
10
-461.43275945782045
20
172.15078383410901
30
0
10
-461.41540061496403
20
175.54660479012279
30
0
10
-461.39446491873753
20
187.62180614798189
30
0
10
-461.43031753566368
20
190.24129984538058
30
0
10
-461.43898855088361
20
195.73793491550043
30
0
10
-461.41933223431568
20
197.59770826051147
30
0
10
-461.40928619276082
20
204.2108734925296
30
0
10
-461.53097814867976
20
206.65885477060968
30
0
10
-462.59694683664077
20
212.03315137278508
30
0
10
-463.06026762231272
20
213.36827313500692
30
0
10
-463.01226127080224
20
218.66739140624861
30
0
10
-462.85669721905032
20
220.75307246884535
30
0
10
-463.02945315100339
20
225.28917244938808
30
0
10
-463.35334947267762
20
226.60006503250213
30
0
10
-463.52361378487717
20
229.7072740985017
30
0
10
-463.08609260646421
20
230.51476778391054
30
0
10
-462.58548797428534
20
234.10410771739754
30
0
10
-462.90031959710831
20
235.67289902161249
30
0
10
-463.10706614178861
20
238.3216792157138
30
0
10
-463.13543926865964
20
239.21556398474684
30
0
10
-462.99999944865704
20
240.00000357627869
30
0
0
LINE
5
208
100
AcDbEntity
8
0
100
AcDbLine
10
-484.99999999999829
20
254.99999416160813
30
0
11
-471.99999958276578
21
254.99999796140423
31
0
0
SPLINE
5
209
100
AcDbEntity
8
0
100
AcDbSpline
70
0
71
3
72
50
73
46
74
0
42
0.000000001
43
0.0000000001
44
0.0000000001
40
-72.273614842285014
40
-72.273614842285014
40
-72.273614842285014
40
-72.273614842285014
40
-69.721588641516476
40
-69.721588641516476
40
-66.615547575807369
40
-66.615547575807369
40
-56.975930949986996
40
-56.975930949986996
40
-50.251122278844115
40
-50.251122278844115
40
-47.622290128969333
40
-47.622290128969333
40
-43.491876354987937
40
-43.491876354987937
40
-38.564794366824707
40
-38.564794366824707
40
-32.496649909434467
40
-32.496649909434467
40
-26.928706710861977
40
-26.928706710861977
40
-24.585478353626186
40
-24.585478353626186
40
-23.789483667816473
40
-23.789483667816473
40
-23.448232726094815
40
-23.448232726094815
40
-23.247619380101227
40
-23.247619380101227
40
-23.077450338202571
40
-23.077450338202571
40
-22.886934887049502
40
-22.886934887049502
40
-22.596570285934856
40
-22.596570285934856
40
-22.12446673302172
40
-22.12446673302172
40
-21.235221570015362
40
-21.235221570015362
40
-19.614587459692011
40
-19.614587459692011
40
-15.543273911083606
40
-15.543273911083606
40
-7.9518774998216495
40
-7.9518774998216495
40
0
40
0
40
0
40
0
10
-471.99999958276578
20
254.99999796140423
30
0
10
-471.4629371372888
20
253.85894636454549
30
0
10
-471.63550454785013
20
253.35519584201919
30
0
10
-471.39092956142372
20
249.83717133515196
30
0
10
-470.96301413813734
20
247.87892059860357
30
0
10
-470.08373122743183
20
242.79887375307638
30
0
10
-471.08630392247824
20
240.7950304571244
30
0
10
-470.93695739168481
20
230.75205698860231
30
0
10
-470.44881966377386
20
227.22956181280964
30
0
10
-471.55754021728461
20
222.30205616266284
30
0
10
-471.9323145441868
20
221.26988782181084
30
0
10
-472.15115999406646
20
217.34148464650659
30
0
10
-471.51400907414939
20
214.71555987526185
30
0
10
-470.66282930896352
20
207.14648048206297
30
0
10
-470.80469661923541
20
204.0847426840752
30
0
10
-471.65141324498757
20
193.71513667519184
30
0
10
-472.28246307305909
20
187.90114891746597
30
0
10
-471.68866283118666
20
168.9492097585175
30
0
10
-470.72428445559342
20
160.10332795749892
30
0
10
-470.3749174121732
20
150.79168376700756
30
0
10
-470.39323539607801
20
148.34916253231643
30
0
10
-470.76268039851124
20
146.02141151824515
30
0
10
-470.90113698418577
20
145.41591157025763
30
0
10
-471.20553899825694
20
144.72620881161794
30
0
10
-471.32242907238935
20
144.5151107402755
30
0
10
-471.55860766288009
20
144.24387039326001
30
0
10
-471.65943552357277
20
144.15459676774273
30
0
10
-471.87373570342965
20
144.03362308176455
30
0
10
-471.97885695170828
20
143.99756369065872
30
0
10
-472.21628186229907
20
143.96751064395437
30
0
10
-472.34147704578743
20
143.98018815687234
30
0
10
-472.64947207523511
20
144.06370500046532
30
0
10
-472.82586661129591
20
144.16087794710285
30
0
10
-473.23773037760469
20
144.45580062091122
30
0
10
-473.49435715209717
20
144.7165038408273
30
0
10
-474.20682403871035
20
145.64512883152273
30
0
10
-474.66118594803538
20
146.49939588511546
30
0
10
-475.6419377940781
20
149.43105720828601
30
0
10
-475.69447612601573
20
151.26165372847066
30
0
10
-475.54034175475039
20
155.56556281136403
30
0
10
-474.69882562405519
20
158.25118348765525
30
0
10
-474.45588134111597
20
168.37829823526948
30
0
10
-477.15100757815867
20
174.63317920483752
30
0
10
-482.63856266238429
20
207.74846846831912
30
0
10
-484.22900654041348
20
228.50495123114348
30
0
10
-484.99999999999829
20
254.99999416160813
30
0
0
LWPOLYLINE
5
210
100
AcDbEntity
8
0
100
AcDbPolyline
90
12
70
1
43
0.0
10
-500
20
0
10
-490
20
0
10
-490
20
15
10
-370
20
15
10
-370
20
0
10
-360
20
0
10
-360
20
280
10
-370
20
280
10
-370
20
265
10
-490
20
265
10
-490
20
280
10
-500
20
280
0
LINE
5
211
100
AcDbEntity
8
0
100
AcDbLine
10
-627.02607320502671
20
255.0000037997961
30
0
11
-615.53757839530044
21
255.0000071576182
31
0
0
SPLINE
5
212
100
AcDbEntity
8
0
100
AcDbSpline
70
0
71
3
72
48
73
44
74
0
42
0.000000001
43
0.0000000001
44
0.0000000001
40
-13.183719730502744
40
-13.183719730502744
40
-13.183719730502744
40
-13.183719730502744
40
-11.299963916312244
40
-11.299963916312244
40
-8.6653039456165359
40
-8.6653039456165359
40
-7.1196937805087641
40
-7.1196937805087641
40
-6.1437627250919356
40
-6.1437627250919356
40
-5.4174492738607709
40
-5.4174492738607709
40
-5.1401640342928463
40
-5.1401640342928463
40
-5.0418493971275922
40
-5.0418493971275922
40
-5.0005454135313308
40
-5.0005454135313308
40
-4.9781238052229524
40
-4.9781238052229524
40
-4.9603345012080711
40
-4.9603345012080711
40
-4.9406648734701584
40
-4.9406648734701584
40
-4.9105947018198339
40
-4.9105947018198339
40
-4.8401900958346804
40
-4.8401900958346804
40
-4.7191142097002148
40
-4.7191142097002148
40
-3.7079966496294321
40
-3.7079966496294321
40
-2.84815265801502
40
-2.84815265801502
40
-1.7461514656379735
40
-1.7461514656379735
40
-0.56667112437387224
40
-0.56667112437387224
40
-0.30156535205888041
40
-0.30156535205888041
40
-0.14494682620025109
40
-0.14494682620025109
40
0
40
0
40
0
40
0
10
-615.53757839530044
20
255.0000071576182
30
0
10
-615.68475524973019
20
253.6722268315792
30
0
10
-615.38097520319513
20
251.02038682691554
30
0
10
-615.46441608236887
20
244.99379230994072
30
0
10
-616.15353132435507
20
243.29856887931311
30
0
10
-617.52918768962377
20
238.33777498086238
30
0
10
-618.39631110871119
20
234.94627575262174
30
0
10
-618.9828754716425
20
227.7403347506775
30
0
10
-618.88096543774907
20
226.10761847302609
30
0
10
-619.30561906847572
20
218.46397078949883
30
0
10
-619.74941908694518
20
212.39367497123015
30
0
10
-620.11814598568026
20
208.8681040539762
30
0
10
-620.22180729944239
20
208.14163400684961
30
0
10
-620.39288318237777
20
207.51001449522153
30
0
10
-620.44286702781324
20
207.36854871106385
30
0
10
-620.52422477399887
20
207.22003092959866
30
0
10
-620.55413651270942
20
207.17434064143413
30
0
10
-620.60907661292379
20
207.1195732278336
30
0
10
-620.63098615975616
20
207.10239063356792
30
0
10
-620.67497663783979
20
207.08083562055205
30
0
10
-620.69547017417199
20
207.07484840182985
30
0
10
-620.74096237201707
20
207.07121009438993
30
0
10
-620.76442145893861
20
207.07465076668041
30
0
10
-620.82206543257075
20
207.09331025880653
30
0
10
-620.85466533360795
20
207.11359077827723
30
0
10
-620.95063004548297
20
207.18918035570368
30
0
10
-621.02392382393055
20
207.27645514012045
30
0
10
-621.24323678835185
20
207.62144499832246
30
0
10
-621.38097416843164
20
207.92064104082885
30
0
10
-622.51815264421907
20
210.66856530649875
30
0
10
-624.68483198167667
20
218.94136456395299
30
0
10
-626.00290674805944
20
224.9332977060526
30
0
10
-626.21725697418196
20
226.73701971600985
30
0
10
-626.21577740227701
20
231.66225079492813
30
0
10
-625.86101642880726
20
234.01558916901183
30
0
10
-626.0652941638059
20
243.70514789637258
30
0
10
-626.32286489981163
20
244.35976428241347
30
0
10
-625.79146110557485
20
250.47762214770404
30
0
10
-625.71681407746485
20
251.46270775092975
30
0
10
-625.86046274425644
20
252.86489576930637
30
0
10
-625.97389335124194
20
253.37375117550141
30
0
10
-626.3932317520281
20
254.28983618598213
30
0
10
-626.67102650170546
20
254.67231241573359
30
0
10
-627.02607320502671
20
255.0000037997961
30
0
0
LINE
5
213
100
AcDbEntity
8
0
100
AcDbLine
10
-646.67106911388692
20
255
30
0
11
-637.48974724344566
21
254.9999999999844
31
0
0
SPLINE
5
214
100
AcDbEntity
8
0
100
AcDbSpline
70
0
71
3
72
36
73
32
74
0
42
0.000000001
43
0.0000000001
44
0.0000000001
40
-1.2772728130577204
40
-1.2772728130577204
40
-1.2772728130577204
40
-1.2772728130577204
40
-0.96942110018630889
40
-0.96942110018630889
40
-0.71926543969595047
40
-0.71926543969595047
40
-0.66122402264444247
40
-0.66122402264444247
40
-0.6396263641576222
40
-0.6396263641576222
40
-0.62950789501237592
40
-0.62950789501237592
40
-0.62341045317624555
40
-0.62341045317624555
40
-0.61787987392827193
40
-0.61787987392827193
40
-0.6111953914491457
40
-0.6111953914491457
40
-0.60080377357544656
40
-0.60080377357544656
40
-0.55241666002154477
40
-0.55241666002154477
40
-0.4394169301234242
40
-0.4394169301234242
40
-0.37434178319305189
40
-0.37434178319305189
40
-0.29941121347776634
40
-0.29941121347776634
40
-0.074416668455232898
40
-0.074416668455232898
40
0
40
0
40
0
40
0
10
-637.48974724344566
20
254.9999999999844
30
0
10
-637.87946840842699
20
254.09137718359179
30
0
10
-637.95870584990757
20
254.03190253864773
30
0
10
-638.94873268237177
20
252.53814359495496
30
0
10
-639.017793441452
20
251.92305626870922
30
0
10
-639.19107693309684
20
251.00604508579696
30
0
10
-639.22270210761019
20
250.85907653305978
30
0
10
-639.27205870302441
20
250.72349457141411
30
0
10
-639.28624988460035
20
250.69279073072281
30
0
10
-639.308948849177
20
250.6592950275936
30
0
10
-639.31764749476895
20
250.64861304037552
30
0
10
-639.33379686622402
20
250.63558133065561
30
0
10
-639.34050604589993
20
250.63149263981646
30
0
10
-639.35455109948498
20
250.62654891423512
30
0
10
-639.36141438745562
20
250.6255528995145
30
0
10
-639.37703102866215
20
250.62644401365941
30
0
10
-639.38525095809405
20
250.62894199513238
30
0
10
-639.40499959973613
20
250.63829193124971
30
0
10
-639.41661957290091
20
250.64715176517242
30
0
10
-639.47872394196088
20
250.70601038728458
30
0
10
-639.53610908551309
20
250.80732633816584
30
0
10
-639.75569357034215
20
251.25782858431461
30
0
10
-639.9472774785504
20
251.74041499253619
30
0
10
-640.36432704809272
20
252.39218763398361
30
0
10
-640.52838953032551
20
252.58810312974649
30
0
10
-640.94423788770075
20
252.92429978570209
30
0
10
-641.18296918642523
20
253.0331262832851
30
0
10
-642.24661602681078
20
253.35137306383615
30
0
10
-643.12650371958296
20
253.27737151953625
30
0
10
-645.77217608228761
20
254.50793779853197
30
0
10
-646.45392043720062
20
254.88009164410607
30
0
10
-646.67106911388692
20
255
30
0
0
LWPOLYLINE
5
215
100
AcDbEntity
8
0
100
AcDbPolyline
90
2
70
1
43
0.0
10
-635.99999941885392
20
255.00000117661628
0
SPLINE
5
216
100
AcDbEntity
8
0
100
AcDbSpline
70
0
71
3
72
22
73
18
74
0
42
0.000000001
43
0.0000000001
44
0.0000000001
40
-51.664194285818304
40
-51.664194285818304
40
-51.664194285818304
40
-51.664194285818304
40
-49.166136884293962
40
-49.166136884293962
40
-45.804346644601871
40
-45.804346644601871
40
-43.271227654853028
40
-43.271227654853028
40
-37.988034594535357
40
-37.988034594535357
40
-28.897734800628324
40
-28.897734800628324
40
-22.09240043667981
40
-22.09240043667981
40
-12.09527919766516
40
-12.09527919766516
40
0
40
0
40
0
40
0
10
-636.99999943375599
20
160.00000238418582
30
0
10
-636.62187400239316
20
157.46784587322611
30
0
10
-635.61290712510652
20
154.9109921086349
30
0
10
-633.40287328474392
20
148.32538819977728
30
0
10
-633.03923398747099
20
146.42784314999278
30
0
10
-631.16719524248037
20
138.45154550326629
30
0
10
-630.5993075793582
20
136.23286192368204
30
0
10
-628.5694101319018
20
127.35921013577786
30
0
10
-627.91902529495087
20
123.3318096194143
30
0
10
-626.70432549395798
20
114.62355359231923
30
0
10
-626.83218989807517
20
113.32864970061978
30
0
10
-627.30081380156003
20
103.97472000065092
30
0
10
-627.48318724865419
20
99.969108309812441
30
0
10
-628.02072844289353
20
90.083754889023623
30
0
10
-628.26650486340361
20
87.145614570099141
30
0
10
-629.58065727009489
20
74.195344057279215
30
0
10
-630.34346898397064
20
65.316134278503057
30
0
10
-630
20
25
30
0
0
LINE
5
217
100
AcDbEntity
8
0
100
AcDbLine
10
-629.99999999999989
20
25.000000000000004
30
0
11
-660
21
25
31
0
0
SPLINE
5
218
100
AcDbEntity
8
0
100
AcDbSpline
70
0
71
3
72
22
73
18
74
0
42
0.000000001
43
0.0000000001
44
0.0000000001
40
-9.5537452836055046
40
-9.5537452836055046
40
-9.5537452836055046
40
-9.5537452836055046
40
-9.4060621967865146
40
-9.4060621967865146
40
-9.2201075117155185
40
-9.2201075117155185
40
-8.7781802087359537
40
-8.7781802087359537
40
-7.8074744274985814
40
-7.8074744274985814
40
-4.6298632155244084
40
-4.6298632155244084
40
-3.4794818938704024
40
-3.4794818938704024
40
-2.3554633731554309
40
-2.3554633731554309
40
0
40
0
40
0
40
0
10
-660
20
25
30
0
10
-659.78890773214243
20
25.258274627848877
30
0
10
-659.62737346414906
20
25.565071577241984
30
0
10
-659.34433864120388
20
26.262743343917492
30
0
10
-659.23077952449034
20
26.687866935584189
30
0
10
-658.94800809807975
20
28.073554265828381
30
0
10
-658.86106938480623
20
29.235155988511266
30
0
10
-658.77948859993717
20
33.237604398315447
30
0
10
-659.0209073722616
20
36.662464896705849
30
0
10
-659.90680998520952
20
46.343511278463083
30
0
10
-661.09628665521018
20
50.385914093229019
30
0
10
-660.95582033037488
20
59.154242517260727
30
0
10
-660.78496996816068
20
60.933573217401509
30
0
10
-661.13215995548831
20
64.345025887538355
30
0
10
-661.59089133484554
20
65.535426864497381
30
0
10
-663.42371762047674
20
70.54739364652653
30
0
10
-664.47445785340915
20
74.166064928032483
30
0
10
-664.99999985098839
20
82.000001221895218
30
0
0
LINE
5
219
100
AcDbEntity
8
0
100
AcDbLine
10
-664.99999985098839
20
82.000001221895232
30
0
11
-664.99999985098839
21
197.00000293552881
31
0
0
SPLINE
5
220
100
AcDbEntity
8
0
100
AcDbSpline
70
0
71
3
72
18
73
14
74
0
42
0.000000001
43
0.0000000001
44
0.0000000001
40
-2.8981072421829248
40
-2.8981072421829248
40
-2.8981072421829248
40
-2.8981072421829248
40
-2.1669080671423622
40
-2.1669080671423622
40
-1.6331421588778396
40
-1.6331421588778396
40
-1.1391438397795215
40
-1.1391438397795215
40
-0.53634525360252872
40
-0.53634525360252872
40
-0.20496373773909154
40
-0.20496373773909154
40
0
40
0
40
0
40
0
10
-664.99999985098839
20
197.00000293552881
30
0
10
-662.03287636341997
20
192.76303671546736
30
0
10
-660.88041663667468
20
188.53499908765554
30
0
10
-656.27253573505595
20
182.18841259738423
30
0
10
-654.18871388953903
20
180.72539687104916
30
0
10
-650.09403164526793
20
178.20074910221501
30
0
10
-648.52421522509746
20
177.38106467065018
30
0
10
-643.78982242923576
20
172.92890536341554
30
0
10
-640.85883292609151
20
169.1891489853175
30
0
10
-638.07720943264724
20
164.41762634439567
30
0
10
-637.53616872272471
20
163.10969691887954
30
0
10
-637.07556543750161
20
161.38375467797255
30
0
10
-636.96408992078455
20
160.68227049218223
30
0
10
-636.99999943375587
20
160.00000238418579
30
0
0
SPLINE
5
221
100
AcDbEntity
8
0
100
AcDbSpline
70
0
71
3
72
22
73
18
74
0
42
0.000000001
43
0.0000000001
44
0.0000000001
40
-1.3901990219661184
40
-1.3901990219661184
40
-1.3901990219661184
40
-1.3901990219661184
40
-1.268777777119056
40
-1.268777777119056
40
-1.0336951260743117
40
-1.0336951260743117
40
-0.88612720556211411
40
-0.88612720556211411
40
-0.75771156084649272
40
-0.75771156084649272
40
-0.52191236661050722
40
-0.52191236661050722
40
-0.21842766487745929
40
-0.21842766487745929
40
-0.07023328307241386
40
-0.07023328307241386
40
0
40
0
40
0
40
0
10
-648.2337954812424
20
254.99999760077554
30
0
10
-647.08078137269058
20
254.1348147844877
30
0
10
-646.68348311756836
20
253.74850847984192
30
0
10
-645.14388439432787
20
252.59223965390419
30
0
10
-644.17233302786531
20
252.19044720855123
30
0
10
-642.08743187960056
20
250.95628758269837
30
0
10
-641.30647065949711
20
250.42580077237429
30
0
10
-640.13069530698147
20
249.25887671241065
30
0
10
-639.77611147668131
20
248.72166959686888
30
0
10
-639.09607932159383
20
247.13263554820003
30
0
10
-639.07134166475169
20
246.09219266772274
30
0
10
-638.64656894692291
20
243.58023410581808
30
0
10
-638.27452900169658
20
242.86122413917786
30
0
10
-637.48381866048965
20
241.31045778148751
30
0
10
-637.23254036128617
20
240.815107800693
30
0
10
-637.03425253116609
20
240.11432571339043
30
0
10
-636.99152213726268
20
239.87510257089795
30
0
10
-636.99949290760333
20
239.64112735699354
30
0
0
SPLINE
5
222
100
AcDbEntity
8
0
100
AcDbSpline
70
0
71
3
72
56
73
52
74
0
42
0.000000001
43
0.0000000001
44
0.0000000001
40
-110.71888815646486
40
-110.71888815646486
40
-110.71888815646486
40
-110.71888815646486
40
-96.899493899015724
40
-96.899493899015724
40
-75.97798284778824
40
-75.97798284778824
40
-54.965144820927677
40
-54.965144820927677
40
-31.485537065960287
40
-31.485537065960287
40
-24.920099958535832
40
-24.920099958535832
40
-21.464824497201914
40
-21.464824497201914
40
-16.615080731032453
40
-16.615080731032453
40
-13.951197049490922
40
-13.951197049490922
40
-10.751678550221669
40
-10.751678550221669
40
-7.3204586327236516
40
-7.3204586327236516
40
-5.346507900042913
40
-5.346507900042913
40
-4.8042285635014705
40
-4.8042285635014705
40
-4.6493404922197028
40
-4.6493404922197028
40
-4.5874353303053805
40
-4.5874353303053805
40
-4.553257656727328
40
-4.553257656727328
40
-4.5258504615022614
40
-4.5258504615022614
40
-4.4954473902287448
40
-4.4954473902287448
40
-4.4489445029639878
40
-4.4489445029639878
40
-4.3355091972486006
40
-4.3355091972486006
40
-4.1341921755046656
40
-4.1341921755046656
40
-3.3517116042381874
40
-3.3517116042381874
40
-2.7413881459320422
40
-2.7413881459320422
40
-1.5903155762954708
40
-1.5903155762954708
40
-0.66346375420052794
40
-0.66346375420052794
40
0
40
0
40
0
40
0
10
-636.99949290760333
20
239.64112735699354
30
0
10
-635.40737488765717
20
236.66097418053485
30
0
10
-633.9836991885328
20
234.31929793922353
30
0
10
-630.73458049007718
20
227.36916262102827
30
0
10
-630.07944803825035
20
224.35904863203646
30
0
10
-629.10273829582798
20
220.20942002224132
30
0
10
-628.79843061712791
20
219.19047806257208
30
0
10
-626.52719257199249
20
212.59155464784897
30
0
10
-625.08684474667643
20
208.58405577085921
30
0
10
-623.67474490514292
20
202.62999492258106
30
0
10
-622.62620479959583
20
198.33154705470531
30
0
10
-621.7384317138966
20
186.55467052059589
30
0
10
-621.82726445368746
20
184.72392498736653
30
0
10
-622.70060092603831
20
180.01755820417898
30
0
10
-623.61287930592505
20
177.48826175230857
30
0
10
-624.13664500954724
20
167.57857945548662
30
0
10
-624.00292012321063
20
164.96597909076212
30
0
10
-623.9796811934566
20
158.49584073356584
30
0
10
-624.14876741874969
20
155.66574426346418
30
0
10
-624.84190944251338
20
146.29175987415505
30
0
10
-625.04036331944303
20
143.95129637896281
30
0
10
-625.00237299264415
20
139.38345219800991
30
0
10
-624.93044150497599
20
136.56209511730543
30
0
10
-625.19360694526347
20
133.55248415650266
30
0
10
-625.28766300335292
20
132.75067047872849
30
0
10
-625.48786654914704
20
132.04307338619958
30
0
10
-625.544030444707
20
131.88254475203618
30
0
10
-625.64182291588986
20
131.71143021925857
30
0
10
-625.67628983110035
20
131.66109574130334
30
0
10
-625.73960118241553
20
131.60056725678655
30
0
10
-625.76501132560247
20
131.58155588398856
30
0
10
-625.81600215946878
20
131.55798783279832
30
0
10
-625.83979930860312
20
131.55165826499433
30
0
10
-625.89245029087851
20
131.54872397696482
30
0
10
-625.91951326911783
20
131.55337332616648
30
0
10
-625.98571244507173
20
131.57656241264002
30
0
10
-626.02290691863413
20
131.60091467775351
30
0
10
-626.13518637530592
20
131.6936644031895
30
0
10
-626.21608210235274
20
131.79832667009947
30
0
10
-626.44199278688552
20
132.16974805426614
30
0
10
-626.58202611105162
20
132.48903845864561
30
0
10
-627.18475043913872
20
134.02906875399268
30
0
10
-627.72919610707902
20
136.01312310076227
30
0
10
-628.85626982890903
20
140.10765956127025
30
0
10
-629.36377239720764
20
141.89812679171862
30
0
10
-630.84301359164806
20
147.06110351064794
30
0
10
-631.14880597965021
20
148.29017425755302
30
0
10
-632.49864904797766
20
155.75345487157153
30
0
10
-633.0975479060728
20
159.46897482390702
30
0
10
-634.54960767484113
20
165.15366142714029
30
0
10
-635.32688897210653
20
167.50286331242822
30
0
10
-636.41758379566841
20
169.42674476322514
30
0
0
SPLINE
5
223
100
AcDbEntity
8
0
100
AcDbSpline
70
0
71
3
72
18
73
14
74
0
42
0.000000001
43
0.0000000001
44
0.0000000001
40
-2.5224796660006392
40
-2.5224796660006392
40
-2.5224796660006392
40
-2.5224796660006392
40
-2.2125959294539812
40
-2.2125959294539812
40
-1.8279587375584425
40
-1.8279587375584425
40
-1.039776762432064
40
-1.039776762432064
40
-0.66020082851399509
40
-0.66020082851399509
40
-0.17250967883834953
40
-0.17250967883834953
40
0
40
0
40
0
40
0
10
-636.41758379566841
20
169.42674476322514
30
0
10
-637.97576208573878
20
172.1767190318715
30
0
10
-639.52302748179272
20
174.07781668809193
30
0
10
-642.68091217572487
20
177.21309649721121
30
0
10
-644.39980426435864
20
178.3575016316199
30
0
10
-649.46858939800347
20
181.5478282822009
30
0
10
-651.74935663574956
20
182.76551284656338
30
0
10
-657.17429783092041
20
190.36367997952476
30
0
10
-659.22030395002253
20
193.65031137305971
30
0
10
-662.65310066501013
20
199.52421299033512
30
0
10
-663.90339122856062
20
202.00129173480636
30
0
10
-664.75461978109945
20
204.38490619285568
30
0
10
-664.94617734053281
20
205.04868286118037
30
0
10
-664.99999985098839
20
205.62119071319884
30
0
0
LINE
5
224
100
AcDbEntity
8
0
100
AcDbLine
10
-664.9999998509885
20
205.62119071319884
30
0
11
-664.99999985098839
21
254.99999270014814
31
0
0
LINE
5
225
100
AcDbEntity
8
0
100
AcDbLine
10
-664.99999985098839
20
254.99999270014814
30
0
11
-648.2337954812424
21
254.99999760077554
31
0
0
LINE
5
226
100
AcDbEntity
8
0
100
AcDbLine
10
-545
20
24.999999999999574
30
0
11
-614.40304669375723
21
24.99999999999654
31
0
0
SPLINE
5
227
100
AcDbEntity
8
0
100
AcDbSpline
70
0
71
3
72
26
73
22
74
0
42
0.000000001
43
0.0000000001
44
0.0000000001
40
-14.916150446809354
40
-14.916150446809354
40
-14.916150446809354
40
-14.916150446809354
40
-14.227983316885563
40
-14.227983316885563
40
-13.34714885622386
40
-13.34714885622386
40
-11.247316259717806
40
-11.247316259717806
40
-8.0917380874341998
40
-8.0917380874341998
40
-6.8951603020459853
40
-6.8951603020459853
40
-5.7608042321243147
40
-5.7608042321243147
40
-3.5951974481453757
40
-3.5951974481453757
40
-2.3907412462271704
40
-2.3907412462271704
40
-1.0148591831623655
40
-1.0148591831623655
40
0
40
0
40
0
40
0
10
-614.40304669375723
20
24.99999999999654
30
0
10
-614.55801401637405
20
26.587198081168715
30
0
10
-614.78056061931602
20
27.743858360308327
30
0
10
-615.22388121075244
20
32.288745563700424
30
0
10
-615.34149152295083
20
35.415480474310264
30
0
10
-615.39848915976052
20
48.665704534502183
30
0
10
-614.87493584983883
20
61.372760040750421
30
0
10
-612.46531122270801
20
98.560616186686786
30
0
10
-610.8405434916707
20
113.09494346051412
30
0
10
-611.02545688502153
20
128.85813478124467
30
0
10
-611.27551096629281
20
131.78276298593556
30
0
10
-611.04785398786021
20
138.6373906604729
30
0
10
-610.63831073526069
20
141.57549291875145
30
0
10
-608.91887109454251
20
152.03331387955646
30
0
10
-607.82491962815197
20
157.34946962579758
30
0
10
-609.01848780553291
20
167.47074208179637
30
0
10
-609.83977722807867
20
170.41715752114814
30
0
10
-610.13976847946287
20
177.75765691789837
30
0
10
-609.34495563602604
20
180.67587283419556
30
0
10
-608.43269046584373
20
186.69470209112544
30
0
10
-608.18258961691026
20
189.60470213283833
30
0
10
-608.79065519941867
20
192.9324678562833
30
0
0
SPLINE
5
228
100
AcDbEntity
8
0
100
AcDbSpline
70
0
71
3
72
18
73
14
74
0
42
0.000000001
43
0.0000000001
44
0.0000000001
40
-4.1202453334542026
40
-4.1202453334542026
40
-4.1202453334542026
40
-4.1202453334542026
40
-3.8547768264056224
40
-3.8547768264056224
40
-3.4489095244646375
40
-3.4489095244646375
40
-2.8178428701966878
40
-2.8178428701966878
40
-1.9945996334108866
40
-1.9945996334108866
40
-0.970138055982255
40
-0.970138055982255
40
0
40
0
40
0
40
0
10
-608.79065519941867
20
192.9324678562833
30
0
10
-609.03061225030683
20
197.27820260041074
30
0
10
-608.75088453429635
20
202.5034532252825
30
0
10
-608.05077531681616
20
211.4562733065016
30
0
10
-607.47477807089524
20
214.8069270357534
30
0
10
-606.22000118087283
20
226.92171594030407
30
0
10
-606.24970738497063
20
231.7490561246687
30
0
10
-606.27746801091871
20
235.4000542745751
30
0
10
-606.32387389371956
20
238.11523987603519
30
0
10
-605.78280372579957
20
244.34990186879392
30
0
10
-605.23628747902569
20
245.61131053222056
30
0
10
-604.8210012913903
20
249.77627323112085
30
0
10
-604.99999895706731
20
251.76621027985522
30
0
10
-604.99999895691872
20
255.00000379979608
30
0
0
LINE
5
229
100
AcDbEntity
8
0
100
AcDbLine
10
-604.9999989569186
20
255.00000379979608
30
0
11
-545
21
255.0000037997961
31
0
0
LINE
5
230
100
AcDbEntity
8
0
100
AcDbLine
10
-545
20
255.0000037997961
30
0
11
-545
21
24.999999999999574
31
0
0
LWPOLYLINE
5
231
100
AcDbEntity
8
0
100
AcDbPolyline
90
12
70
1
43
0.0
10
-675
20
0
10
-664.99999985098839
20
0
10
-664.99999985098839
20
15
10
-545
20
15
10
-545
20
0
10
-535
20
0
10
-535
20
280
10
-545
20
280
10
-545
20
265
10
-664.99999985098839
20
265
10
-664.99999985098839
20
280
10
-675
20
280
0
LWPOLYLINE
5
232
100
AcDbEntity
8
0
100
AcDbPolyline
90
3
70
1
43
0.0
10
-889.99999985098827
20
181.06763621316475
10
-890
20
255.0000037997961
0
LINE
5
233
100
AcDbEntity
8
0
100
AcDbLine
10
-769.99999791383743
20
25
30
0
11
-890
21
25
31
0
0
LINE
5
234
100
AcDbEntity
8
0
100
AcDbLine
10
-890
20
25
30
0
11
-889.99999985098839
21
142.04988626690647
31
0
0
SPLINE
5
235
100
AcDbEntity
8
0
100
AcDbSpline
70
0
71
3
72
22
73
18
74
0
42
0.000000001
43
0.0000000001
44
0.0000000001
40
-12.296401204289932
40
-12.296401204289932
40
-12.296401204289932
40
-12.296401204289932
40
-11.263459373826013
40
-11.263459373826013
40
-9.8479499749530213
40
-9.8479499749530213
40
-8.2586560406918359
40
-8.2586560406918359
40
-6.5208611824939995
40
-6.5208611824939995
40
-5.1245311315408841
40
-5.1245311315408841
40
-2.7322015478575761
40
-2.7322015478575761
40
-0.87147804965651554
40
-0.87147804965651554
40
0
40
0
40
0
40
0
10
-889.99999985098839
20
142.04988626690647
30
0
10
-888.39044906397021
20
149.8015586152716
30
0
10
-887.72665054270442
20
153.03129632868132
30
0
10
-885.83062228947324
20
161.01821295668685
30
0
10
-883.96163155221927
20
167.97563282590392
30
0
10
-876.90052463970324
20
182.83458412853156
30
0
10
-873.00636301672557
20
187.21674618422151
30
0
10
-866.80661007322999
20
192.95652320909812
30
0
10
-863.76581237030587
20
194.84258661393116
30
0
10
-858.88454138846464
20
199.43895247899886
30
0
10
-857.02675206379001
20
201.82241588644439
30
0
10
-852.66773120440473
20
211.65551743096324
30
0
10
-851.402405475195
20
219.81452710629179
30
0
10
-848.67676027624134
20
234.8394975665876
30
0
10
-847.30621382127356
20
241.69218498041721
30
0
10
-843.83196014155089
20
250.10747028707277
30
0
10
-842.4091434224573
20
252.77833115750218
30
0
10
-840.53757839530044
20
255.0000071576182
30
0
0
LINE
5
236
100
AcDbEntity
8
0
100
AcDbLine
10
-840.53757839530044
20
255.0000071576182
30
0
11
-769.99999791383743
21
255.00000421672223
31
0
0
LINE
5
237
100
AcDbEntity
8
0
100
AcDbLine
10
-769.99999791383743
20
255.00000421672223
30
0
11
-769.99999791383743
21
25
31
0
0
LINE
5
238
100
AcDbEntity
8
0
100
AcDbLine
10
-855.58170721383067
20
255.00000276033973
30
0
11
-846.28182580016357
21
255.00000547870715
31
0
0
SPLINE
5
239
100
AcDbEntity
8
0
100
AcDbSpline
70
0
71
3
72
30
73
26
74
0
42
0.000000001
43
0.0000000001
44
0.0000000001
40
-3.6744979561025977
40
-3.6744979561025977
40
-3.6744979561025977
40
-3.6744979561025977
40
-2.8663484660389633
40
-2.8663484660389633
40
-2.3249137397556563
40
-2.3249137397556563
40
-1.7424538252758266
40
-1.7424538252758266
40
-1.3342287972117268
40
-1.3342287972117268
40
-1.0905175241296896
40
-1.0905175241296896
40
-0.96544974664098893
40
-0.96544974664098893
40
-0.89448551391863274
40
-0.89448551391863274
40
-0.83939504113968033
40
-0.83939504113968033
40
-0.78064159827644697
40
-0.78064159827644697
40
-0.69566700932033942
40
-0.69566700932033942
40
-0.54566426823299119
40
-0.54566426823299119
40
0
40
0
40
0
40
0
10
-846.28182580016357
20
255.00000547870715
30
0
10
-854.53837892340403
20
232.41889279446303
30
0
10
-853.77718978527912
20
225.65415363723037
30
0
10
-857.38156897697024
20
210.58139889804718
30
0
10
-859.55624953476843
20
206.23800589181567
30
0
10
-863.1849931038837
20
200.31702404005924
30
0
10
-865.28664539700185
20
197.83395904836294
30
0
10
-868.86623812400285
20
194.77501694527177
30
0
10
-870.21450531945516
20
193.96031336274578
30
0
10
-871.97161579065903
20
193.20663002620682
30
0
10
-872.56300502905833
20
193.03722895285495
30
0
10
-873.31501113348759
20
192.94599406491756
30
0
10
-873.58830996123118
20
192.93855526900617
30
0
10
-873.98358970647917
20
193.01024509263726
30
0
10
-874.12520280955914
20
193.0543321969711
30
0
10
-874.3505935338992
20
193.18031298486119
30
0
10
-874.43775241953801
20
193.25017490240711
30
0
10
-874.58640466317479
20
193.42983216842501
30
0
10
-874.6405297818219
20
193.53558186572286
30
0
10
-874.72654425544249
20
193.81723614287327
30
0
10
-874.73568692493518
20
193.9967317895514
30
0
10
-874.70004016899668
20
194.47678574970709
30
0
10
-874.60583468064669
20
194.80009931387991
30
0
10
-874.10429070331952
20
196.1306997084352
30
0
10
-873.23951549729998
20
197.45591003619825
30
0
10
-872.12926279390433
20
198.89662744136865
30
0
0
SPLINE
5
240
100
AcDbEntity
8
0
100
AcDbSpline
70
0
71
3
72
10
73
6
74
0
42
0.000000001
43
0.0000000001
44
0.0000000001
40
-3.2036119044663347
40
-3.2036119044663347
40
-3.2036119044663347
40
-3.2036119044663347
40
-1.897386560783672
40
-1.897386560783672
40
0
40
0
40
0
40
0
10
-872.12926279390433
20
198.89662744136865
30
0
10
-870.40079507384814
20
204.1543517777705
30
0
10
-870.0765916903249
20
207.81801589896574
30
0
10
-869.83152695590377
20
214.54578191888908
30
0
10
-870.12077802643887
20
217.83138057934738
30
0
10
-868.72473538650274
20
224.00000333786011
30
0
0
SPLINE
5
241
100
AcDbEntity
8
0
100
AcDbSpline
70
0
71
3
72
14
73
10
74
0
42
0.000000001
43
0.0000000001
44
0.0000000001
40
-2.8277788127713834
40
-2.8277788127713834
40
-2.8277788127713834
40
-2.8277788127713834
40
-2.1180313236339527
40
-2.1180313236339527
40
-1.3613230130038256
40
-1.3613230130038256
40
-0.27814101321787454
40
-0.27814101321787454
40
0
40
0
40
0
40
0
10
-868.72473538650274
20
224.00000333786011
30
0
10
-868.7285139552904
20
225.5455371055956
30
0
10
-868.57290541609291
20
227.09276643892463
30
0
10
-867.81879764481403
20
230.21570313168101
30
0
10
-867.25174452094461
20
231.55403899854468
30
0
10
-865.72733794295641
20
234.46754653563676
30
0
10
-865.25936123959684
20
235.07465850828439
30
0
10
-861.41555241780407
20
240.92303142335751
30
0
10
-860.54548281840471
20
242.25031680308081
30
0
10
-859.99999940395355
20
243.00000362098217
30
0
0
SPLINE
5
242
100
AcDbEntity
8
0
100
AcDbSpline
70
0
71
3
72
12
73
8
74
0
42
0.000000001
43
0.0000000001
44
0.0000000001
40
-0.6144202909314852
40
-0.6144202909314852
40
-0.6144202909314852
40
-0.6144202909314852
40
-0.39483508817942059
40
-0.39483508817942059
40
-0.20806000219308279
40
-0.20806000219308279
40
0
40
0
40
0
40
0
10
-859.99999940395355
20
243.00000362098217
30
0
10
-857.25322052649813
20
246.5541914209368
30
0
10
-856.29401210092351
20
248.44418558453663
30
0
10
-855.47700453327082
20
250.43316559889769
30
0
10
-855.22308648068247
20
251.37560182518462
30
0
10
-855.12645521708737
20
253.46161244946825
30
0
10
-855.34409714111803
20
254.34844313303785
30
0
10
-855.58170721383067
20
255.00000276033973
30
0
0
LWPOLYLINE
5
243
100
AcDbEntity
8
0
100
AcDbPolyline
90
12
70
1
43
0.0
10
-769.99999791383743
20
265
10
-890.00000002015508
20
265
10
-890.00000005038783
20
280
10
-900
20
280
10
-900
20
0
10
-890.00000003182663
20
0
10
-890.00000001273065
20
15
10
-769.99999791383743
20
15
10
-769.99999791383743
20
0
10
-759.99999791383743
20
0
10
-759.99999791383743
20
280
10
-769.99999791383743
20
280
0
SPLINE
5
244
100
AcDbEntity
8
0
100
AcDbSpline
70
0
71
3
72
52
73
48
74
0
42
0.000000001
43
0.0000000001
44
0.0000000001
40
-13.357600776795037
40
-13.357600776795037
40
-13.357600776795037
40
-13.357600776795037
40
-11.917706589439959
40
-11.917706589439959
40
-11.160008786625315
40
-11.160008786625315
40
-10.558887088391222
40
-10.558887088391222
40
-10.073474694283339
40
-10.073474694283339
40
-9.5187952230382962
40
-9.5187952230382962
40
-8.9026202613211414
40
-8.9026202613211414
40
-8.2281050960214337
40
-8.2281050960214337
40
-6.2194355649698485
40
-6.2194355649698485
40
-4.844373451318055
40
-4.844373451318055
40
-3.3003567984086324
40
-3.3003567984086324
40
-2.1730131887917139
40
-2.1730131887917139
40
-1.7904532243848461
40
-1.7904532243848461
40
-1.6480900435514021
40
-1.6480900435514021
40
-1.58496487179496
40
-1.58496487179496
40
-1.5446965230201519
40
-1.5446965230201519
40
-1.5064551035500726
40
-1.5064551035500726
40
-1.4572746189479808
40
-1.4572746189479808
40
-1.3334508226437458
40
-1.3334508226437458
40
-1.096923485107256
40
-1.096923485107256
40
-0.75932106941718513
40
-0.75932106941718513
40
-0.38241802866607433
40
-0.38241802866607433
40
-0.17980750035409868
40
-0.17980750035409868
40
0
40
0
40
0
40
0
10
-1083.6492222040324
20
252.48003856232188
30
0
10
-1083.5835345068617
20
253.01740461985133
30
0
10
-1083.5601365007158
20
253.26199325938927
30
0
10
-1083.5676669552736
20
253.52858364253703
30
0
10
-1083.5782647638216
20
253.60603167157598
30
0
10
-1083.6166123956666
20
253.72544263817173
30
0
10
-1083.6410518668192
20
253.77353091412527
30
0
10
-1083.7041563549144
20
253.85149324474787
30
0
10
-1083.7474898842652
20
253.89372853806353
30
0
10
-1083.8981271190964
20
253.97609441259675
30
0
10
-1083.9956597666649
20
254.00489903476563
30
0
10
-1084.2173637624101
20
254.03234077887035
30
0
10
-1084.3765207454762
20
254.03189206513645
30
0
10
-1084.7822202876134
20
253.9203112306663
30
0
10
-1084.9839040856298
20
253.81273375547974
30
0
10
-1085.7522964683092
20
253.28702740604223
30
0
10
-1086.1626913711157
20
252.73657644322259
30
0
10
-1088.0614366605091
20
251.51344024419004
30
0
10
-1088.8203575846644
20
251.1584946404804
30
0
10
-1091.0249146742542
20
249.6528628700224
30
0
10
-1091.9570067264585
20
248.81031852318966
30
0
10
-1093.739244560338
20
247.42566342773753
30
0
10
-1094.9583872612745
20
246.54127114150103
30
0
10
-1096.9381865431662
20
245.78724856569951
30
0
10
-1097.4094335302509
20
245.65612002487245
30
0
10
-1097.9099110422069
20
245.59142314452271
30
0
10
-1098.0663707014701
20
245.58093288421543
30
0
10
-1098.2628774963523
20
245.606961773813
30
0
10
-1098.3255045131343
20
245.62137239077867
30
0
10
-1098.4161773901997
20
245.66341856611373
30
0
10
-1098.4489421126093
20
245.68455083534849
30
0
10
-1098.5028594012429
20
245.73804244248674
30
0
10
-1098.5228923946934
20
245.76816275286069
30
0
10
-1098.5553002247375
20
245.84629384583693
30
0
10
-1098.5625776773068
20
245.89396746575267
30
0
10
-1098.5656674130321
20
246.06103572709225
30
0
10
-1098.527669375097
20
246.20179543429458
30
0
10
-1098.3851607784036
20
246.60579114831083
30
0
10
-1098.2291941868218
20
246.9241066499097
30
0
10
-1097.8548678752975
20
247.81320745218972
30
0
10
-1097.7011571848434
20
248.28310586553567
30
0
10
-1097.474770247019
20
249.64113617866676
30
0
10
-1097.4806529084769
20
250.17524241787106
30
0
10
-1097.156274623118
20
252.10937658017627
30
0
10
-1097.0290020243651
20
252.70380620308114
30
0
10
-1096.9010484713911
20
253.83010729752533
30
0
10
-1096.8816340267103
20
254.41244946487944
30
0
10
-1096.9999992102385
20
255.0000037997961
30
0
0
LINE
5
245
100
AcDbEntity
8
0
100
AcDbLine
10
-1096.9999992102385
20
255.0000037997961
30
0
11
-1062.999998703599
21
255.0000037997961
31
0
0
SPLINE
5
246
100
AcDbEntity
8
0
100
AcDbSpline
70
0
71
3
72
22
73
18
74
0
42
0.000000001
43
0.0000000001
44
0.0000000001
40
-2.4193868311373929
40
-2.4193868311373929
40
-2.4193868311373929
40
-2.4193868311373929
40
-2.3731396616057507
40
-2.3731396616057507
40
-2.3248123073143829
40
-2.3248123073143829
40
-2.2005825781586585
40
-2.2005825781586585
40
-1.8036523056972154
40
-1.8036523056972154
40
-0.96830771014002948
40
-0.96830771014002948
40
-0.36567777307860849
40
-0.36567777307860849
40
-0.14717800706357265
40
-0.14717800706357265
40
0
40
0
40
0
40
0
10
-1062.999998703599
20
255.0000037997961
30
0
10
-1062.899192786316
20
254.78927649413262
30
0
10
-1062.834783817513
20
254.56803684580768
30
0
10
-1062.7774378088261
20
254.09365474442359
30
0
10
-1062.7891611519658
20
253.85027460989446
30
0
10
-1062.9394689245498
20
252.9917510859492
30
0
10
-1063.2419499464299
20
252.42014237863938
30
0
10
-1064.3342366524375
20
250.68713098517077
30
0
10
-1065.6516619655179
20
249.57262480371446
30
0
10
-1068.6787670282195
20
247.14288991427162
30
0
10
-1071.7895717395729
20
244.93102242409185
30
0
10
-1077.5507355245779
20
236.50343409763724
30
0
10
-1078.5399358967741
20
233.72425287585898
30
0
10
-1079.935802259969
20
231.06268836729998
30
0
10
-1080.3400118418683
20
230.40939561252264
30
0
10
-1081.1787231218641
20
229.52081703756204
30
0
10
-1081.5606914041459
20
229.21838539354911
30
0
10
-1081.999998986721
20
229.00000341236591
30
0
0
SPLINE
5
247
100
AcDbEntity
8
0
100
AcDbSpline
70
0
71
3
72
86
73
82
74
0
42
0.000000001
43
0.0000000001
44
0.0000000001
40
-20.144983811214441
40
-20.144983811214441
40
-20.144983811214441
40
-20.144983811214441
40
-19.55613619889052
40
-19.55613619889052
40
-18.837896058123913
40
-18.837896058123913
40
-18.448944246322437
40
-18.448944246322437
40
-18.138699754266561
40
-18.138699754266561
40
-17.769787349874935
40
-17.769787349874935
40
-17.007061533122808
40
-17.007061533122808
40
-16.529633340007166
40
-16.529633340007166
40
-16.344056914605822
40
-16.344056914605822
40
-16.250447157439876
40
-16.250447157439876
40
-16.187711137465801
40
-16.187711137465801
40
-16.124692761853236
40
-16.124692761853236
40
-16.037524158902759
40
-16.037524158902759
40
-15.874923159612862
40
-15.874923159612862
40
-15.286905975979693
40
-15.286905975979693
40
-14.436800336758651
40
-14.436800336758651
40
-13.569769946825327
40
-13.569769946825327
40
-12.701236265946763
40
-12.701236265946763
40
-12.30968997059459
40
-12.30968997059459
40
-12.089645169365946
40
-12.089645169365946
40
-11.926806255344788
40
-11.926806255344788
40
-11.768811039947961
40
-11.768811039947961
40
-11.582921670717175
40
-11.582921670717175
40
-11.33752945018268
40
-11.33752945018268
40
-11.044559218682645
40
-11.044559218682645
40
-10.444729844382543
40
-10.444729844382543
40
-9.4411902915824406
40
-9.4411902915824406
40
-7.4005795091030446
40
-7.4005795091030446
40
-6.5937229229146554
40
-6.5937229229146554
40
-5.7592463249401309
40
-5.7592463249401309
40
-5.0002505052743453
40
-5.0002505052743453
40
-4.309654435290418
40
-4.309654435290418
40
-4.0547520767165697
40
-4.0547520767165697
40
-3.9474190200179731
40
-3.9474190200179731
40
-3.8806218611476822
40
-3.8806218611476822
40
-3.8170939811932025
40
-3.8170939811932025
40
-3.7377150073404137
40
-3.7377150073404137
40
-3.3309694716784124
40
-3.3309694716784124
40
-2.0967481750157653
40
-2.0967481750157653
40
-1.0262787890655909
40
-1.0262787890655909
40
0
40
0
40
0
40
0
10
-1081.999998986721
20
229.00000341236591
30
0
10
-1082.7448664986537
20
228.38099501525369
30
0
10
-1083.1975571731828
20
227.78104646142779
30
0
10
-1083.8710218399206
20
226.5372208619074
30
0
10
-1084.0245567002173
20
225.90367936390518
30
0
10
-1084.2895730385137
20
225.04923466602997
30
0
10
-1084.3882792627057
20
224.77172807041541
30
0
10
-1084.6439933245549
20
224.33561774407352
30
0
10
-1084.7807210555759
20
224.1720157508648
30
0
10
-1085.1660553157033
20
223.86783383768798
30
0
10
-1085.4212785304412
20
223.7450689010289
30
0
10
-1086.3899716964288
20
223.43476634156517
30
0
10
-1087.2403840077884
20
223.33770463281479
30
0
10
-1089.3536548477009
20
222.93515756216254
30
0
10
-1089.8884081532133
20
222.80785520390069
30
0
10
-1090.4356066190135
20
222.74711831205906
30
0
10
-1090.56653554486
20
222.74280601564286
30
0
10
-1090.7279517882278
20
222.7635306783053
30
0
10
-1090.7839155801103
20
222.77610949292
30
0
10
-1090.8671251533276
20
222.81418108097921
30
0
10
-1090.897766807067
20
222.83402379396347
30
0
10
-1090.9500260717853
20
222.88591614599159
30
0
10
-1090.9697572821981
20
222.91618452767034
30
0
10
-1091.0034360611232
20
222.99740336131677
30
0
10
-1091.0111584173767
20
223.04925509235457
30
0
10
-1091.0146763843118
20
223.19507423197919
30
0
10
-1090.9950001491459
20
223.31275307917383
30
0
10
-1090.7930489651571
20
223.98012495873272
30
0
10
-1090.3458698112568
20
224.76793245814935
30
0
10
-1089.1716785889996
20
226.77647375975738
30
0
10
-1088.6600050757531
20
227.60260569053972
30
0
10
-1088.0466112134084
20
229.42412828951078
30
0
10
-1087.8836262680611
20
230.63460763725433
30
0
10
-1087.7754920771215
20
231.49092344821881
30
0
10
-1087.7444875477881
20
231.92863533476333
30
0
10
-1087.799108890249
20
232.47198890865559
30
0
10
-1087.8324079569547
20
232.65119008569712
30
0
10
-1087.9326125318973
20
232.8968158897718
30
0
10
-1087.9799368750282
20
232.98203194199047
30
0
10
-1088.0887020255179
20
233.10720951959178
30
0
10
-1088.1425561250971
20
233.15231874783478
30
0
10
-1088.2648768188419
20
233.2177973073411
30
0
10
-1088.3297518574661
20
233.23715892960305
30
0
10
-1088.4777190046675
20
233.25133029087229
30
0
10
-1088.5578785851083
20
233.24085467780912
30
0
10
-1088.7365615384695
20
233.18635663476513
30
0
10
-1088.8415205906342
20
233.13003658513469
30
0
10
-1089.0689563956219
20
232.94724228156949
30
0
10
-1089.2031448279961
20
232.7994158009044
30
0
10
-1089.5967676064101
20
232.13742836126181
30
0
10
-1089.7403129062063
20
231.56958149524957
30
0
10
-1089.9871670266971
20
230.25484026471878
30
0
10
-1090.0346895105147
20
229.45081423094135
30
0
10
-1090.7293277681017
20
227.04993655093801
30
0
10
-1091.7871538147115
20
226.05319792908378
30
0
10
-1095.0890598931589
20
221.49834485487108
30
0
10
-1095.7451596610299
20
220.52117248221904
30
0
10
-1097.1666541174609
20
218.75621649158947
30
0
10
-1098.2971535091619
20
217.52763143854298
30
0
10
-1102.0136813635947
20
215.52345912308789
30
0
10
-1103.5545908557233
20
215.19887604109212
30
0
10
-1105.3115598033758
20
214.94248978914624
30
0
10
-1106.0703898019849
20
214.92214701414849
30
0
10
-1106.8247738751882
20
215.00355055839339
30
0
10
-1107.0594950654768
20
215.04283837232629
30
0
10
-1107.331955295464
20
215.14627372057595
30
0
10
-1107.4146414637723
20
215.18647451222054
30
0
10
-1107.5256251075887
20
215.27278228499517
30
0
10
-1107.5633976455367
20
215.31145240202369
30
0
10
-1107.6197176368369
20
215.40051236649592
30
0
10
-1107.6373336964084
20
215.44737213769338
30
0
10
-1107.6566325577912
20
215.56135064292252
30
0
10
-1107.6529475596462
20
215.62861312759733
30
0
10
-1107.5668061311021
20
216.06234837874416
30
0
10
-1107.2126810846689
20
216.56086523856908
30
0
10
-1105.5972781569067
20
219.79260844371422
30
0
10
-1105.44005902711
20
222.03894019123709
30
0
10
-1104.2340392196029
20
227.55147816504621
30
0
10
-1103.6684813270958
20
228.98944612432487
30
0
10
-1102.3618058441166
20
232.91946272186112
30
0
10
-1101.6674790091236
20
235.23864762812676
30
0
10
-1101.2337571584962
20
238.63197086804607
30
0
0
SPLINE
5
248
100
AcDbEntity
8
0
100
AcDbSpline
70
0
71
3
72
56
73
52
74
0
42
0.000000001
43
0.0000000001
44
0.0000000001
40
-7.152498125029358
40
-7.152498125029358
40
-7.152498125029358
40
-7.152498125029358
40
-6.3743393604946998
40
-6.3743393604946998
40
-5.8049332067567816
40
-5.8049332067567816
40
-5.5725547995849967
40
-5.5725547995849967
40
-5.4403585463305388
40
-5.4403585463305388
40
-5.3329808317756378
40
-5.3329808317756378
40
-5.2343833953552439
40
-5.2343833953552439
40
-5.1575658600174714
40
-5.1575658600174714
40
-5.0919463167465651
40
-5.0919463167465651
40
-5.0205129851314751
40
-5.0205129851314751
40
-4.9208809485702973
40
-4.9208809485702973
40
-4.6310537165554662
40
-4.6310537165554662
40
-4.5053178430133469
40
-4.5053178430133469
40
-4.4090261356592961
40
-4.4090261356592961
40
-4.3041078735271689
40
-4.3041078735271689
40
-4.1522268859378322
40
-4.1522268859378322
40
-3.8764171157205909
40
-3.8764171157205909
40
-3.6583707855386161
40
-3.6583707855386161
40
-3.4490831393745438
40
-3.4490831393745438
40
-2.8550639027680464
40
-2.8550639027680464
40
-2.1459717589112079
40
-2.1459717589112079
40
-1.3725774093184901
40
-1.3725774093184901
40
-1.006099733478371
40
-1.006099733478371
40
-0.73520671205225563
40
-0.73520671205225563
40
-0.35869287681686973
40
-0.35869287681686973
40
0
40
0
40
0
40
0
10
-1101.2337571584962
20
238.63197086804604
30
0
10
-1100.1965016947215
20
239.09552464164759
30
0
10
-1099.4914627247526
20
239.61664798670927
30
0
10
-1097.6957151416391
20
240.1021339876761
30
0
10
-1097.0559906641026
20
240.09811633646365
30
0
10
-1096.2276845865219
20
240.23922864625627
30
0
10
-1095.9950448393797
20
240.29770300253628
30
0
10
-1095.6708739577891
20
240.45116273831968
30
0
10
-1095.5325265586841
20
240.53326896202128
30
0
10
-1095.3108193427715
20
240.75625347081356
30
0
10
-1095.2431810591888
20
240.86198905446332
30
0
10
-1095.1593814896657
20
241.05290727365247
30
0
10
-1095.1365490812366
20
241.14558319932337
30
0
10
-1095.1269482914672
20
241.3030825024413
30
0
10
-1095.1331667908546
20
241.37272498346863
30
0
10
-1095.1698507725696
20
241.49526721823267
30
0
10
-1095.1962241630017
20
241.54763197533626
30
0
10
-1095.2725012794097
20
241.64437394988363
30
0
10
-1095.3216420268454
20
241.68437966134863
30
0
10
-1095.4562068534224
20
241.75954234224892
30
0
10
-1095.5452539060143
20
241.78477978755271
30
0
10
-1095.8901568023712
20
241.84460925212093
30
0
10
-1096.1987316668278
20
241.81529271038892
30
0
10
-1096.6048276529191
20
241.84946111294195
30
0
10
-1096.7229793324079
20
241.86978465624819
30
0
10
-1096.9132046308155
20
241.94192955801157
30
0
10
-1096.9883490560837
20
241.98480173133407
30
0
10
-1097.1265447633325
20
242.10645590529421
30
0
10
-1097.1821617675046
20
242.18316160538598
30
0
10
-1097.2851924021438
20
242.39391576692378
30
0
10
-1097.3161285627525
20
242.53483095337683
30
0
10
-1097.3504524543687
20
242.92415606770328
30
0
10
-1097.3144450177401
20
243.2070243990452
30
0
10
-1097.171371514487
20
243.68214658004976
30
0
10
-1097.0724919495724
20
243.90871915691753
30
0
10
-1096.7858696623746
20
244.30074593466259
30
0
10
-1096.631490197077
20
244.42774329376419
30
0
10
-1096.0509568896625
20
244.77764377033873
30
0
10
-1095.5304069575955
20
244.81657080492855
30
0
10
-1093.8995069613752
20
245.36844784016205
30
0
10
-1093.1220290213762
20
245.82676919737978
30
0
10
-1091.1300069314759
20
247.11759967713164
30
0
10
-1090.6182852814161
20
247.47090184718448
30
0
10
-1089.0190357508559
20
248.350348768933
30
0
10
-1088.6648893977328
20
248.54981603753291
30
0
10
-1088.0304303760074
20
249.17916564322169
30
0
10
-1087.8072083511543
20
249.48345309638856
30
0
10
-1087.1936745476471
20
250.29501528200908
30
0
10
-1086.7916069574883
20
250.80903223329062
30
0
10
-1085.5909177655599
20
251.73728057478999
30
0
10
-1084.8020163622045
20
252.16281998225219
30
0
10
-1083.6492222040324
20
252.48003856232188
30
0
0
SPLINE
5
249
100
AcDbEntity
8
0
100
AcDbSpline
70
0
71
3
72
16
73
12
74
0
42
0.000000001
43
0.0000000001
44
0.0000000001
40
-0.60769644041881077
40
-0.60769644041881077
40
-0.60769644041881077
40
-0.60769644041881077
40
-0.47685620195458556
40
-0.47685620195458556
40
-0.2995960311470921
40
-0.2995960311470921
40
-0.12863191761541343
40
-0.12863191761541343
40
-0.050014633317386863
40
-0.050014633317386863
40
0
40
0
40
0
40
0
10
-1105.3485655971617
20
229.08595213755635
30
0
10
-1105.8055398129729
20
228.42641061202823
30
0
10
-1106.3338698227917
20
227.91864233048716
30
0
10
-1107.4241226204954
20
227.01667373632685
30
0
10
-1108.0850849005251
20
226.60025720619905
30
0
10
-1109.3294608299148
20
225.81207143021493
30
0
10
-1109.8925690317399
20
225.45328147671884
30
0
10
-1110.5045062715712
20
224.89245311681384
30
0
10
-1110.6902024315687
20
224.68900173987109
30
0
10
-1110.906661211013
20
224.31835307328373
30
0
10
-1110.9699682901387
20
224.16378160239674
30
0
10
-1110.9998445041647
20
223.99976498362275
30
0
0
SPLINE
5
250
100
AcDbEntity
8
0
100
AcDbSpline
70
0
71
3
72
42
73
38
74
0
42
0.000000001
43
0.0000000001
44
0.0000000001
40
-2.922230880994265
40
-2.922230880994265
40
-2.922230880994265
40
-2.922230880994265
40
-2.7422421882474342
40
-2.7422421882474342
40
-2.5322603576187843
40
-2.5322603576187843
40
-2.0302460751603841
40
-2.0302460751603841
40
-1.8561939073811196
40
-1.8561939073811196
40
-1.7973814948140998
40
-1.7973814948140998
40
-1.7682415361821462
40
-1.7682415361821462
40
-1.7477095805899729
40
-1.7477095805899729
40
-1.7264589963740393
40
-1.7264589963740393
40
-1.6983284836313592
40
-1.6983284836313592
40
-1.6104353757204983
40
-1.6104353757204983
40
-1.4823561439051347
40
-1.4823561439051347
40
-1.2449144306650302
40
-1.2449144306650302
40
-0.87903271085011792
40
-0.87903271085011792
40
-0.70355946033320604
40
-0.70355946033320604
40
-0.52175711807515701
40
-0.52175711807515701
40
-0.34516962892519598
40
-0.34516962892519598
40
-0.11091698589217788
40
-0.11091698589217788
40
0
40
0
40
0
40
0
10
-1110.9998445041647
20
223.99976498362278
30
0
10
-1111.2277914661463
20
223.32801646604224
30
0
10
-1111.5656992140587
20
222.69266865472093
30
0
10
-1112.4180482041961
20
221.41438716502478
30
0
10
-1112.9685021165703
20
220.7643175091693
30
0
10
-1114.9153420398804
20
218.75287307880623
30
0
10
-1116.5726206758411
20
217.5055518276846
30
0
10
-1118.2029422411185
20
216.50872933155884
30
0
10
-1118.7584183445606
20
216.19723483448584
30
0
10
-1119.3803590140724
20
215.98537385521283
30
0
10
-1119.5378250558374
20
215.94557004787981
30
0
10
-1119.7480920323076
20
215.93278647846762
30
0
10
-1119.8207764858842
20
215.93582068544774
30
0
10
-1119.9362441062435
20
215.9657667674299
30
0
10
-1119.9810117874551
20
215.98520405349703
30
0
10
-1120.0627582576299
20
216.04357998862031
30
0
10
-1120.0961701113949
20
216.08084899936105
30
0
10
-1120.1589741782479
20
216.18156377639866
30
0
10
-1120.1835569552479
20
216.24947501688018
30
0
10
-1120.2552561664252
20
216.55910941752666
30
0
10
-1120.2440541201352
20
216.88642631208424
30
0
10
-1120.2465369912934
20
217.9197601652578
30
0
10
-1120.2726957619993
20
218.21521184213313
30
0
10
-1120.3882441268743
20
219.81968200255182
30
0
10
-1120.454618251619
20
220.96918082363561
30
0
10
-1119.2170293975264
20
225.44253651645937
30
0
10
-1117.4586132060613
20
228.50024259682982
30
0
10
-1115.0561496143964
20
231.61980632343091
30
0
10
-1114.2404113181615
20
232.50533761514106
30
0
10
-1112.6330928560972
20
233.69802483273136
30
0
10
-1112.0470381677328
20
233.83271072338576
30
0
10
-1110.8721403824004
20
234.13287040312892
30
0
10
-1110.3180610253694
20
234.28869738852438
30
0
10
-1107.6878839380854
20
235.70494464090729
30
0
10
-1105.8371109555278
20
236.9523172060394
30
0
10
-1104.3944873660057
20
237.71103851134822
30
0
10
-1104.2462929625094
20
237.72755270775139
30
0
10
-1103.8916729633297
20
237.83214699354022
30
0
0
SPLINE
5
251
100
AcDbEntity
8
0
100
AcDbSpline
70
0
71
3
72
18
73
14
74
0
42
0.000000001
43
0.0000000001
44
0.0000000001
40
-0.76887067270266041
40
-0.76887067270266041
40
-0.76887067270266041
40
-0.76887067270266041
40
-0.70643424016803269
40
-0.70643424016803269
40
-0.63728983402929262
40
-0.63728983402929262
40
-0.47699754152047347
40
-0.47699754152047347
40
-0.10256329669078559
40
-0.10256329669078559
40
-0.036599282057818226
40
-0.036599282057818226
40
0
40
0
40
0
40
0
10
-1103.8916729633297
20
237.83214699354022
30
0
10
-1103.7915841976583
20
237.59496825885157
30
0
10
-1103.7277952637053
20
237.34643257327457
30
0
10
-1103.6557107515575
20
236.80808732865324
30
0
10
-1103.6546876480315
20
236.5210269179799
30
0
10
-1103.7318881093443
20
235.57702021524182
30
0
10
-1103.9190175867525
20
234.89756044951079
30
0
10
-1104.6283998130591
20
232.62980382166865
30
0
10
-1104.9394496995578
20
231.82718511830552
30
0
10
-1105.1173774606571
20
229.87832980963245
30
0
10
-1105.1425154463773
20
229.62817664720507
30
0
10
-1105.2344434575534
20
229.3003134109976
30
0
10
-1105.2800974121596
20
229.18692502362947
30
0
10
-1105.3485655971617
20
229.08595213755635
30
0
0
SPLINE
5
252
100
AcDbEntity
8
0
100
AcDbSpline
70
0
71
3
72
30
73
26
74
0
42
0.000000001
43
0.0000000001
44
0.0000000001
40
-2.3658302141785321
40
-2.3658302141785321
40
-2.3658302141785321
40
-2.3658302141785321
40
-2.1748504764239778
40
-2.1748504764239778
40
-1.9841301382629875
40
-1.9841301382629875
40
-1.5762945002461479
40
-1.5762945002461479
40
-1.0652629295319844
40
-1.0652629295319844
40
-0.88065371609261744
40
-0.88065371609261744
40
-0.78824995658133479
40
-0.78824995658133479
40
-0.72625107261839594
40
-0.72625107261839594
40
-0.66663100864241565
40
-0.66663100864241565
40
-0.59203561193055765
40
-0.59203561193055765
40
-0.46878318571298666
40
-0.46878318571298666
40
-0.22479941167208467
40
-0.22479941167208467
40
0
40
0
40
0
40
0
10
-1106.9999993592501
20
225.00000335276127
30
0
10
-1106.8082045009933
20
224.37035093968572
30
0
10
-1106.6789982779912
20
223.71313013976015
30
0
10
-1106.6442986234013
20
222.39257933188779
30
0
10
-1106.7401022404606
20
221.82865535810794
30
0
10
-1107.21870069493
20
220.24164240439495
30
0
10
-1107.837409748689
20
219.32319983004908
30
0
10
-1109.3887992043374
20
216.2936886690926
30
0
10
-1109.7601808691434
20
215.11351899413762
30
0
10
-1110.434488434978
20
213.75535988365823
30
0
10
-1110.6278638606714
20
213.42133692960257
30
0
10
-1110.9534841195748
20
213.03691461319613
30
0
10
-1111.079395687103
20
212.91488706842105
30
0
10
-1111.3173223874142
20
212.764923962106
30
0
10
-1111.4203309080015
20
212.71917063500379
30
0
10
-1111.6368624798749
20
212.67275246758902
30
0
10
-1111.7435487221092
20
212.67178827837819
30
0
10
-1111.9837122439778
20
212.71671631968997
30
0
10
-1112.1088166565248
20
212.77285782577525
30
0
10
-1112.4122962216186
20
212.96706198417218
30
0
10
-1112.5787384045834
20
213.1387203803493
30
0
10
-1112.9921854197562
20
213.66597998642388
30
0
10
-1113.23271413151
20
214.13182188310628
30
0
10
-1113.5778985377092
20
215.09262680964017
30
0
10
-1113.758739844129
20
215.7679608182014
30
0
10
-1113.7616235491857
20
216.51728664163784
30
0
0
SPLINE
5
253
100
AcDbEntity
8
0
100
AcDbSpline
70
0
71
3
72
12
73
8
74
0
42
0.000000001
43
0.0000000001
44
0.0000000001
40
-1.4250101265914457
40
-1.4250101265914457
40
-1.4250101265914457
40
-1.4250101265914457
40
-0.9185477463673718
40
-0.9185477463673718
40
-0.43904636003496006
40
-0.43904636003496006
40
0
40
0
40
0
40
0
10
-1113.7616235491857
20
216.51728664163784
30
0
10
-1113.2439503818309
20
217.41261081305572
30
0
10
-1113.0505849246933
20
218.06135650281178
30
0
10
-1111.5163527246416
20
220.37617807310954
30
0
10
-1110.4163535098205
20
221.71646370570156
30
0
10
-1108.263118039559
20
223.67921846855023
30
0
10
-1107.8273590587974
20
223.79282786270753
30
0
10
-1106.9999993592501
20
225.00000335276127
30
0
0
LINE
5
254
100
AcDbEntity
8
0
100
AcDbLine
10
-1131.9999997317791
20
255.0000037997961
30
0
11
-1123.9999996125698
21
255.0000037997961
31
0
0
SPLINE
5
255
100
AcDbEntity
8
0
100
AcDbSpline
70
0
71
3
72
46
73
42
74
0
42
0.000000001
43
0.0000000001
44
0.0000000001
40
-4.9952872202911465
40
-4.9952872202911465
40
-4.9952872202911465
40
-4.9952872202911465
40
-4.8482701458927693
40
-4.8482701458927693
40
-4.6576995857880812
40
-4.6576995857880812
40
-4.2142689030371718
40
-4.2142689030371718
40
-3.5883598687409846
40
-3.5883598687409846
40
-3.2534153349701187
40
-3.2534153349701187
40
-2.5875136968008561
40
-2.5875136968008561
40
-2.416769365535389
40
-2.416769365535389
40
-2.3587253999115942
40
-2.3587253999115942
40
-2.3331778932940215
40
-2.3331778932940215
40
-2.31795635145687
40
-2.31795635145687
40
-2.304814049115846
40
-2.304814049115846
40
-2.2897058561965764
40
-2.2897058561965764
40
-2.2658462755630486
40
-2.2658462755630486
40
-2.2226955861052513
40
-2.2226955861052513
40
-2.1266385302088482
40
-2.1266385302088482
40
-1.9759374921908308
40
-1.9759374921908308
40
-1.694967554043493
40
-1.694967554043493
40
-1.0055311134226337
40
-1.0055311134226337
40
-0.66593663059718589
40
-0.66593663059718589
40
0
40
0
40
0
40
0
10
-1123.9999996125698
20
255.0000037997961
30
0
10
-1123.8252506084082
20
254.11028442800648
30
0
10
-1123.8043479776095
20
253.44422705168432
30
0
10
-1123.8933339186265
20
252.2598085271481
30
0
10
-1124.0560366385976
20
251.7216163301199
30
0
10
-1124.8110719518415
20
250.06651466061294
30
0
10
-1125.7964719999354
20
248.88755504453263
30
0
10
-1128.0201602746542
20
244.79045550461399
30
0
10
-1128.2488771370195
20
243.10062334600826
30
0
10
-1128.5037020041093
20
240.532782255852
30
0
10
-1128.5257489496585
20
240.13543187735962
30
0
10
-1129.0465222860912
20
237.20121928158702
30
0
10
-1129.0825291807296
20
236.76672494977674
30
0
10
-1128.8727465982699
20
234.28394531374943
30
0
10
-1128.8346309205563
20
233.81923311748491
30
0
10
-1128.8629750915075
20
233.36659182832079
30
0
10
-1128.8777802443526
20
233.25271383588853
30
0
10
-1128.9206304402385
20
233.11954577714542
30
0
10
-1128.9383838469896
20
233.07757542142579
30
0
10
-1128.9774698095553
20
233.02148609097299
30
0
10
-1128.9948202088922
20
233.00242940636838
30
0
10
-1129.0334439962862
20
232.97466718402927
30
0
10
-1129.0530632039427
20
232.96547394407708
30
0
10
-1129.0991202427433
20
232.95441094613068
30
0
10
-1129.1243713168656
20
232.95426797151066
30
0
10
-1129.1889318422122
20
232.96433596618104
30
0
10
-1129.2278222068423
20
232.98057571602629
30
0
10
-1129.3261060076388
20
233.03508434057434
30
0
10
-1129.3868530802035
20
233.0861488109627
30
0
10
-1129.554150850365
20
233.24996327422011
30
0
10
-1129.6778257432422
20
233.41267076893647
30
0
10
-1129.9896148584646
20
233.93759042727336
30
0
10
-1130.2197260748503
20
234.4363664820095
30
0
10
-1130.7256151079375
20
236.49403706587276
30
0
10
-1130.7122202753651
20
237.96637629743879
30
0
10
-1130.542695835381
20
242.71278966651818
30
0
10
-1130.5382343849747
20
243.00058543791403
30
0
10
-1130.8024836270013
20
248.03001300409153
30
0
10
-1130.8133214628501
20
248.52702454749166
30
0
10
-1130.9676212492675
20
251.11892436991138
30
0
10
-1131.1669944715143
20
252.94244106349183
30
0
10
-1131.9999997317791
20
255.0000037997961
30
0
0
SPLINE
5
256
100
AcDbEntity
8
0
100
AcDbSpline
70
0
71
3
72
55
73
51
74
0
42
0.000000001
43
0.0000000001
44
0.0000000001
40
-3.2043488924444405
40
-3.2043488924444405
40
-3.2043488924444405
40
-3.2043488924444405
40
-3.174817400111936
40
-3.174817400111936
40
-3.0967571585761018
40
-3.0967571585761018
40
-2.7626140099147816
40
-2.7626140099147816
40
-2.4256909477502866
40
-2.4256909477502866
40
-1.9349954536189411
40
-1.9349954536189411
40
-1.6329733642257989
40
-1.6329733642257989
40
-1.4646830419358809
40
-1.4646830419358809
40
-1.3418666203101091
40
-1.3418666203101091
40
-1.2288690030627989
40
-1.2288690030627989
40
-1.1171971664825366
40
-1.1171971664825366
40
-1.0086151978850191
40
-1.0086151978850191
40
-0.91660892122548332
40
-0.91660892122548332
40
-0.81669345978326113
40
-0.81669345978326113
40
-0.55745280101608463
40
-0.55745280101608463
40
0
40
0
40
0
40
0.31306529720342446
40
0.31306529720342446
40
0.51473171651687144
40
0.51473171651687144
40
0.60674379112758414
40
0.60674379112758414
40
0.65336311664763969
40
0.65336311664763969
40
0.6816711247429712
40
0.6816711247429712
40
0.70289689246294795
40
0.70289689246294795
40
0.72360358328958041
40
0.72360358328958041
40
0.74836689242301047
40
0.74836689242301047
40
0.75806631279193848
40
0.75806631279193848
40
0.75806631279193848
40
0.75806631279193848
10
-1097.45759003852
20
197.31797353676424
30
0
10
-1097.4707024940199
20
197.22242968574918
30
0
10
-1097.4992697506211
20
197.12772288840623
30
0
10
-1097.6291205542459
20
196.80386774352056
30
0
10
-1097.7884655976973
20
196.57057980988736
30
0
10
-1098.6200622841334
20
195.52593321238291
30
0
10
-1099.8559574887129
20
194.58015517785796
30
0
10
-1102.7871184649975
20
192.30038059024284
30
0
10
-1103.4125822074552
20
191.79809135538869
30
0
10
-1105.452131785062
20
190.31071053747075
30
0
10
-1106.2912799105111
20
189.79471778135365
30
0
10
-1107.3491503920498
20
189.27419667544729
30
0
10
-1107.8003371547827
20
189.09169953162248
30
0
10
-1108.4900766647029
20
188.95991955942506
30
0
10
-1108.7469614168508
20
188.94061002710521
30
0
10
-1109.1775311897854
20
188.9973846830998
30
0
10
-1109.3528372013834
20
189.04885715634023
30
0
10
-1109.662212244825
20
189.21476679923154
30
0
10
-1109.7921752926932
20
189.32057727056264
30
0
10
-1110.0035166849784
20
189.57830965281912
30
0
10
-1110.0822974803618
20
189.72616343296167
30
0
10
-1110.1767077410614
20
190.0385719404301
30
0
10
-1110.1933292072092
20
190.20025196069068
30
0
10
-1110.165375256988
20
190.49677582681028
30
0
10
-1110.1272961766731
20
190.66265314718453
30
0
10
-1109.9267049814146
20
191.03927017630753
30
0
10
-1109.7779435808034
20
191.20673511045101
30
0
10
-1109.1718483753921
20
191.72880500896329
30
0
10
-1108.5422643904972
20
192.00639383887321
30
0
10
-1106.272395997386
20
193.07062462779399
30
0
10
-1105.5250904335392
20
193.56483292841577
30
0
10
-1104.0691408902931
20
194.71940167348222
30
0
10
-1103.2514801383177
20
195.36780707508245
30
0
10
-1102.6918344083315
20
195.82396908049449
30
0
10
-1101.1668580052306
20
196.74216319291517
30
0
10
-1100.0644297205577
20
197.35647872145364
30
0
10
-1099.087641239096
20
197.80260684265244
30
0
10
-1098.7743562578808
20
197.92279200101251
30
0
10
-1098.3318019945812
20
198.00628276947032
30
0
10
-1098.1740394023184
20
198.02033241821016
30
0
10
-1097.932811726283
20
197.99254157858343
30
0
10
-1097.8422752737213
20
197.97019360409865
30
0
10
-1097.6979251825437
20
197.9010571438744
30
0
10
-1097.6415146270765
20
197.86217883641325
30
0
10
-1097.5477924604579
20
197.76454511549173
30
0
10
-1097.5123667356049
20
197.70869513944587
30
0
10
-1097.4593281021698
20
197.57177378646716
30
0
10
-1097.4482283764528
20
197.49233601218202
30
0
10
-1097.4506365486131
20
197.38082430710577
30
0
10
-1097.453277860066
20
197.34935352072165
30
0
10
-1097.45759003852
20
197.31797353676424
30
0
0
SPLINE
5
257
100
AcDbEntity
8
0
100
AcDbSpline
70
0
71
3
72
69
73
65
74
0
42
0.000000001
43
0.0000000001
44
0.0000000001
40
-3.5552715884006658
40
-3.5552715884006658
40
-3.5552715884006658
40
-3.5552715884006658
40
-3.5118687045538062
40
-3.5118687045538062
40
-2.9622948747894498
40
-2.9622948747894498
40
-2.6388351796231904
40
-2.6388351796231904
40
-2.3361442165653394
40
-2.3361442165653394
40
-2.154686610657027
40
-2.154686610657027
40
-2.068845144428173
40
-2.068845144428173
40
-2.0197595270311641
40
-2.0197595270311641
40
-1.9787075147473376
40
-1.9787075147473376
40
-1.9316336212850498
40
-1.9316336212850498
40
-1.8647014226735557
40
-1.8647014226735557
40
-1.7529504331496106
40
-1.7529504331496106
40
-1.6503402790145016
40
-1.6503402790145016
40
-1.5666515752451275
40
-1.5666515752451275
40
-1.4249894675374137
40
-1.4249894675374137
40
-1.1819506449716513
40
-1.1819506449716513
40
-1.0944224554252362
40
-1.0944224554252362
40
-0.97201467500739958
40
-0.97201467500739958
40
-0.90770099281783079
40
-0.90770099281783079
40
-0.8819292628729456
40
-0.8819292628729456
40
-0.86773600238428594
40
-0.86773600238428594
40
-0.85741227381823526
40
-0.85741227381823526
40
-0.84652981483995149
40
-0.84652981483995149
40
-0.8309486697487406
40
-0.8309486697487406
40
-0.80292140226846631
40
-0.80292140226846631
40
-0.73937742624903569
40
-0.73937742624903569
40
-0.60855355319261617
40
-0.60855355319261617
40
-0.49179113531793373
40
-0.49179113531793373
40
-0.33713198322955878
40
-0.33713198322955878
40
0
40
0
40
0
40
0.36147326752843068
40
0.36147326752843068
40
0.70985155770567543
40
0.70985155770567543
40
0.70985155770567543
40
0.70985155770567543
10
-1125.9999996423721
20
198.00000295042992
30
0
10
-1125.9096864637499
20
198.14224287407393
30
0
10
-1125.813963029718
20
198.28989132057202
30
0
10
-1124.4229367342264
20
200.40010614733001
30
0
10
-1123.3134330864195
20
201.76347701311192
30
0
10
-1122.2819152509151
20
205.31474890197316
30
0
10
-1122.0730906950344
20
206.65497384836152
30
0
10
-1120.6889459700617
20
209.75994738225421
30
0
10
-1119.844844977272
20
210.91919965359165
30
0
10
-1118.765015475841
20
212.11088915435357
30
0
10
-1118.3638898382483
20
212.46982994491583
30
0
10
-1117.8274127839741
20
212.81494302747842
30
0
10
-1117.6345785521519
20
212.91608712450741
30
0
10
-1117.3349341362425
20
213.00242203000678
30
0
10
-1117.2225226634414
20
213.01994843305044
30
0
10
-1117.0210646242144
20
213.00970117232902
30
0
10
-1116.9346410606588
20
212.98915142416149
30
0
10
-1116.7614523358973
20
212.90881041533081
30
0
10
-1116.6835597844718
20
212.8471790744295
30
0
10
-1116.5211084443908
20
212.67208648761982
30
0
10
-1116.4443245781861
20
212.54429119097585
30
0
10
-1116.2712924504892
20
212.17057883448564
30
0
10
-1116.1868182466046
20
211.88121690363397
30
0
10
-1116.0416160475349
20
211.24163475578965
30
0
10
-1115.769921696892
20
209.96311841694012
30
0
10
-1115.7268231419389
20
208.06763112072218
30
0
10
-1115.8671352253393
20
207.20831967961584
30
0
10
-1117.1019270448396
20
204.09057302996627
30
0
10
-1118.6880522741658
20
201.51716193982625
30
0
10
-1125.0027886000814
20
191.91694426491
30
0
10
-1125.5169613810247
20
191.43539653826392
30
0
10
-1127.8288802956133
20
189.69803772497431
30
0
10
-1128.4244103403232
20
189.26586745447949
30
0
10
-1129.6737149292119
20
187.87182576983167
30
0
10
-1129.9951425547192
20
187.07344009680438
30
0
10
-1130.3957364467444
20
185.93555542565386
30
0
10
-1130.5048711687011
20
185.59214778832177
30
0
10
-1130.6679631983545
20
185.25719163102792
30
0
10
-1130.7155347517867
20
185.17837274334667
30
0
10
-1130.7934600220019
20
185.08734817460208
30
0
10
-1130.825082515446
20
185.05754103806953
30
0
10
-1130.8857689635356
20
185.02015974014245
30
0
10
-1130.9127999945695
20
185.0089340104152
30
0
10
-1130.9713446596081
20
184.99749420299355
30
0
10
-1131.0009125469755
20
184.9982774238907
30
0
10
-1131.0714382986068
20
185.01276328211307
30
0
10
-1131.1099321929382
20
185.03146323540307
30
0
10
-1131.2061604860346
20
185.09387344597138
30
0
10
-1131.2615866343415
20
185.15013138384865
30
0
10
-1131.4114677091275
20
185.32845952820588
30
0
10
-1131.5124161123815
20
185.49928703871922
30
0
10
-1131.7877858443348
20
186.09609622062382
30
0
10
-1131.944451690995
20
186.64029078942986
30
0
10
-1132.027397757628
20
187.70557928363164
30
0
10
-1131.9728866737473
20
188.13046550038189
30
0
10
-1131.71936634443
20
188.99338736038501
30
0
10
-1131.4785096117705
20
189.38870051369631
30
0
10
-1130.6200342630459
20
190.48266257675465
30
0
10
-1129.8530495982118
20
191.04192854044084
30
0
10
-1129.1656529283082
20
191.93094608654184
30
0
10
-1128.4286254947851
20
192.88415163589616
30
0
10
-1128.0818815342
20
193.81397833209601
30
0
10
-1127.1130668321537
20
196.07256233115908
30
0
10
-1126.7262175417932
20
196.85913047646946
30
0
10
-1125.9999996423721
20
198.00000295042992
30
0
0
SPLINE
5
258
100
AcDbEntity
8
0
100
AcDbSpline
70
0
71
3
72
61
73
57
74
0
42
0.000000001
43
0.0000000001
44
0.0000000001
40
-16.704171329948782
40
-16.704171329948782
40
-16.704171329948782
40
-16.704171329948782
40
-16.660623961466786
40
-16.660623961466786
40
-16.516349418189403
40
-16.516349418189403
40
-16.286942644144123
40
-16.286942644144123
40
-15.74086544702614
40
-15.74086544702614
40
-14.536461997944699
40
-14.536461997944699
40
-13.184989809319751
40
-13.184989809319751
40
-12.204292229605963
40
-12.204292229605963
40
-10.780601720182702
40
-10.780601720182702
40
-9.8739093240523061
40
-9.8739093240523061
40
-7.2522574962981281
40
-7.2522574962981281
40
-6.4586796492538703
40
-6.4586796492538703
40
-6.1436460073875976
40
-6.1436460073875976
40
-5.9722620642581905
40
-5.9722620642581905
40
-5.8386838175039388
40
-5.8386838175039388
40
-5.690872071495928
40
-5.690872071495928
40
-5.4709599743585429
40
-5.4709599743585429
40
-5.0258666475027836
40
-5.0258666475027836
40
-4.2436391111802649
40
-4.2436391111802649
40
-2.693085601106556
40
-2.693085601106556
40
-0.91459563003110678
40
-0.91459563003110678
40
0
40
0
40
0
40
0.6826814034304185
40
0.6826814034304185
40
1.4893576866357137
40
1.4893576866357137
40
2.3608766999804303
40
2.3608766999804303
40
2.5731706200280406
40
2.5731706200280406
40
2.7159493601849292
40
2.7159493601849292
40
2.7923695094271537
40
2.7923695094271537
40
2.7923695094271537
40
2.7923695094271537
10
-1112.4670856646558
20
192.15873205774255
30
0
10
-1112.396942062951
20
192.11816788765054
30
0
10
-1112.3304207312581
20
192.07333823892867
30
0
10
-1112.0588612517447
20
191.86153990215612
30
0
10
-1111.9045167913036
20
191.66518259923532
30
0
10
-1111.5947342153211
20
191.11892393242778
30
0
10
-1111.4919455193776
20
190.74691029033335
30
0
10
-1111.2836651180685
20
189.57219498073781
30
0
10
-1111.3272374554526
20
188.60950934411187
30
0
10
-1111.7113645734828
20
185.69511185567492
30
0
10
-1112.4367988822796
20
183.35186030286124
30
0
10
-1114.5813958868328
20
179.23782273004608
30
0
10
-1116.0217230549488
20
177.5659951120453
30
0
10
-1121.2422855657107
20
173.06804764190079
30
0
10
-1122.4377099921273
20
172.29181246181605
30
0
10
-1125.2175792130379
20
170.78416308173678
30
0
10
-1126.8302681738444
20
170.18480429784699
30
0
10
-1129.2036920213372
20
168.7027809779961
30
0
10
-1129.7584803230286
20
168.20665226350965
30
0
10
-1131.2778544654795
20
166.49276107496618
30
0
10
-1131.576448152905
20
164.86382959883616
30
0
10
-1132.5689373201219
20
162.62836386332293
30
0
10
-1132.8653170294463
20
162.04391154379795
30
0
10
-1133.3021168588136
20
161.46003537116474
30
0
10
-1133.4478763005277
20
161.29515398795365
30
0
10
-1133.681828669673
20
161.11568854528866
30
0
10
-1133.7703689400305
20
161.06334028950781
30
0
10
-1133.9308582414283
20
161.00713591213054
30
0
10
-1134.0005625060558
20
160.9955038427718
30
0
10
-1134.1447286646855
20
160.99954335737772
30
0
10
-1134.2136067204003
20
161.01780932562997
30
0
10
-1134.3715179049018
20
161.08881610413306
30
0
10
-1134.4511107385783
20
161.15245396995579
30
0
10
-1134.6547990802899
20
161.35508272577906
30
0
10
-1134.7680487693613
20
161.53224821674584
30
0
10
-1135.0305515498892
20
162.02945483596309
30
0
10
-1135.1787055000952
20
162.4310925555543
30
0
10
-1135.4960431173329
20
163.65856584212901
30
0
10
-1135.5314570847181
20
164.45349893233316
30
0
10
-1135.4268448264879
20
166.39889588085884
30
0
10
-1135.149872947851
20
169.12462056293447
30
0
10
-1133.4805860920098
20
174.75172095071002
30
0
10
-1132.4304193483445
20
178.01796731544579
30
0
10
-1130.9490188454643
20
180.68249957787629
30
0
10
-1129.8432574126064
20
182.67138577487225
30
0
10
-1128.5644187569305
20
184.24534266520877
30
0
10
-1124.7041243758263
20
187.6602984006141
30
0
10
-1122.5535640977521
20
188.99981896028783
30
0
10
-1120.3904916585591
20
190.31426611851569
30
0
10
-1118.3997764891255
20
191.5144845560734
30
0
10
-1114.7684983708587
20
192.36621142822855
30
0
10
-1114.2171566200707
20
192.44353390592374
30
0
10
-1113.4467715600724
20
192.44835729316034
30
0
10
-1113.1432274136139
20
192.4156627318375
30
0
10
-1112.7245520632925
20
192.28774994181575
30
0
10
-1112.5902242059808
20
192.22983857460991
30
0
10
-1112.4670856646558
20
192.15873205774255
30
0
0
LWPOLYLINE
5
259
100
AcDbEntity
8
0
100
AcDbPolyline
90
2
70
1
43
0.0
10
-1100.9999992698431
20
255.0000037997961
0
SPLINE
5
260
100
AcDbEntity
8
0
100
AcDbSpline
70
0
71
3
72
51
73
47
74
0
42
0.000000001
43
0.0000000001
44
0.0000000001
40
-10.51578702434187
40
-10.51578702434187
40
-10.51578702434187
40
-10.51578702434187
40
-10.320598007630078
40
-10.320598007630078
40
-10.033310399935784
40
-10.033310399935784
40
-9.7178800858907604
40
-9.7178800858907604
40
-8.4756931550814052
40
-8.4756931550814052
40
-7.3740791487873647
40
-7.3740791487873647
40
-6.7076561852867522
40
-6.7076561852867522
40
-4.8678788371894521
40
-4.8678788371894521
40
-3.3198029538095373
40
-3.3198029538095373
40
-2.690715293493211
40
-2.690715293493211
40
-2.4192298484785466
40
-2.4192298484785466
40
-2.2613781655668856
40
-2.2613781655668856
40
-2.1290424770323435
40
-2.1290424770323435
40
-1.9777247927318196
40
-1.9777247927318196
40
-1.6553805282388487
40
-1.6553805282388487
40
-1.0505900862162578
40
-1.0505900862162578
40
0
40
0
40
0
40
0.6508411083571719
40
0.6508411083571719
40
1.5856121984274143
40
1.5856121984274143
40
1.9657242560817316
40
1.9657242560817316
40
2.1485466274593943
40
2.1485466274593943
40
2.3231847133679846
40
2.3231847133679846
40
2.3405345455541706
40
2.3405345455541706
40
2.3405345455541706
40
2.3405345455541706
10
-1095.999999195338
20
215.00000320374983
30
0
10
-1095.7936572288859
20
214.9306185618413
30
0
10
-1095.6394250519975
20
214.84600553290886
30
0
10
-1095.3804466406684
20
214.66618792437129
30
0
10
-1095.2466403480753
20
214.529938430046
30
0
10
-1095.0075776333429
20
214.15475605772727
30
0
10
-1094.8931816247648
20
213.8905817401272
30
0
10
-1094.452978964558
20
211.89962952579566
30
0
10
-1094.7390587308869
20
208.79699064225497
30
0
10
-1095.2230642398415
20
205.46366627909504
30
0
10
-1095.5398276379951
20
203.96232590775628
30
0
10
-1096.6370302629052
20
201.59067474220728
30
0
10
-1097.0782207657994
20
200.96454702634301
30
0
10
-1098.445618172939
20
199.41531614649975
30
0
10
-1099.6353158763136
20
198.97621388738986
30
0
10
-1103.0021894894683
20
197.15870377486073
30
0
10
-1103.9846110308451
20
196.42745545938783
30
0
10
-1105.4610312343368
20
195.49788195496484
30
0
10
-1105.877585690519
20
195.25507449431205
30
0
10
-1106.4291278742455
20
195.04995714651076
30
0
10
-1106.6010288647899
20
195.0020848334085
30
0
10
-1106.8729634941328
20
194.9837748373827
30
0
10
-1106.979262370369
20
194.98869018287178
30
0
10
-1107.1799719504954
20
195.04584883409322
30
0
10
-1107.2683777725961
20
195.08921005728985
30
0
10
-1107.4487199790931
20
195.23314544239207
30
0
10
-1107.5318724673562
20
195.33628627624933
30
0
10
-1107.7503653588233
20
195.71231827130549
30
0
10
-1107.8657711289818
20
196.0853783129167
30
0
10
-1108.1082962323676
20
197.64532207500238
30
0
10
-1108.1387389577817
20
199.22477729037226
30
0
10
-1108.0424218693545
20
202.42922608584959
30
0
10
-1107.8661794900825
20
204.20184635331637
30
0
10
-1106.413678881577
20
207.38838280055478
30
0
10
-1105.5138539942759
20
209.36244379765643
30
0
10
-1104.8082236619048
20
210.28984939078941
30
0
10
-1104.2085334976312
20
211.04105488923207
30
0
10
-1103.5939653530229
20
211.76704560153075
30
0
10
-1101.1333759040488
20
213.47428491660551
30
0
10
-1099.9478545679353
20
214.26187548890798
30
0
10
-1098.1635960470978
20
214.9817190544689
30
0
10
-1097.6355029864455
20
215.11788056031364
30
0
10
-1096.6386809565004
20
215.16674223690097
30
0
10
-1096.2492128156989
20
215.07750445300854
30
0
10
-1096.037107962404
20
215.01217405453127
30
0
10
-1096.018353859087
20
215.00613052148566
30
0
10
-1095.999999195338
20
215.00000320374983
30
0
0
LINE
5
261
100
AcDbEntity
8
0
100
AcDbLine
10
-1019.9999979138374
20
25
30
0
11
-1139.9999999896706
21
25
31
0
0
LINE
5
262
100
AcDbEntity
8
0
100
AcDbLine
10
-1139.9999999896706
20
25
30
0
11
-1139.9999999976724
21
127.7344624136411
31
0
0
SPLINE
5
263
100
AcDbEntity
8
0
100
AcDbSpline
70
0
71
3
72
108
73
104
74
0
42
0.000000001
43
0.0000000001
44
0.0000000001
40
-24.411139648196748
40
-24.411139648196748
40
-24.411139648196748
40
-24.411139648196748
40
-23.236619304068913
40
-23.236619304068913
40
-22.013111269895255
40
-22.013111269895255
40
-20.332345532278953
40
-20.332345532278953
40
-19.179937366807057
40
-19.179937366807057
40
-18.249328120975616
40
-18.249328120975616
40
-17.700334379290769
40
-17.700334379290769
40
-17.306553030431349
40
-17.306553030431349
40
-16.020930292583209
40
-16.020930292583209
40
-15.226847036185291
40
-15.226847036185291
40
-14.635515297113869
40
-14.635515297113869
40
-13.391991729908574
40
-13.391991729908574
40
-12.517661005667398
40
-12.517661005667398
40
-12.059195035103727
40
-12.059195035103727
40
-11.600759162516503
40
-11.600759162516503
40
-10.783805680674242
40
-10.783805680674242
40
-10.355089672323357
40
-10.355089672323357
40
-10.04963343308437
40
-10.04963343308437
40
-9.7027075352429062
40
-9.7027075352429062
40
-9.325357030545355
40
-9.325357030545355
40
-9.1690566993044804
40
-9.1690566993044804
40
-9.0706892535893608
40
-9.0706892535893608
40
-8.9797069425267928
40
-8.9797069425267928
40
-8.8716405923240966
40
-8.8716405923240966
40
-8.6314446782580401
40
-8.6314446782580401
40
-8.4957547427597966
40
-8.4957547427597966
40
-8.2005131703486853
40
-8.2005131703486853
40
-7.8028823737365949
40
-7.8028823737365949
40
-7.5911394369007326
40
-7.5911394369007326
40
-7.5253604525022082
40
-7.5253604525022082
40
-7.5006576826756266
40
-7.5006576826756266
40
-7.487559188078369
40
-7.487559188078369
40
-7.4775109728063418
40
-7.4775109728063418
40
-7.4667225821262084
40
-7.4667225821262084
40
-7.4507958547650466
40
-7.4507958547650466
40
-7.4176970926978134
40
-7.4176970926978134
40
-7.2822609872034993
40
-7.2822609872034993
40
-7.0565183588427249
40
-7.0565183588427249
40
-6.6973670707276005
40
-6.6973670707276005
40
-6.2907775005692592
40
-6.2907775005692592
40
-5.8853775918507818
40
-5.8853775918507818
40
-5.6617814799250867
40
-5.6617814799250867
40
-5.5234927873519064
40
-5.5234927873519064
40
-5.4197258504053734
40
-5.4197258504053734
40
-5.3118603574383689
40
-5.3118603574383689
40
-5.1219384768252159
40
-5.1219384768252159
40
-4.8261542046133759
40
-4.8261542046133759
40
-4.291967070473488
40
-4.291967070473488
40
-3.4201312284128065
40
-3.4201312284128065
40
-2.2152519960511063
40
-2.2152519960511063
40
-1.1402072768511655
40
-1.1402072768511655
40
0
40
0
40
0
40
0
10
-1140.0000000023938
20
127.73446241799886
30
0
10
-1138.9005361641553
20
128.92571624785495
30
0
10
-1138.0509768569514
20
130.44590501491894
30
0
10
-1136.5637177688266
20
133.86901802773815
30
0
10
-1135.8834545500483
20
135.90938578206794
30
0
10
-1134.1663825181829
20
141.43029023435679
30
0
10
-1133.2120096076201
20
144.63802507883597
30
0
10
-1131.4515777416195
20
149.99646623885158
30
0
10
-1130.9316752808199
20
151.55440259452928
30
0
10
-1129.5176662896843
20
156.77822792178634
30
0
10
-1128.9636822718794
20
159.0371042165807
30
0
10
-1128.0736451908117
20
161.80461961961777
30
0
10
-1127.7546569822375
20
162.61393450436532
30
0
10
-1127.1450973133576
20
163.65054750484634
30
0
10
-1126.885987026569
20
163.9532265700646
30
0
10
-1125.6631248981221
20
164.95375837884973
30
0
10
-1124.3137571328946
20
165.09013122093859
30
0
10
-1120.528002151985
20
167.0664825541871
30
0
10
-1118.7636033550248
20
168.18993372791391
30
0
10
-1116.1082151380679
20
171.03391580360494
30
0
10
-1115.3629639018559
20
172.25624535653108
30
0
10
-1112.9857870520559
20
176.31527534309609
30
0
10
-1111.6955279605957
20
178.64559774549031
30
0
10
-1103.8471894339223
20
185.82653487482244
30
0
10
-1100.4550541515109
20
188.4350733253932
30
0
10
-1095.23089293264
20
193.8253388149968
30
0
10
-1094.1624479096272
20
195.17290900668672
30
0
10
-1091.8144518130052
20
197.25849974595809
30
0
10
-1090.7377215412839
20
197.81728054060073
30
0
10
-1086.2440465837808
20
199.34828806644245
30
0
10
-1082.3704560526196
20
200.06945684598779
30
0
10
-1074.9573298747953
20
204.85413299748143
30
0
10
-1073.5758810031139
20
206.26561864636687
30
0
10
-1070.8869956943245
20
208.14236294935046
30
0
10
-1069.2916447734824
20
209.02832511307776
30
0
10
-1063.7132927507018
20
210.22451313065562
30
0
10
-1060.9152890925866
20
210.1228266817651
30
0
10
-1055.8841980392667
20
210.7738017472206
30
0
10
-1054.8604926344613
20
211.45474751395125
30
0
10
-1052.8181845812594
20
212.62463599054033
30
0
10
-1052.2082716954105
20
212.95743426168823
30
0
10
-1051.1454695791435
20
213.28411053572094
30
0
10
-1050.7219006028965
20
213.3567418676557
30
0
10
-1049.8983390965489
20
213.33014174247606
30
0
10
-1049.5203689722944
20
213.24378642646911
30
0
10
-1048.7293836622107
20
212.88175631656748
30
0
10
-1048.3586790230497
20
212.59058581187983
30
0
10
-1047.2245828206908
20
211.47956439728625
30
0
10
-1046.1973653815594
20
209.96636703787206
30
0
10
-1043.1266345024242
20
207.5024166542448
30
0
10
-1041.0052588574758
20
206.00216727663548
30
0
10
-1039.3610356333756
20
204.81508038106429
30
0
10
-1038.3444118561258
20
204.11910811394853
30
0
10
-1035.341895236978
20
202.90942295419802
30
0
10
-1033.8191164972122
20
202.81020419268441
30
0
10
-1032.782663157222
20
202.78899835054227
30
0
10
-1032.4770171046821
20
202.80600366337669
30
0
10
-1032.2101418969814
20
202.85775497925118
30
0
10
-1032.1415503344574
20
202.87511521238412
30
0
10
-1032.0690848248255
20
202.90889055296302
30
0
10
-1032.0483240900912
20
202.92063010017245
30
0
10
-1032.0232042498287
20
202.94277574926957
30
0
10
-1032.0152651570882
20
202.95161477778856
30
0
10
-1032.005039239169
20
202.96940370732693
30
0
10
-1032.0019794472978
20
202.9776499862393
30
0
10
-1031.9992263618583
20
202.99591575526395
30
0
10
-1031.9999017481305
20
203.00532988985165
30
0
10
-1032.0056286462616
20
203.02830973539105
30
0
10
-1032.0125077817793
20
203.04127694875601
30
0
10
-1032.0371629793244
20
203.07699138153185
30
0
10
-1032.0628069768843
20
203.10121205204479
30
0
10
-1032.2204039871535
20
203.22245629821191
30
0
10
-1032.463849940131
20
203.33426781959108
30
0
10
-1033.2563098474154
20
203.67243585725168
30
0
10
-1033.8645858338391
20
203.91013046640552
30
0
10
-1035.5219294360459
20
204.80234080766951
30
0
10
-1036.0768227548588
20
205.32900646749744
30
0
10
-1037.7799858324217
20
206.56879690281482
30
0
10
-1038.5071714252076
20
206.94092818955801
30
0
10
-1040.6562228363136
20
208.11904320971354
30
0
10
-1041.9617450762082
20
208.86069040188738
30
0
10
-1043.6901833301297
20
210.39492161898033
30
0
10
-1044.162162468999
20
210.94083047420295
30
0
10
-1044.6832937380655
20
211.78661818455555
30
0
10
-1044.8503839897282
20
212.14199664552794
30
0
10
-1045.0016910289096
20
212.78934396442844
30
0
10
-1045.0200574406458
20
213.07022227966698
30
0
10
-1044.9330396953765
20
213.64661424965888
30
0
10
-1044.8264685431375
20
213.91828951362245
30
0
10
-1044.4100900881454
20
214.62344280658067
30
0
10
-1044.0256082879641
20
214.991984164531
30
0
10
-1043.3587609512588
20
215.54884097378954
30
0
10
-1043.0211893231049
20
215.71507759793172
30
0
10
-1042.4120813681654
20
215.96046350122288
30
0
10
-1042.003418846685
20
216.02654633011912
30
0
10
-1040.7656617764587
20
216.00949698731014
30
0
10
-1039.8844366373437
20
215.8056313194528
30
0
10
-1037.4468684479386
20
215.23795450330508
30
0
10
-1035.8149151589605
20
214.8552650631562
30
0
10
-1032.2417684398115
20
214.84606565788886
30
0
10
-1030.4096358712784
20
215.14212428425174
30
0
10
-1026.2266539690158
20
216.88336431148622
30
0
10
-1023.7923834596074
20
218.42166363940129
30
0
10
-1020.9999980777502
20
221.00000329315662
30
0
0
SPLINE
5
264
100
AcDbEntity
8
0
100
AcDbSpline
70
0
71
3
72
240
73
236
74
0
42
0.000000001
43
0.0000000001
44
0.0000000001
40
-58.882659767151999
40
-58.882659767151999
40
-58.882659767151999
40
-58.882659767151999
40
-58.73211158506038
40
-58.73211158506038
40
-58.619985135762498
40
-58.619985135762498
40
-58.555235628698739
40
-58.555235628698739
40
-58.507253400972729
40
-58.507253400972729
40
-58.457179168309331
40
-58.457179168309331
40
-58.385891910538973
40
-58.385891910538973
40
-58.26545809207439
40
-58.26545809207439
40
-58.017006500823129
40
-58.017006500823129
40
-56.750811432300701
40
-56.750811432300701
40
-55.863086636699862
40
-55.863086636699862
40
-54.604569075254773
40
-54.604569075254773
40
-54.162970787736647
40
-54.162970787736647
40
-53.94605732952818
40
-53.94605732952818
40
-53.821160343336693
40
-53.821160343336693
40
-53.721682042460046
40
-53.721682042460046
40
-53.612853745926287
40
-53.612853745926287
40
-53.453648048857787
40
-53.453648048857787
40
-53.19222270582371
40
-53.19222270582371
40
-52.615722489472809
40
-52.615722489472809
40
-52.3648839383916
40
-52.3648839383916
40
-52.238852923907885
40
-52.238852923907885
40
-52.141288012301295
40
-52.141288012301295
40
-52.035099466755099
40
-52.035099466755099
40
-51.876505367275506
40
-51.876505367275506
40
-51.594039231734186
40
-51.594039231734186
40
-51.356095228095512
40
-51.356095228095512
40
-51.133819244408734
40
-51.133819244408734
40
-50.867859991620875
40
-50.867859991620875
40
-49.932094791065481
40
-49.932094791065481
40
-48.915708642541304
40
-48.915708642541304
40
-48.414753173653658
40
-48.414753173653658
40
-48.020372610736523
40
-48.020372610736523
40
-47.72764519701424
40
-47.72764519701424
40
-47.58998138655258
40
-47.58998138655258
40
-47.509114660645402
40
-47.509114660645402
40
-47.442555439316713
40
-47.442555439316713
40
-47.367122022930822
40
-47.367122022930822
40
-47.250901911320106
40
-47.250901911320106
40
-47.02682489741229
40
-47.02682489741229
40
-46.530681392295321
40
-46.530681392295321
40
-45.773690933540792
40
-45.773690933540792
40
-45.131016856709408
40
-45.131016856709408
40
-44.536207860896184
40
-44.536207860896184
40
-44.294079025677057
40
-44.294079025677057
40
-44.132613684632645
40
-44.132613684632645
40
-43.981626494471925
40
-43.981626494471925
40
-43.820227948487151
40
-43.820227948487151
40
-43.654514467772742
40
-43.654514467772742
40
-43.500005129441263
40
-43.500005129441263
40
-43.332619427732411
40
-43.332619427732411
40
-43.103766267385552
40
-43.103766267385552
40
-42.67143506913871
40
-42.67143506913871
40
-41.816007257688831
40
-41.816007257688831
40
-40.84608530308158
40
-40.84608530308158
40
-40.210479206156769
40
-40.210479206156769
40
-39.78947912434262
40
-39.78947912434262
40
-39.58091820032913
40
-39.58091820032913
40
-39.444548499056708
40
-39.444548499056708
40
-39.340686380242374
40
-39.340686380242374
40
-39.243062351661962
40
-39.243062351661962
40
-39.130444976978779
40
-39.130444976978779
40
-38.961519774647101
40
-38.961519774647101
40
-38.700313469989425
40
-38.700313469989425
40
-38.229392128990774
40
-38.229392128990774
40
-37.151949041599096
40
-37.151949041599096
40
-36.420232578702119
40
-36.420232578702119
40
-36.189020459578323
40
-36.189020459578323
40
-36.097872174182626
40
-36.097872174182626
40
-36.050909758516973
40
-36.050909758516973
40
-36.018505203808516
40
-36.018505203808516
40
-35.987243866248591
40
-35.987243866248591
40
-35.948093769067832
40
-35.948093769067832
40
-35.882552835949916
40
-35.882552835949916
40
-35.721462896594254
40
-35.721462896594254
40
-35.259886975059096
40
-35.259886975059096
40
-34.705763615591486
40
-34.705763615591486
40
-33.754725184239028
40
-33.754725184239028
40
-31.353532540118778
40
-31.353532540118778
40
-29.807482041490402
40
-29.807482041490402
40
-28.874597359648433
40
-28.874597359648433
40
-27.868346495093753
40
-27.868346495093753
40
-25.14095954507254
40
-25.14095954507254
40
-20.993184348901298
40
-20.993184348901298
40
-19.708955658156146
40
-19.708955658156146
40
-19.166024261381548
40
-19.166024261381548
40
-18.84813919142486
40
-18.84813919142486
40
-18.577472174221715
40
-18.577472174221715
40
-18.266677995784377
40
-18.266677995784377
40
-17.8368430283507
40
-17.8368430283507
40
-16.286453350975268
40
-16.286453350975268
40
-15.462709724941824
40
-15.462709724941824
40
-13.514993013336422
40
-13.514993013336422
40
-11.131238469873457
40
-11.131238469873457
40
-9.2804783658818533
40
-9.2804783658818533
40
-8.5069547652298301
40
-8.5069547652298301
40
-8.0024242543138637
40
-8.0024242543138637
40
-7.530005720889509
40
-7.530005720889509
40
-6.8614047122439104
40
-6.8614047122439104
40
-5.9869655716683514
40
-5.9869655716683514
40
-5.5384745455643527
40
-5.5384745455643527
40
-5.3121710233619694
40
-5.3121710233619694
40
-5.1731404916137835
40
-5.1731404916137835
40
-5.047382219908255
40
-5.047382219908255
40
-4.8973979535544041
40
-4.8973979535544041
40
-4.6768537612945806
40
-4.6768537612945806
40
-3.6901615971759547
40
-3.6901615971759547
40
-2.6684716577017484
40
-2.6684716577017484
40
-1.7675662079152135
40
-1.7675662079152135
40
-1.3468662926508375
40
-1.3468662926508375
40
-1.1309412562900099
40
-1.1309412562900099
40
-0.95812935721872439
40
-0.95812935721872439
40
-0.82654173012806342
40
-0.82654173012806342
40
-0.73382315469035264
40
-0.73382315469035264
40
-0.65063372868391189
40
-0.65063372868391189
40
-0.55284372664448078
40
-0.55284372664448078
40
-0.39652831410590672
40
-0.39652831410590672
40
0
40
0
40
0
40
0
10
-1020.9999980777502
20
221.00000329315662
30
0
10
-1020.9407216222791
20
221.10632456364127
30
0
10
-1020.8826810427041
20
221.22246272984034
30
0
10
-1020.8072475548538
20
221.42143202351639
30
0
10
-1020.7792158978476
20
221.51582437497123
30
0
10
-1020.7645972288896
20
221.6587555275967
30
0
10
-1020.7651731640142
20
221.71285662600908
30
0
10
-1020.7853106809634
20
221.80226493347061
30
0
10
-1020.7997418192815
20
221.83806101435653
30
0
10
-1020.8441147617048
20
221.90428928413243
30
0
10
-1020.8730938853112
20
221.93201318048006
30
0
10
-1020.9552921285029
20
221.9865741360058
30
0
10
-1021.0116053545358
20
222.00673358873817
30
0
10
-1021.1635756760215
20
222.04076727410029
30
0
10
-1021.2699168262104
20
222.04301483109074
30
0
10
-1021.5687778028558
20
222.02594900072202
30
0
10
-1021.811064591396
20
221.97695912326043
30
0
10
-1023.4551252148627
20
221.4823812937486
30
0
10
-1024.5029048084
20
220.6923219031631
30
0
10
-1025.8553339059952
20
219.66281310427905
30
0
10
-1026.3307680032071
20
219.29654335959373
30
0
10
-1027.886894867208
20
218.60682497345505
30
0
10
-1028.7760456349142
20
218.39141588700073
30
0
10
-1034.922934841022
20
217.9286685592497
30
0
10
-1036.027121572178
20
217.87084156317806
30
0
10
-1037.3048246269486
20
217.96733164763623
30
0
10
-1037.7007241587144
20
218.03104248931908
30
0
10
-1038.2336680365152
20
218.22076058765964
30
0
10
-1038.4228964305121
20
218.31383884477765
30
0
10
-1038.7154114052466
20
218.54328870018412
30
0
10
-1038.8242105127072
20
218.66369700511936
30
0
10
-1038.9987255430219
20
218.96130534926911
30
0
10
-1039.0528236895482
20
219.13163295592781
30
0
10
-1039.1135296167663
20
219.57103702076978
30
0
10
-1039.085837675573
20
219.84304928859703
30
0
10
-1038.9263410527335
20
220.52194396078616
30
0
10
-1038.7208444685082
20
220.98102496687318
30
0
10
-1037.7651444540531
20
222.44791453172738
30
0
10
-1036.9807985322825
20
223.03517998905005
30
0
10
-1036.0673731813954
20
223.71219611915478
30
0
10
-1035.8291622314293
20
223.88778721832892
30
0
10
-1035.5716132766099
20
224.15232470895529
30
0
10
-1035.5002676654024
20
224.24293654902897
30
0
10
-1035.4119088040607
20
224.41409333502392
30
0
10
-1035.3862492533319
20
224.49240718984765
30
0
10
-1035.3669684663423
20
224.66678062552771
30
0
10
-1035.3772489670487
20
224.75655103572888
30
0
10
-1035.440780216682
20
224.9750058003138
30
0
10
-1035.5119980599525
20
225.09855732727226
30
0
10
-1035.7412340228439
20
225.40051097530582
30
0
10
-1035.9528673756308
20
225.58493101061384
30
0
10
-1036.4023327936939
20
225.84738768323564
30
0
10
-1036.6298120710173
20
225.93704686861886
30
0
10
-1037.0844936245758
20
226.02081360326125
30
0
10
-1037.3048428336913
20
226.0199711229065
30
0
10
-1037.7865553508273
20
225.9203290812404
30
0
10
-1038.0275152782201
20
225.80669456682273
30
0
10
-1039.0355717568193
20
225.13574699738609
30
0
10
-1039.6932243994188
20
224.11934881821165
30
0
10
-1041.6182213134948
20
221.81536889373467
30
0
10
-1042.6978855730299
20
220.66065877305755
30
0
10
-1048.4280103496189
20
217.21725182623459
30
0
10
-1049.7591275029945
20
216.56266016489087
30
0
10
-1052.9530614338871
20
215.27639613805627
30
0
10
-1057.0638659897977
20
213.75337822235991
30
0
10
-1058.986019078174
20
213.09595971916823
30
0
10
-1059.6751384814465
20
212.89414711800546
30
0
10
-1060.4989846666158
20
212.77994696358317
30
0
10
-1060.7528489381157
20
212.76807090368129
30
0
10
-1061.1124179572989
20
212.81819054792675
30
0
10
-1061.2445660963817
20
212.85298383355024
30
0
10
-1061.4636277324958
20
212.96314526220783
30
0
10
-1061.5506619771604
20
213.02833110719658
30
0
10
-1061.7070912237434
20
213.20524167298657
30
0
10
-1061.7662571099886
20
213.31489532092829
30
0
10
-1061.8704856591714
20
213.61587829908723
30
0
10
-1061.8902408726728
20
213.8184010749311
30
0
10
-1061.8843440836481
20
214.38326913247451
30
0
10
-1061.7991902269487
20
214.78669314291892
30
0
10
-1061.4618555659806
20
215.93859094483952
30
0
10
-1061.0146074986235
20
216.91365280510979
30
0
10
-1059.3807302481291
20
219.30220949008404
30
0
10
-1058.0137520699891
20
220.46681294766088
30
0
10
-1055.4762153029972
20
222.46899051615387
30
0
10
-1054.4303419830458
20
223.14150382327713
30
0
10
-1051.8234657999305
20
224.08419210567922
30
0
10
-1050.6789442428544
20
224.24591621456554
30
0
10
-1049.3270674289299
20
224.66932333415909
30
0
10
-1048.9608478809982
20
224.81646913876634
30
0
10
-1048.4441918688885
20
225.14897300912099
30
0
10
-1048.2581816849115
20
225.30813279933159
30
0
10
-1047.9685357977635
20
225.68490300143077
30
0
10
-1047.8681751222407
20
225.88793705149078
30
0
10
-1047.746974185005
20
226.34555179112431
30
0
10
-1047.7349927482626
20
226.59318942191194
30
0
10
-1047.8022065729269
20
227.08347874345225
30
0
10
-1047.8839049320734
20
227.326235606475
30
0
10
-1048.1237498707376
20
227.74768936442325
30
0
10
-1048.275283052242
20
227.92783148484713
30
0
10
-1048.6572456402607
20
228.2331025085314
30
0
10
-1048.8830724539514
20
228.34479483617372
30
0
10
-1049.4630347935847
20
228.51111499890385
30
0
10
-1049.81850522985
20
228.52541739732351
30
0
10
-1050.8219542630311
20
228.43424320470109
30
0
10
-1051.4869101493971
20
228.2107060290393
30
0
10
-1053.136133199775
20
227.53374955397308
30
0
10
-1054.4943572202228
20
226.7689676776543
30
0
10
-1057.36442369876
20
224.54624818547552
30
0
10
-1059.2388173087115
20
222.72580791967269
30
0
10
-1062.1568591546834
20
217.87834973344545
30
0
10
-1062.3717633963647
20
216.96597575679971
30
0
10
-1064.244732195667
20
214.61218372455539
30
0
10
-1065.3404657695855
20
213.51705059535533
30
0
10
-1066.5594745278645
20
212.55637608850009
30
0
10
-1066.9159459592981
20
212.33233963714844
30
0
10
-1067.4853154527966
20
212.09438570264246
30
0
10
-1067.7671589253432
20
212.00872874167598
30
0
10
-1068.3337900904478
20
211.98300433127218
30
0
10
-1068.578021610695
20
212.01419599505658
30
0
10
-1069.0281466594406
20
212.16328035733855
30
0
10
-1069.2296473085974
20
212.2741139544689
30
0
10
-1069.6105176248029
20
212.59175551518234
30
0
10
-1069.7707054759862
20
212.80101378189562
30
0
10
-1070.0784727201112
20
213.39139536617859
30
0
10
-1070.1738690203467
20
213.79521176108457
30
0
10
-1070.2878039376267
20
214.80495263282938
30
0
10
-1070.2554107069327
20
215.55703895008264
30
0
10
-1069.8111477558145
20
218.16347213699513
30
0
10
-1069.1329583393281
20
220.27716930742213
30
0
10
-1065.8121314586301
20
227.35986151699586
30
0
10
-1062.7779728827425
20
230.33875431953766
30
0
10
-1059.6250724947881
20
233.2142080519321
30
0
10
-1058.4423313076989
20
234.19511257394521
30
0
10
-1057.4095143891147
20
235.37356660704381
30
0
10
-1057.1416557762032
20
235.71600111520721
30
0
10
-1056.9067876827751
20
236.18438619771811
30
0
10
-1056.8471540644425
20
236.33314457688954
30
0
10
-1056.8079762368011
20
236.55346079873851
30
0
10
-1056.8028606240628
20
236.63194189437985
30
0
10
-1056.8211575077523
20
236.75910369659516
30
0
10
-1056.8362001452872
20
236.80929259647303
30
0
10
-1056.8853533818738
20
236.89982526948376
30
0
10
-1056.9173913149853
20
236.93790421703849
30
0
10
-1057.0061889986987
20
237.00931608225997
30
0
10
-1057.0640201098345
20
237.0365242073029
30
0
10
-1057.2263565427259
20
237.08532861666845
30
0
10
-1057.3395616246787
20
237.09185673219588
30
0
10
-1057.7064300129152
20
237.07620315583193
30
0
10
-1057.9868950218893
20
236.99578272476228
30
0
10
-1058.7357411284308
20
236.74269155135565
30
0
10
-1059.4169269335655
20
236.39318332568521
30
0
10
-1061.0171753016314
20
235.31799856137212
30
0
10
-1062.0801182963037
20
234.45650329140321
30
0
10
-1065.2487334902873
20
230.87769860837767
30
0
10
-1066.9825552364316
20
227.91203036992118
30
0
10
-1070.3982004650229
20
221.49405563466865
30
0
10
-1071.0087190946772
20
218.38908085970354
30
0
10
-1071.3777261452999
20
214.85477605479161
30
0
10
-1071.3735777780012
20
213.75733277188044
30
0
10
-1071.6420734393685
20
212.16248792474738
30
0
10
-1071.8039149486635
20
211.61060825989745
30
0
10
-1072.3975860456883
20
210.4972684350214
30
0
10
-1072.8571567950526
20
209.92464643186153
30
0
10
-1075.4932949919746
20
207.74282655752145
30
0
10
-1078.6184731239728
20
206.55726090407111
30
0
10
-1083.5286347184681
20
204.87810325572596
30
0
10
-1086.848946759392
20
204.06693878863405
30
0
10
-1089.9221392516388
20
203.75819151193133
30
0
10
-1090.6845071465384
20
203.7268480942513
30
0
10
-1091.5585279278257
20
203.85045674670516
30
0
10
-1091.803188057127
20
203.90982350197248
30
0
10
-1092.1293489615223
20
204.05921726149032
30
0
10
-1092.2439658244355
20
204.12985017131365
30
0
10
-1092.4211225154872
20
204.30001356129657
30
0
10
-1092.4851813378818
20
204.39009876472829
30
0
10
-1092.5821316250299
20
204.61268379007092
30
0
10
-1092.6048717093274
20
204.74009601906261
30
0
10
-1092.6135804927483
20
205.04885638595169
30
0
10
-1092.5825663670973
20
205.2422143432787
30
0
10
-1092.3345754639374
20
206.17008312148334
30
0
10
-1091.7920890448154
20
207.18739507547338
30
0
10
-1090.3700598161349
20
209.67006627654183
30
0
10
-1089.4147404793011
20
211.31800250443479
30
0
10
-1087.0001692413839
20
215.3069643324753
30
0
10
-1085.5150707815114
20
217.46151872558022
30
0
10
-1082.509237396421
20
220.92259387175488
30
0
10
-1080.8541471761298
20
222.17014472920391
30
0
10
-1077.0304327662843
20
224.05710252028138
30
0
10
-1075.4641344249881
20
224.57006636107315
30
0
10
-1073.7220097051982
20
225.45949953031362
30
0
10
-1073.2548999640167
20
225.74767575574779
30
0
10
-1072.6371022881997
20
226.31217701316717
30
0
10
-1072.4249881710668
20
226.56514178300466
30
0
10
-1072.1248032923022
20
227.13026551515003
30
0
10
-1072.0385603902159
20
227.42122177306169
30
0
10
-1071.9699269533276
20
228.16399024612747
30
0
10
-1072.0526295136674
20
228.54780767389445
30
0
10
-1072.2257401100339
20
229.12741013623565
30
0
10
-1072.3697910564463
20
229.42116065951831
30
0
10
-1072.5967181886974
20
229.74402646672004
30
0
10
-1072.677166152351
20
229.83517195470262
30
0
10
-1072.7963632484768
20
229.93135152188759
30
0
10
-1072.8417106645772
20
229.96125078502101
30
0
10
-1072.9189070479599
20
229.99159991250258
30
0
10
-1072.9497958417826
20
229.99918919890493
30
0
10
-1073.0099101783967
20
230.00109944375438
30
0
10
-1073.0375417748305
20
229.99657399079604
30
0
10
-1073.0960740174287
20
229.97422373258996
30
0
10
-1073.1242217970191
20
229.95490331564895
30
0
10
-1073.1858615422971
20
229.89761926646167
30
0
10
-1073.2178527488052
20
229.8531514586243
30
0
10
-1073.3742932219168
20
229.58085245953805
30
0
10
-1073.4638078983469
20
229.19901869908674
30
0
10
-1073.7548649012151
20
228.33018391385008
30
0
10
-1073.950352642873
20
227.8694782143445
30
0
10
-1074.614768562978
20
227.00541609204535
30
0
10
-1075.1017980561617
20
226.53263160967975
30
0
10
-1076.4433622653544
20
225.73706207140035
30
0
10
-1077.1190014576921
20
225.36917202177722
30
0
10
-1078.1866605708765
20
225.05899106619978
30
0
10
-1078.6217018131968
20
224.977474415693
30
0
10
-1079.4835825162747
20
225.02528570190731
30
0
10
-1079.8219887588723
20
225.11192865031589
30
0
10
-1080.3124198193611
20
225.32256434892884
30
0
10
-1080.5160596263281
20
225.44406358444942
30
0
10
-1080.8064874282111
20
225.70691382705388
30
0
10
-1080.910736277747
20
225.83260266938731
30
0
10
-1081.0557033999746
20
226.10335958373662
30
0
10
-1081.0991554720695
20
226.24009200271914
30
0
10
-1081.1339768137425
20
226.554337942985
30
0
10
-1081.1136543204327
20
226.72323636234833
30
0
10
-1080.989910369834
20
227.14990767674175
30
0
10
-1080.8444439305206
20
227.39869092345594
30
0
10
-1080.2691732206079
20
228.17428089272283
30
0
10
-1079.551243133322
20
228.8042933190454
30
0
10
-1078.4463309368027
20
229.52970444620127
30
0
0
SPLINE
5
265
100
AcDbEntity
8
0
100
AcDbSpline
70
0
71
3
72
16
73
12
74
0
42
0.000000001
43
0.0000000001
44
0.0000000001
40
-2.4684111892993958
40
-2.4684111892993958
40
-2.4684111892993958
40
-2.4684111892993958
40
-1.7384417721784948
40
-1.7384417721784948
40
-0.88206461818704263
40
-0.88206461818704263
40
-0.49007555390065205
40
-0.49007555390065205
40
-0.2433037153480041
40
-0.2433037153480041
40
0
40
0
40
0
40
0
10
-1078.4463309368027
20
229.52970444620127
30
0
10
-1076.5200694908667
20
232.16057888393829
30
0
10
-1075.3930276562496
20
236.0505408451732
30
0
10
-1071.4517754462308
20
243.61954011301412
30
0
10
-1069.1499373182476
20
245.51236060694117
30
0
10
-1065.4486086427851
20
248.59287901605344
30
0
10
-1064.3751261423581
20
249.49961420249684
30
0
10
-1063.0315860447708
20
251.16295343962148
30
0
10
-1062.6062001641158
20
251.85695548565604
30
0
10
-1062.0591390854142
20
253.40106115561443
30
0
10
-1061.9550031042379
20
254.19024057194449
30
0
10
-1061.9999986886978
20
255.0000037997961
30
0
0
LINE
5
266
100
AcDbEntity
8
0
100
AcDbLine
10
-1061.9999986886978
20
255.0000037997961
30
0
11
-1019.9999979138374
21
255.0000037997961
31
0
0
LINE
5
267
100
AcDbEntity
8
0
100
AcDbLine
10
-1019.9999979138374
20
255.0000037997961
30
0
11
-1019.9999979138374
21
25
31
0
0
LINE
5
268
100
AcDbEntity
8
0
100
AcDbLine
10
-1140
20
157.78726705257463
30
0
11
-1140.0000000017635
21
255.0000037997961
31
0
0
LINE
5
269
100
AcDbEntity
8
0
100
AcDbLine
10
-1140.0000000017635
20
255.0000037997961
30
0
11
-1132.9027453530048
21
255.0000037997961
31
0
0
SPLINE
5
270
100
AcDbEntity
8
0
100
AcDbSpline
70
0
71
3
72
54
73
50
74
0
42
0.000000001
43
0.0000000001
44
0.0000000001
40
-0.65988316941791192
40
-0.65988316941791192
40
-0.65988316941791192
40
-0.65988316941791192
40
-0.64923434236478206
40
-0.64923434236478206
40
-0.63931855274521687
40
-0.63931855274521687
40
-0.63120444681801779
40
-0.63120444681801779
40
-0.61911163214672804
40
-0.61911163214672804
40
-0.61340847887610694
40
-0.61340847887610694
40
-0.6067086325173805
40
-0.6067086325173805
40
-0.5996124971268656
40
-0.5996124971268656
40
-0.58255447794599036
40
-0.58255447794599036
40
-0.56907804787782579
40
-0.56907804787782579
40
-0.53306126157980682
40
-0.53306126157980682
40
-0.47733962219180648
40
-0.47733962219180648
40
-0.42199631203899923
40
-0.42199631203899923
40
-0.38219459433810055
40
-0.38219459433810055
40
-0.34317001871199748
40
-0.34317001871199748
40
-0.31310686784822161
40
-0.31310686784822161
40
-0.29777708837421285
40
-0.29777708837421285
40
-0.28868861145710034
40
-0.28868861145710034
40
-0.28116947522270891
40
-0.28116947522270891
40
-0.27271651964797777
40
-0.27271651964797777
40
-0.25978611814639607
40
-0.25978611814639607
40
-0.22628462611720473
40
-0.22628462611720473
40
-0.16891144712569889
40
-0.16891144712569889
40
-0.054080452558678917
40
-0.054080452558678917
40
0
40
0
40
0
40
0
10
-1132.902745352967
20
255.00000379960355
30
0
10
-1132.2662575702038
20
251.69657875766174
30
0
10
-1131.8816107870834
20
248.11501219073844
30
0
10
-1131.9135677741608
20
241.66029866213205
30
0
10
-1132.2726522424559
20
240.14465307654703
30
0
10
-1131.8961558538783
20
235.6216604867376
30
0
10
-1131.4110151565908
20
233.70098084633125
30
0
10
-1130.7089657778445
20
229.30513290375563
30
0
10
-1131.0038316453081
20
228.67960361789096
30
0
10
-1131.0605793467132
20
223.84565716214667
30
0
10
-1131.0121288816372
20
222.54164134543083
30
0
10
-1130.9646284052783
20
220.53867837305256
30
0
10
-1130.9782766700853
20
219.89790008633165
30
0
10
-1131.302501895186
20
216.48368017129866
30
0
10
-1131.5637505422812
20
214.3162717938178
30
0
10
-1132.230779658385
20
207.20967238547854
30
0
10
-1132.0474625708862
20
205.60658307694649
30
0
10
-1131.91052910189
20
198.71122829010372
30
0
10
-1131.9646178812329
20
196.68982560519933
30
0
10
-1132.6761708762715
20
189.72471566422507
30
0
10
-1135.032683299602
20
180.5831710044441
30
0
10
-1136.7806159264017
20
174.09247923748183
30
0
10
-1137.5553802213446
20
171.83931844201422
30
0
10
-1138.1485349418545
20
160.03990379537561
30
0
10
-1137.5632770773584
20
157.27634054818611
30
0
10
-1137.1998140863077
20
155.50449870030153
30
0
10
-1137.0657654788758
20
154.92614258674303
30
0
10
-1137.0464628064522
20
153.68784952322153
30
0
10
-1137.1576673169016
20
153.22463663551775
30
0
10
-1137.3302582343053
20
152.69761951342571
30
0
10
-1137.4241192106342
20
152.49191426377647
30
0
10
-1137.5853104346852
20
152.25232438897936
30
0
10
-1137.6508128903297
20
152.17217847891436
30
0
10
-1137.7712718055184
20
152.07426152389553
30
0
10
-1137.8210332557283
20
152.0432747723263
30
0
10
-1137.9202080097705
20
152.0070158888702
30
0
10
-1137.9666054262152
20
151.99880806311123
30
0
10
-1138.068124943914
20
152.00156657964914
30
0
10
-1138.119713054384
20
152.01493209000918
30
0
10
-1138.2438853580302
20
152.07036596192432
30
0
10
-1138.3118027893493
20
152.12333361464613
30
0
10
-1138.5226985403331
20
152.32949234277132
30
0
10
-1138.6620286358907
20
152.55558913695432
30
0
10
-1138.9969575276352
20
153.234939121389
30
0
10
-1139.1786170089213
20
153.77104862269385
30
0
10
-1139.5878935669689
20
155.13699571708764
30
0
10
-1139.8318391932189
20
156.23112921719144
30
0
10
-1139.9918511965009
20
157.34544204810476
30
0
10
-1140.0105826033725
20
157.60730977015956
30
0
10
-1140
20
157.78726705257463
30
0
0
SPLINE
5
271
100
AcDbEntity
8
0
100
AcDbSpline
70
0
71
3
72
30
73
26
74
0
42
0.000000001
43
0.0000000001
44
0.0000000001
40
-7.7068436244164928
40
-7.7068436244164928
40
-7.7068436244164928
40
-7.7068436244164928
40
-7.6774209735827439
40
-7.6774209735827439
40
-7.648254427112346
40
-7.648254427112346
40
-7.5967424903773448
40
-7.5967424903773448
40
-7.4638110505608006
40
-7.4638110505608006
40
-7.2252125868043482
40
-7.2252125868043482
40
-6.6233834835935319
40
-6.6233834835935319
40
-5.9067951254979203
40
-5.9067951254979203
40
-4.2136479917905056
40
-4.2136479917905056
40
-3.0750856929645405
40
-3.0750856929645405
40
-1.7171525807549353
40
-1.7171525807549353
40
-0.83748672522511802
40
-0.83748672522511802
40
0
40
0
40
0
40
0
10
-1128.9999996870756
20
200.50000298768282
30
0
10
-1129.0558349928995
20
200.50795307283252
30
0
10
-1129.1094878692402
20
200.52361259267093
30
0
10
-1129.2103977408458
20
200.57293701710461
30
0
10
-1129.2552510403036
20
200.60524161861608
30
0
10
-1129.3660279081928
20
200.71318718481038
30
0
10
-1129.4183544843481
20
200.79980780607045
30
0
10
-1129.5602259260436
20
201.12312589390402
30
0
10
-1129.607582608028
20
201.44828150743038
30
0
10
-1129.6539986573039
20
202.54381084496853
30
0
10
-1129.5846353436948
20
203.46068400149625
30
0
10
-1129.4307623957181
20
208.04651651572021
30
0
10
-1129.5739778500317
20
211.09757721798928
30
0
10
-1129.1429577183942
20
217.18424295623751
30
0
10
-1128.5905064314547
20
217.84717809041115
30
0
10
-1126.7939818692282
20
223.77878272158011
30
0
10
-1127.0372138684006
20
230.9669021865881
30
0
10
-1127.5493837114605
20
236.32124157544024
30
0
10
-1127.7947228880228
20
237.34541273104057
30
0
10
-1126.4385504070317
20
242.77692479778818
30
0
10
-1125.4000834800777
20
244.01613292684209
30
0
10
-1124.0540379329695
20
246.0677237319785
30
0
10
-1123.4495993283181
20
247.11429080148361
30
0
10
-1122.7482084398555
20
250.23979552942035
30
0
10
-1122.6349705432594
20
252.23234964675191
30
0
10
-1122.9999995976686
20
255.0000037997961
30
0
0
LINE
5
272
100
AcDbEntity
8
0
100
AcDbLine
10
-1122.9999995976684
20
255.0000037997961
30
0
11
-1103.9999993145468
21
255.00000379979613
31
0
0
SPLINE
5
273
100
AcDbEntity
8
0
100
AcDbSpline
70
0
71
3
72
32
73
28
74
0
42
0.000000001
43
0.0000000001
44
0.0000000001
40
-5.0433788256459398
40
-5.0433788256459398
40
-5.0433788256459398
40
-5.0433788256459398
40
-5.0001759435570081
40
-5.0001759435570081
40
-4.9525689252633871
40
-4.9525689252633871
40
-4.8391526732879129
40
-4.8391526732879129
40
-4.5774073613377366
40
-4.5774073613377366
40
-4.1045646142683054
40
-4.1045646142683054
40
-3.5956668552045317
40
-3.5956668552045317
40
-2.8152360431813692
40
-2.8152360431813692
40
-2.3878965395302876
40
-2.3878965395302876
40
-1.7122913630528194
40
-1.7122913630528194
40
-0.72816581184835716
40
-0.72816581184835716
40
-0.36765839498249953
40
-0.36765839498249953
40
-0.14617433103679264
40
-0.14617433103679264
40
0
40
0
40
0
40
0
10
-1103.9999993145468
20
255.00000379979613
30
0
10
-1103.9356717360893
20
254.93266044406801
30
0
10
-1103.8855477589809
20
254.85547201469916
30
0
10
-1103.8059278153723
20
254.67663513828387
30
0
10
-1103.7803483611415
20
254.57618286802159
30
0
10
-1103.7318619515625
20
254.23257084432336
30
0
10
-1103.7578403536113
20
253.9592185169798
30
0
10
-1103.9388226705553
20
253.05605256539786
30
0
10
-1104.2499062187403
20
252.27393706748427
30
0
10
-1105.4362350115186
20
249.76672885289395
30
0
10
-1106.5193851375532
20
247.88131982897735
30
0
10
-1109.4002931867385
20
242.27563951583491
30
0
10
-1110.1957586068027
20
240.47056389436474
30
0
10
-1113.4632219544224
20
235.93322559771713
30
0
10
-1115.867697088773
20
234.2419297320848
30
0
10
-1119.1468785727998
20
230.79417933518582
30
0
10
-1120.0897453295493
20
229.55194439837823
30
0
10
-1121.9208818273992
20
225.62406775253604
30
0
10
-1122.2432780008817
20
222.97561303443365
30
0
10
-1122.6699571308759
20
215.37790425448551
30
0
10
-1122.5444270609382
20
211.90198279966384
30
0
10
-1124.7303371362827
20
206.47475686902112
30
0
10
-1125.7047654607102
20
204.47047820200402
30
0
10
-1126.8416821329281
20
202.5142021389199
30
0
10
-1127.294315431714
20
201.8576747311219
30
0
10
-1128.1684210019177
20
200.99634102189327
30
0
10
-1128.5578265914412
20
200.70468162112235
30
0
10
-1128.9999996870756
20
200.50000298768282
30
0
0
SPLINE
5
274
100
AcDbEntity
8
0
100
AcDbSpline
70
0
71
3
72
51
73
47
74
0
42
0.000000001
43
0.0000000001
44
0.0000000001
40
-1.6535247783883809
40
-1.6535247783883809
40
-1.6535247783883809
40
-1.6535247783883809
40
-1.6521516821508542
40
-1.6521516821508542
40
-1.6054740117560278
40
-1.6054740117560278
40
-1.5156727645975288
40
-1.5156727645975288
40
-1.3626275690812817
40
-1.3626275690812817
40
-0.98846607287765376
40
-0.98846607287765376
40
-0.78803183174713587
40
-0.78803183174713587
40
-0.67312223593220288
40
-0.67312223593220288
40
-0.59019881278729913
40
-0.59019881278729913
40
-0.51411924121550112
40
-0.51411924121550112
40
-0.44890296112433442
40
-0.44890296112433442
40
-0.40167305577000884
40
-0.40167305577000884
40
-0.363111261169627
40
-0.363111261169627
40
-0.32343427276199632
40
-0.32343427276199632
40
-0.26283783917310793
40
-0.26283783917310793
40
0
40
0
40
0
40
0.067490650868682778
40
0.067490650868682778
40
0.12841843499588346
40
0.12841843499588346
40
0.25011679381496132
40
0.25011679381496132
40
0.33243786964908439
40
0.33243786964908439
40
0.38586168371752816
40
0.38586168371752816
40
0.42239543688560288
40
0.42239543688560288
40
0.4563274022159729
40
0.4563274022159729
40
0.4563274022159729
40
0.4563274022159729
10
-1089.4999990984797
20
219.50000327080471
30
0
10
-1089.4988142448606
20
219.49842276834136
30
0
10
-1089.4976373890895
20
219.49682965819801
30
0
10
-1089.456737119131
20
219.44063524112755
30
0
10
-1089.428688732778
20
219.3740560223593
30
0
10
-1089.3725294038827
20
219.17109220181842
30
0
10
-1089.3635487942904
20
219.00922399074287
30
0
10
-1089.3743316779919
20
218.60936037222353
30
0
10
-1089.4196911202353
20
218.30539173856704
30
0
10
-1089.6956336885207
20
217.25605934450326
30
0
10
-1090.1595137808736
20
216.51147414943924
30
0
10
-1090.768255074775
20
215.67583629820973
30
0
10
-1091.0215659394705
20
215.37029853780879
30
0
10
-1091.4931165496146
20
214.98394506636032
30
0
10
-1091.6887288043542
20
214.85567644031482
30
0
10
-1092.0700627459903
20
214.70845702610589
30
0
10
-1092.2419347516095
20
214.66975177387809
30
0
10
-1092.5925788131929
20
214.66834800349341
30
0
10
-1092.7523295835149
20
214.70051587615518
30
0
10
-1093.0167308006746
20
214.807162388432
30
0
10
-1093.1354612835339
20
214.87840737946175
30
0
10
-1093.3119099517403
20
215.04355529200805
30
0
10
-1093.3782882855676
20
215.12668555996476
30
0
10
-1093.4656847268818
20
215.30331314573883
30
0
10
-1093.4919101749676
20
215.39053507103478
30
0
10
-1093.5063916231979
20
215.58273660250563
30
0
10
-1093.4928382638254
20
215.68115871958585
30
0
10
-1093.4110265782649
20
215.93328213069103
30
0
10
-1093.3189002929262
20
216.08341999723862
30
0
10
-1092.7267377786302
20
216.89838430821484
30
0
10
-1092.6159929285755
20
216.93759154848578
30
0
10
-1092.3264470337017
20
217.76448946929685
30
0
10
-1092.2520983746087
20
217.97681764492432
30
0
10
-1092.1824898178158
20
218.17882076216691
30
0
10
-1091.984647159484
20
218.54108690467567
30
0
10
-1091.8631077256871
20
218.70480924808965
30
0
10
-1091.2930941730367
20
219.19163335938012
30
0
10
-1090.7255649754288
20
219.42264777983996
30
0
10
-1090.2048712991482
20
219.60340347083107
30
0
10
-1090.055585592839
20
219.63703090693258
30
0
10
-1089.8717565124255
20
219.65651501416755
30
0
10
-1089.8012125629889
20
219.65677285618858
30
0
10
-1089.6896886995426
20
219.63510516924654
30
0
10
-1089.6449423677657
20
219.61988824441562
30
0
10
-1089.5635075265943
20
219.57037072692157
30
0
10
-1089.5292817017926
20
219.53905879273822
30
0
10
-1089.4999990984797
20
219.50000327080471
30
0
0
SPLINE
5
275
100
AcDbEntity
8
0
100
AcDbSpline
70
0
71
3
72
59
73
55
74
0
42
0.000000001
43
0.0000000001
44
0.0000000001
40
-2.9639790729189457
40
-2.9639790729189457
40
-2.9639790729189457
40
-2.9639790729189457
40
-2.9584531234788418
40
-2.9584531234788418
40
-2.9422386620997751
40
-2.9422386620997751
40
-2.9239917227190433
40
-2.9239917227190433
40
-2.898411035531943
40
-2.898411035531943
40
-2.8132869365863535
40
-2.8132869365863535
40
-2.5434219459268306
40
-2.5434219459268306
40
-2.2768240289578099
40
-2.2768240289578099
40
-2.1188094737713605
40
-2.1188094737713605
40
-1.9897454675609265
40
-1.9897454675609265
40
-1.6261644373561179
40
-1.6261644373561179
40
-1.4934959450880827
40
-1.4934959450880827
40
-1.4274602319652032
40
-1.4274602319652032
40
-1.3961693591648112
40
-1.3961693591648112
40
-1.3752886605281938
40
-1.3752886605281938
40
-1.3555449427151947
40
-1.3555449427151947
40
-1.3302341461034151
40
-1.3302341461034151
40
-1.2893832721901251
40
-1.2893832721901251
40
-1.2116132311388379
40
-1.2116132311388379
40
-0.85514968520496304
40
-0.85514968520496304
40
-0.29309098955655444
40
-0.29309098955655444
40
0
40
0
40
0
40
0.24871576469958212
40
0.24871576469958212
40
0.48931402486635145
40
0.48931402486635145
40
0.57577773828952727
40
0.57577773828952727
40
0.60977400741126786
40
0.60977400741126786
40
0.62341532619808104
40
0.62341532619808104
40
0.62341532619808104
40
0.62341532619808104
10
-1106.9999993592501
20
212.000003159046
30
0
10
-1106.9798994189505
20
211.99036184653107
30
0
10
-1106.9602078293965
20
211.97955144355845
30
0
10
-1106.8849091117872
20
211.93191820372363
30
0
10
-1106.8361178767432
20
211.88679682143874
30
0
10
-1106.7514594312697
20
211.766192466425
30
0
10
-1106.7215610259036
20
211.69238957344072
30
0
10
-1106.677505652329
20
211.50207897179342
30
0
10
-1106.6732838003943
20
211.37552585978779
30
0
10
-1106.7196224990264
20
210.7907544331029
30
0
10
-1106.9274591139467
20
210.16903805462681
30
0
10
-1108.2001653127152
20
206.82154220521909
30
0
10
-1108.3191062148244
20
206.6180661533254
30
0
10
-1110.0994477797692
20
201.26066450932825
30
0
10
-1110.7423632181165
20
199.09399679358341
30
0
10
-1111.3882203487278
20
197.14855067802011
30
0
10
-1111.5959877635682
20
196.60130782138447
30
0
10
-1112.0572590194938
20
195.80148733440865
30
0
10
-1112.2979830163949
20
195.50932880122477
30
0
10
-1113.5421321906683
20
194.53807583900345
30
0
10
-1114.9413286775216
20
194.29143494927268
30
0
10
-1118.2648423415412
20
192.89626987316123
30
0
10
-1118.9506028824953
20
192.55785018930601
30
0
10
-1119.8200242018868
20
192.20393722319741
30
0
10
-1120.1167850709701
20
192.0972498995383
30
0
10
-1120.506266083157
20
192.03176720033218
30
0
10
-1120.6289922265908
20
192.02377407683537
30
0
10
-1120.8210255690196
20
192.04901006039222
30
0
10
-1120.8970504395777
20
192.06975149521239
30
0
10
-1121.036543856447
20
192.14266189377588
30
0
10
-1121.0959384624084
20
192.19083809891231
30
0
10
-1121.2122334558528
20
192.3308249697622
30
0
10
-1121.2594506489202
20
192.42639097990295
30
0
10
-1121.346850287815
20
192.69073182088687
30
0
10
-1121.3684875220772
20
192.87939197182368
30
0
10
-1121.3800613313222
20
193.3999636240614
30
0
10
-1121.3275258232009
20
193.81540556049112
30
0
10
-1120.7045698538836
20
196.37267553325299
30
0
10
-1119.4118106026324
20
197.90971021477347
30
0
10
-1116.1630192176337
20
202.71528225391447
30
0
10
-1115.4148805402403
20
205.08208800969498
30
0
10
-1114.3947917857745
20
207.40030856762246
30
0
10
-1114.0185518193632
20
208.09635363936266
30
0
10
-1113.3555681531461
20
208.81393497357482
30
0
10
-1112.7929630393689
20
209.42287143573884
30
0
10
-1112.071634006277
20
209.99541346247153
30
0
10
-1110.3187738702816
20
211.09228643793867
30
0
10
-1109.3460672933556
20
211.58080843674713
30
0
10
-1108.2316686639701
20
211.95367152276333
30
0
10
-1107.8746663364441
20
212.05259301108808
30
0
10
-1107.4235625838062
20
212.08405786864068
30
0
10
-1107.2839039779781
20
212.08246020723979
30
0
10
-1107.1016296681817
20
212.04067797862746
30
0
10
-1107.0495904528602
20
212.02386078909279
30
0
10
-1106.9999993592501
20
212.000003159046
30
0
0
LWPOLYLINE
5
276
100
AcDbEntity
8
0
100
AcDbPolyline
90
12
70
1
43
0.0
10
-1019.9999979138374
20
0
10
-1009.9999979138374
20
0
10
-1009.9999979138374
20
280
10
-1019.9999979138374
20
280
10
-1019.9999979138374
20
265
10
-1140.0000000019447
20
265
10
-1140.0000000022169
20
280
10
-1150
20
280
10
-1150
20
0
10
-1139.9999999877234
20
0
10
-1139.9999999888917
20
15
10
-1019.9999979138374
20
15
0
LWPOLYLINE
5
277
100
AcDbEntity
8
0
100
AcDbPolyline
90
4
70
1
43
0.0
10
-1319.9999979138374
20
25
10
-1439.9999999832519
20
25
10
-1440.0000000017635
20
255.00000000134764
10
-1319.9999979138374
20
255.0000037997961
0
LWPOLYLINE
5
278
100
AcDbEntity
8
0
100
AcDbPolyline
90
12
70
1
43
0.0
10
-1319.9999979138374
20
0
10
-1309.9999979138374
20
0
10
-1309.9999979138374
20
280
10
-1319.9999979138374
20
280
10
-1319.9999979138374
20
265
10
-1440.0000000019452
20
265
10
-1440.0000000022173
20
280
10
-1450
20
280
10
-1450
20
0
10
-1439.9999999813049
20
0
10
-1439.9999999824729
20
15
10
-1319.9999979138374
20
15
0
LWPOLYLINE
5
279
100
AcDbEntity
8
0
100
AcDbPolyline
90
4
70
1
43
0.0
10
-420
20
375
10
-540.00000017717775
20
375
10
-539.99999823059613
20
605
10
-420
20
605
0
LWPOLYLINE
5
280
100
AcDbEntity
8
0
100
AcDbPolyline
90
12
70
1
43
0.0
10
-539.99999818827916
20
615
10
-420
20
615
10
-420
20
630
10
-410
20
630
10
-410
20
350
10
-420
20
350
10
-420
20
365
10
-540.00000038731469
20
365
10
-540.00000057056764
20
350
10
-550
20
350
10
-550
20
630
10
-539.99999999990223
20
630
0
CIRCLE
5
281
100
AcDbEntity
8
0
100
AcDbCircle
10
-505.64202599416342
20
437.34084931653558
30
0
40
1.25
210
0
220
0
230
1
0
CIRCLE
5
282
100
AcDbEntity
8
0
100
AcDbCircle
10
-478.74407417009093
20
588.29821862525409
30
0
40
1.25
210
0
220
0
230
1
0
LINE
5
283
100
AcDbEntity
8
0
100
AcDbLine
10
-425
20
541.25000000000011
30
0
11
-425
21
538.75000000000011
31
0
0
CIRCLE
5
284
100
AcDbEntity
8
0
100
AcDbCircle
10
-519.57329382171133
20
414.63804248645738
30
0
40
1.25
210
0
220
0
230
1
0
CIRCLE
5
285
100
AcDbEntity
8
0
100
AcDbCircle
10
-485.15599791098271
20
382.77096049479769
30
0
40
1.25
210
0
220
0
230
1
0
CIRCLE
5
286
100
AcDbEntity
8
0
100
AcDbCircle
10
-500
20
545
30
0
40
1.25
210
0
220
0
230
1
0
CIRCLE
5
287
100
AcDbEntity
8
0
100
AcDbCircle
10
-490
20
410
30
0
40
1.25
210
0
220
0
230
1
0
CIRCLE
5
288
100
AcDbEntity
8
0
100
AcDbCircle
10
-469.1222494829583
20
432.00389405691692
30
0
40
1.25
210
0
220
0
230
1
0
CIRCLE
5
289
100
AcDbEntity
8
0
100
AcDbCircle
10
-437.81674112782071
20
516.81564355413832
30
0
40
1.25
210
0
220
0
230
1
0
CIRCLE
5
290
100
AcDbEntity
8
0
100
AcDbCircle
10
-425
20
540.00000000000011
30
0
40
1.25
210
0
220
0
230
1
0
CIRCLE
5
291
100
AcDbEntity
8
0
100
AcDbCircle
10
-455
20
600
30
0
40
1.25
210
0
220
0
230
1
0
CIRCLE
5
292
100
AcDbEntity
8
0
100
AcDbCircle
10
-464.99999999999989
20
570.00000000000023
30
0
40
1.25
210
0
220
0
230
1
0
CIRCLE
5
293
100
AcDbEntity
8
0
100
AcDbCircle
10
-433.62842920566709
20
587.23885680536841
30
0
40
1.25
210
0
220
0
230
1
0
CIRCLE
5
294
100
AcDbEntity
8
0
100
AcDbCircle
10
-460
20
390
30
0
40
1.25
210
0
220
0
230
1
0
CIRCLE
5
295
100
AcDbEntity
8
0
100
AcDbCircle
10
-484.99999999999989
20
520.00000000000023
30
0
40
1.25
210
0
220
0
230
1
0
CIRCLE
5
296
100
AcDbEntity
8
0
100
AcDbCircle
10
-514.99999999999989
20
500.00000000000028
30
0
40
1.25
210
0
220
0
230
1
0
CIRCLE
5
297
100
AcDbEntity
8
0
100
AcDbCircle
10
-525
20
480
30
0
40
1.25
210
0
220
0
230
1
0
CIRCLE
5
298
100
AcDbEntity
8
0
100
AcDbCircle
10
-517.49891157230184
20
383.49776754336682
30
0
40
1.25
210
0
220
0
230
1
0
CIRCLE
5
299
100
AcDbEntity
8
0
100
AcDbCircle
10
-534.99999999999989
20
585.00000000000057
30
0
40
1.25
210
0
220
0
230
1
0
CIRCLE
5
300
100
AcDbEntity
8
0
100
AcDbCircle
10
-530
20
560.00000000000011
30
0
40
1.25
210
0
220
0
230
1
0
LINE
5
301
100
AcDbEntity
8
0
100
AcDbLine
10
-534.99999841044337
20
583.75000000000159
30
0
11
-534.99999838928488
21
586.24999999999955
31
0
0
CIRCLE
5
302
100
AcDbEntity
8
0
100
AcDbCircle
10
-528.74407417009093
20
518.29821862525409
30
0
40
1.25
210
0
220
0
230
1
0
CIRCLE
5
303
100
AcDbEntity
8
0
100
AcDbCircle
10
-514.09028975701131
20
587.21619161749118
30
0
40
1.25
210
0
220
0
230
1
0
CIRCLE
5
304
100
AcDbEntity
8
0
100
AcDbCircle
10
-430
20
390
30
0
40
1.25
210
0
220
0
230
1
0
CIRCLE
5
305
100
AcDbEntity
8
0
100
AcDbCircle
10
-499.1222494829583
20
602.00389405691692
30
0
40
1.25
210
0
220
0
230
1
0
CIRCLE
5
306
100
AcDbEntity
8
0
100
AcDbCircle
10
-530
20
400
30
0
40
1.25
210
0
220
0
230
1
0
CIRCLE
5
307
100
AcDbEntity
8
0
100
AcDbCircle
10
-465.38629330268907
20
481.8319817464353
30
0
40
34.999999999999993
210
0
220
0
230
1
0
CIRCLE
5
308
100
AcDbEntity
8
0
100
AcDbCircle
10
-530
20
450
30
0
40
1.25
210
0
220
0
230
1
0
CIRCLE
5
309
100
AcDbEntity
8
0
100
AcDbCircle
10
-503.74407417009093
20
528.29821862525409
30
0
40
1.25
210
0
220
0
230
1
0
LINE
5
310
100
AcDbEntity
8
0
100
AcDbLine
10
-430
20
391.25
30
0
11
-430
21
388.75
31
0
0
CIRCLE
5
311
100
AcDbEntity
8
0
100
AcDbCircle
10
-440.5588644090858
20
557.94066861510817
30
0
40
1.25
210
0
220
0
230
1
0
CIRCLE
5
312
100
AcDbEntity
8
0
100
AcDbCircle
10
-440
20
420
30
0
40
1.25
210
0
220
0
230
1
0
CIRCLE
5
313
100
AcDbEntity
8
0
100
AcDbCircle
10
-473.00000704824924
20
549.00000818073738
30
0
40
1.25
210
0
220
0
230
1
0
CIRCLE
5
314
100
AcDbEntity
8
0
100
AcDbCircle
10
-499.89064609163427
20
567.87411944236123
30
0
40
1.25
210
0
220
0
230
1
0
CIRCLE
5
315
100
AcDbEntity
8
0
100
AcDbCircle
10
-453.62842920566709
20
537.23885680536841
30
0
40
1.25
210
0
220
0
230
1
0
CIRCLE
5
316
100
AcDbEntity
8
0
100
AcDbCircle
10
-526.71393818091144
20
534.55754390636503
30
0
40
1.25
210
0
220
0
230
1
0
LWPOLYLINE
5
317
100
AcDbEntity
8
0
100
AcDbPolyline
90
12
70
1
43
0.0
10
-1309.9999979138374
20
300
10
-1309.9999979138374
20
580
10
-1319.9999979138374
20
580
10
-1319.9999979138374
20
565
10
-1440.0000000019452
20
565
10
-1440.0000000022173
20
580
10
-1450
20
580
10
-1450
20
300
10
-1439.9999999813049
20
300
10
-1439.9999999824729
20
315
10
-1319.9999979138374
20
315
10
-1319.9999979138374
20
300
0
LWPOLYLINE
5
318
100
AcDbEntity
8
0
100
AcDbPolyline
90
4
70
1
43
0.0
10
-1440.0000000017635
20
555.00000000134764
10
-1319.9999979138374
20
555.0000037997961
10
-1319.9999979138374
20
325
10
-1439.9999999832519
20
325
0
LWPOLYLINE
5
319
100
AcDbEntity
8
0
100
AcDbPolyline
90
12
70
1
43
0.0
10
-1150
20
300
10
-1139.9999999813049
20
300
10
-1139.9999999824729
20
315
10
-1019.9999979138374
20
315
10
-1019.9999979138374
20
300
10
-1009.9999979138374
20
300
10
-1009.9999979138374
20
580
10
-1019.9999979138374
20
580
10
-1019.9999979138374
20
565
10
-1140.0000000019452
20
565
10
-1140.0000000022173
20
580
10
-1150
20
580
0
LWPOLYLINE
5
320
100
AcDbEntity
8
0
100
AcDbPolyline
90
4
70
1
43
0.0
10
-1139.9999999832519
20
325
10
-1140.0000000017635
20
555.00000000134764
10
-1019.9999979138374
20
555.0000037997961
10
-1019.9999979138374
20
325
0
LINE
5
321
100
AcDbEntity
8
0
100
AcDbLine
10
-1140.0000000022173
20
280
30
0
11
-1150
21
280
31
0
0
LINE
5
322
100
AcDbEntity
8
0
100
AcDbLine
10
-1019.9999979138374
20
280
30
0
11
-1009.9999979138374
21
280
31
0
0
LINE
5
323
100
AcDbEntity
8
0
100
AcDbLine
10
-1150
20
280
30
0
11
-1140.0000000022173
21
280
31
0
0
LINE
5
324
100
AcDbEntity
8
0
100
AcDbLine
10
-1009.9999979138374
20
280
30
0
11
-1019.9999979138374
21
280
31
0
0
LWPOLYLINE
5
325
100
AcDbEntity
8
0
100
AcDbPolyline
90
4
70
1
43
0.0
10
-819.99999791383743
20
325
10
-939.99999998325188
20
325
10
-940.00000000176351
20
555.00000000134764
10
-819.99999791383743
20
555.0000037997961
0
LWPOLYLINE
5
326
100
AcDbEntity
8
0
100
AcDbPolyline
90
12
70
1
43
0.0
10
-809.99999791383743
20
580
10
-819.99999791383743
20
580
10
-819.99999791383743
20
565
10
-940.00000000194518
20
565
10
-940.00000000221746
20
580
10
-950
20
580
10
-950
20
300
10
-939.99999998130477
20
300
10
-939.9999999824729
20
315
10
-819.99999791383743
20
315
10
-819.99999791383743
20
300
10
-809.99999791383743
20
300
0
ENDSEC
0
SECTION
2
OBJECTS
0
DICTIONARY
5
C
100
AcDbDictionary
3
ACAD_GROUP
350
D
3
ACAD_MLINESTYLE
350
17
0
DICTIONARY
5
D
100
AcDbDictionary
0
DICTIONARY
5
1A
330
C
100
AcDbDictionary
0
DICTIONARY
5
17
100
AcDbDictionary
0
ENDSEC
0
EOF
