0
SECTION
2
HEADER
9
$INSUNITS
70
5
9
$ACADVER
1
AC1014
9
$HANDSEED
5
FFFF
0
ENDSEC
0
SECTION
2
TABLES
0
TABLE
2
VPORT
5
8
100
AcDbSymbolTable
0
ENDTAB
0
TABLE
2
LTYPE
5
5
100
AcDbSymbolTable
0
LTYPE
5
14
100
AcDbSymbolTableRecord
100
AcDbLinetypeTableRecord
2
BYBLOCK
70
0
0
LTYPE
5
15
100
AcDbSymbolTableRecord
100
AcDbLinetypeTableRecord
2
BYLAYER
70
0
0
ENDTAB
0
TABLE
2
LAYER
5
2
100
AcDbSymbolTable
70
2
0
LAYER
5
50
100
AcDbSymbolTableRecord
100
AcDbLayerTableRecord
2
0
70
0
6
CONTINUOUS
0
ENDTAB
0
TABLE
2
STYLE
5
3
100
AcDbSymbolTable
70
1
0
STYLE
5
11
100
AcDbSymbolTableRecord
100
AcDbTextStyleTableRecord
2
STANDARD
70
0
0
ENDTAB
0
TABLE
2
VIEW
5
6
100
AcDbSymbolTable
70
0
0
ENDTAB
0
TABLE
2
UCS
5
7
100
AcDbSymbolTable
70
0
0
ENDTAB
0
TABLE
2
APPID
5
9
100
AcDbSymbolTable
70
2
0
APPID
5
12
100
AcDbSymbolTableRecord
100
AcDbRegAppTableRecord
2
ACAD
70
0
0
ENDTAB
0
TABLE
2
DIMSTYLE
5
A
100
AcDbSymbolTable
70
1
0
ENDTAB
0
TABLE
2
BLOCK_RECORD
5
1
100
AcDbSymbolTable
70
1
0
BLOCK_RECORD
5
1F
100
AcDbSymbolTableRecord
100
AcDbBlockTableRecord
2
*MODEL_SPACE
0
BLOCK_RECORD
5
1B
100
AcDbSymbolTableRecord
100
AcDbBlockTableRecord
2
*PAPER_SPACE
0
ENDTAB
0
ENDSEC
0
SECTION
2
BLOCKS
0
BLOCK
5
20
100
AcDbEntity
100
AcDbBlockBegin
2
*MODEL_SPACE
0
ENDBLK
5
21
100
AcDbEntity
100
AcDbBlockEnd
0
BLOCK
5
1C
100
AcDbEntity
100
AcDbBlockBegin
2
*PAPER_SPACE
0
ENDBLK
5
1D
100
AcDbEntity
100
AcDbBlockEnd
0
ENDSEC
0
SECTION
2
ENTITIES
0
LWPOLYLINE
5
100
100
AcDbEntity
8
0
100
AcDbPolyline
90
4
70
1
43
0.0
10
56.680000000000007
20
11.500000000000011
10
56.680000000000007
20
23.500000000000011
10
55.500000000000007
20
23.500000000000011
10
55.500000000000014
20
11.500000000000011
0
LWPOLYLINE
5
101
100
AcDbEntity
8
0
100
AcDbPolyline
90
4
70
1
43
0.0
10
0
20
19.82
10
10
20
19.82
10
10
20
21
10
0
20
21
0
ARC
5
102
100
AcDbEntity
8
0
100
AcDbCircle
10
5.1733442694184992
20
11.744991797936125
30
0
40
12.833874055152329
210
0
220
-0
230
1
100
AcDbArc
50
40.032369768766678
51
246.22783493954526
0
LINE
5
103
100
AcDbEntity
8
0
100
AcDbLine
10
-8.8817841970012523e-15
20
2.6645352591003757e-15
30
0
11
60
21
0
31
0
0
ARC
5
104
100
AcDbEntity
8
0
100
AcDbCircle
10
-14.608409469895221
20
16.960098492594398
30
0
40
76.511827219757691
210
-0
220
0
230
1
100
AcDbArc
50
-12.806925402009741
51
13.636854206154517
0
LINE
5
105
100
AcDbEntity
8
0
100
AcDbLine
10
59.74651488773808
20
34.999082063646433
30
0
11
56.999999968954803
21
34.999340733121521
31
0
0
LINE
5
106
100
AcDbEntity
8
0
100
AcDbLine
10
56.999999968954803
20
34.999340733121521
30
0
11
57.000112986135065
21
36.199340727747298
31
0
0
LINE
5
107
100
AcDbEntity
8
0
100
AcDbLine
10
57.000112986135065
20
36.199340727747298
30
0
11
52.000113008310208
21
36.199811632665082
31
0
0
LINE
5
108
100
AcDbEntity
8
0
100
AcDbLine
10
52.000113008310208
20
36.199811632665082
30
0
11
51.999999991129947
21
34.999811638034721
31
0
0
LINE
5
109
100
AcDbEntity
8
0
100
AcDbLine
10
51.999999991129947
20
34.999811638034721
30
0
11
50
21
35
31
0
0
SPLINE
5
110
100
AcDbEntity
8
0
100
AcDbSpline
70
4
71
5
72
21
73
15
74
0
42
0.000000001
43
0.0000000001
44
0.0000000001
40
-1
40
-1
40
-1
40
-1
40
-1
40
-1
40
-0.89999999999999991
40
-0.79999999999999993
40
-0.69999999999999996
40
-0.59999999999999998
40
-0.5
40
-0.40000000000000002
40
-0.30000000000000004
40
-0.20000000000000001
40
-0.10000000000000001
40
0
40
0
40
0
40
0
40
0
40
0
41
1
41
1
41
1
41
1
41
1
41
1
41
1
41
1
41
1
41
1
41
1
41
1
41
1
41
1
41
1
10
50
20
35
30
0
10
50.404238412907468
20
33.945678878474666
30
0
10
51.106552105658949
20
31.909558196582978
30
0
10
51.841543968170242
20
29.072934532477749
30
0
10
52.174001961100785
20
25.733107481766726
30
0
10
51.449038620581327
20
22.33744007805041
30
0
10
49.516727139127987
20
19.766529532176904
30
0
10
46.348813903352912
20
18.039676293301692
30
0
10
42.015326514917291
20
17.109043500833586
30
0
10
36.628485159802302
20
16.897971933762474
30
0
10
30.304591738796326
20
17.327014093062139
30
0
10
24.571985578717598
20
18.130319486023058
30
0
10
19.920617033396045
20
18.97319598811573
30
0
10
16.665849042409715
20
19.640214645321731
30
0
10
15
20
20
30
0
0
ENDSEC
0
SECTION
2
OBJECTS
0
DICTIONARY
5
C
100
AcDbDictionary
3
ACAD_GROUP
350
D
3
ACAD_MLINESTYLE
350
17
0
DICTIONARY
5
D
100
AcDbDictionary
0
DICTIONARY
5
1A
330
C
100
AcDbDictionary
0
DICTIONARY
5
17
100
AcDbDictionary
0
ENDSEC
0
EOF
