0
SECTION
2
HEADER
9
$INSUNITS
70
4
9
$ACADVER
1
AC1014
9
$HANDSEED
5
FFFF
0
ENDSEC
0
SECTION
2
TABLES
0
TABLE
2
VPORT
5
8
100
AcDbSymbolTable
0
ENDTAB
0
TABLE
2
LTYPE
5
5
100
AcDbSymbolTable
0
LTYPE
5
14
100
AcDbSymbolTableRecord
100
AcDbLinetypeTableRecord
2
BYBLOCK
70
0
0
LTYPE
5
15
100
AcDbSymbolTableRecord
100
AcDbLinetypeTableRecord
2
BYLAYER
70
0
0
ENDTAB
0
TABLE
2
LAYER
5
2
100
AcDbSymbolTable
70
2
0
LAYER
5
50
100
AcDbSymbolTableRecord
100
AcDbLayerTableRecord
2
0
70
0
6
CONTINUOUS
0
ENDTAB
0
TABLE
2
STYLE
5
3
100
AcDbSymbolTable
70
1
0
STYLE
5
11
100
AcDbSymbolTableRecord
100
AcDbTextStyleTableRecord
2
STANDARD
70
0
0
ENDTAB
0
TABLE
2
VIEW
5
6
100
AcDbSymbolTable
70
0
0
ENDTAB
0
TABLE
2
UCS
5
7
100
AcDbSymbolTable
70
0
0
ENDTAB
0
TABLE
2
APPID
5
9
100
AcDbSymbolTable
70
2
0
APPID
5
12
100
AcDbSymbolTableRecord
100
AcDbRegAppTableRecord
2
ACAD
70
0
0
ENDTAB
0
TABLE
2
DIMSTYLE
5
A
100
AcDbSymbolTable
70
1
0
ENDTAB
0
TABLE
2
BLOCK_RECORD
5
1
100
AcDbSymbolTable
70
1
0
BLOCK_RECORD
5
1F
100
AcDbSymbolTableRecord
100
AcDbBlockTableRecord
2
*MODEL_SPACE
0
BLOCK_RECORD
5
1B
100
AcDbSymbolTableRecord
100
AcDbBlockTableRecord
2
*PAPER_SPACE
0
ENDTAB
0
ENDSEC
0
SECTION
2
BLOCKS
0
BLOCK
5
20
100
AcDbEntity
100
AcDbBlockBegin
2
*MODEL_SPACE
0
ENDBLK
5
21
100
AcDbEntity
100
AcDbBlockEnd
0
BLOCK
5
1C
100
AcDbEntity
100
AcDbBlockBegin
2
*PAPER_SPACE
0
ENDBLK
5
1D
100
AcDbEntity
100
AcDbBlockEnd
0
ENDSEC
0
SECTION
2
ENTITIES
0
CIRCLE
5
100
100
AcDbEntity
8
0
100
AcDbCircle
10
-49.136997079756952
20
-202.88106739185992
30
0
40
3.0499999999999972
210
0
220
0
230
1
0
CIRCLE
5
101
100
AcDbEntity
8
0
100
AcDbCircle
10
-49.136997079756952
20
-202.88106739185992
30
0
40
60
210
0
220
-0
230
1
0
SPLINE
5
102
100
AcDbEntity
8
0
100
AcDbSpline
70
4
71
5
72
51
73
45
74
0
42
0.000000001
43
0.0000000001
44
0.0000000001
40
0
40
0
40
0
40
0
40
0
40
0
40
0.025000000000000001
40
0.050000000000000003
40
0.075000000000000011
40
0.10000000000000001
40
0.125
40
0.14999999999999999
40
0.17499999999999999
40
0.19999999999999998
40
0.22499999999999998
40
0.24999999999999997
40
0.27499999999999997
40
0.29999999999999999
40
0.32500000000000001
40
0.35000000000000003
40
0.37500000000000006
40
0.40000000000000008
40
0.4250000000000001
40
0.45000000000000012
40
0.47500000000000014
40
0.50000000000000011
40
0.52500000000000013
40
0.55000000000000016
40
0.57500000000000018
40
0.6000000000000002
40
0.62500000000000022
40
0.65000000000000024
40
0.67500000000000027
40
0.70000000000000029
40
0.72500000000000031
40
0.75000000000000033
40
0.77500000000000036
40
0.80000000000000038
40
0.8250000000000004
40
0.85000000000000042
40
0.87500000000000044
40
0.90000000000000047
40
0.92500000000000049
40
0.95000000000000051
40
0.97500000000000053
40
1
40
1
40
1
40
1
40
1
40
1
41
1
41
1
41
1
41
1
41
1
41
1
41
1
41
1
41
1
41
1
41
1
41
1
41
1
41
1
41
1
41
1
41
1
41
1
41
1
41
1
41
1
41
1
41
1
41
1
41
1
41
1
41
1
41
1
41
1
41
1
41
1
41
1
41
1
41
1
41
1
41
1
41
1
41
1
41
1
41
1
41
1
41
1
41
1
41
1
41
1
10
-338.93004214446427
20
299.68754627740498
30
0
10
-340.32751164826811
20
299.68161672403949
30
0
10
-343.10711326391754
20
299.6625407797905
30
0
10
-347.23040178605811
20
299.61228448565771
30
0
10
-352.57636110577528
20
299.50661528588546
30
0
10
-358.72454311628672
20
299.33301793132625
30
0
10
-364.11441627403002
20
299.13847665625457
30
0
10
-368.722200486573
20
298.93123658980022
30
0
10
-372.97128168981214
20
298.68895133939321
30
0
10
-377.75928715012418
20
298.3582432918883
30
0
10
-383.21339252328863
20
297.94072178696604
30
0
10
-389.18828164227256
20
297.44717764355704
30
0
10
-395.31717924890933
20
296.88509424289032
30
0
10
-401.23050658878975
20
296.23502461927001
30
0
10
-406.73354273958176
20
295.42565669985237
30
0
10
-411.80443140567832
20
294.34745601114906
30
0
10
-416.50773438074202
20
292.88090235809489
30
0
10
-420.93771551286926
20
290.91978686259301
30
0
10
-425.14969908000586
20
288.39649868469382
30
0
10
-429.0955108005823
20
285.3070001228088
30
0
10
-432.65289252120385
20
281.69770236268096
30
0
10
-435.65769783375583
20
277.65143091940041
30
0
10
-437.93349281479254
20
273.27471049626632
30
0
10
-439.32537564473819
20
268.682781531145
30
0
10
-439.71948380687252
20
263.99330739243385
30
0
10
-439.05086536392537
20
259.32859783617363
30
0
10
-437.31295603515809
20
254.81463245767912
30
0
10
-434.57089751263072
20
250.58337805766445
30
0
10
-430.95981887735485
20
246.76730625813713
30
0
10
-426.65117672141184
20
243.47987206826758
30
0
10
-421.82494532805401
20
240.79753157996998
30
0
10
-416.64197653101962
20
238.74372752312973
30
0
10
-411.21031161716752
20
237.264919324506
30
0
10
-405.58445733066378
20
236.24463241268836
30
0
10
-399.78151492657344
20
235.5361537374333
30
0
10
-393.7921373152617
20
234.99027044700225
30
0
10
-387.59288864328369
20
234.48260669789445
30
0
10
-381.1594658038527
20
233.94697991022397
30
0
10
-374.47416248713887
20
233.38599234002356
30
0
10
-367.52350526230765
20
232.84495905583884
30
0
10
-360.29826489457497
20
232.39466523510674
30
0
10
-354.29368681366054
20
232.16748052114625
30
0
10
-349.6626642482417
20
232.09947637448715
30
0
10
-346.51849743304984
20
232.10323773633894
30
0
10
-344.93220947924902
20
232.11739305473517
30
0
0
LINE
5
103
100
AcDbEntity
8
0
100
AcDbLine
10
-344.93220947924902
20
232.11739305473517
30
0
11
-344.9322094792492
21
272.1173930547352
31
0
0
LINE
5
104
100
AcDbEntity
8
0
100
AcDbLine
10
-344.9322094792492
20
272.1173930547352
30
0
11
-332.92787480967951
21
272.1173930547352
31
0
0
LINE
5
105
100
AcDbEntity
8
0
100
AcDbLine
10
-332.92787480967951
20
272.1173930547352
30
0
11
-332.92787480967957
21
232.11739305473515
31
0
0
SPLINE
5
106
100
AcDbEntity
8
0
100
AcDbSpline
70
4
71
5
72
51
73
45
74
0
42
0.000000001
43
0.0000000001
44
0.0000000001
40
-1
40
-1
40
-1
40
-1
40
-1
40
-1
40
-0.97500000000000053
40
-0.95000000000000051
40
-0.92500000000000049
40
-0.90000000000000047
40
-0.87500000000000044
40
-0.85000000000000042
40
-0.8250000000000004
40
-0.80000000000000038
40
-0.77500000000000036
40
-0.75000000000000033
40
-0.72500000000000031
40
-0.70000000000000029
40
-0.67500000000000027
40
-0.65000000000000024
40
-0.62500000000000022
40
-0.6000000000000002
40
-0.57500000000000018
40
-0.55000000000000016
40
-0.52500000000000013
40
-0.50000000000000011
40
-0.47500000000000014
40
-0.45000000000000012
40
-0.4250000000000001
40
-0.40000000000000008
40
-0.37500000000000006
40
-0.35000000000000003
40
-0.32500000000000001
40
-0.29999999999999999
40
-0.27499999999999997
40
-0.24999999999999997
40
-0.22499999999999998
40
-0.19999999999999998
40
-0.17499999999999999
40
-0.14999999999999999
40
-0.125
40
-0.10000000000000001
40
-0.075000000000000011
40
-0.050000000000000003
40
-0.025000000000000001
40
0
40
0
40
0
40
0
40
0
40
0
41
1
41
1
41
1
41
1
41
1
41
1
41
1
41
1
41
1
41
1
41
1
41
1
41
1
41
1
41
1
41
1
41
1
41
1
41
1
41
1
41
1
41
1
41
1
41
1
41
1
41
1
41
1
41
1
41
1
41
1
41
1
41
1
41
1
41
1
41
1
41
1
41
1
41
1
41
1
41
1
41
1
41
1
41
1
41
1
41
1
10
-332.92787480967957
20
232.11739305473517
30
0
10
-331.34158685587875
20
232.10323773633894
30
0
10
-328.19742004068951
20
232.09947637448715
30
0
10
-323.56639747527998
20
232.16748052114633
30
0
10
-317.56181939438056
20
232.39466523510717
30
0
10
-310.33657902665527
20
232.84495905583941
30
0
10
-303.38592180181894
20
233.38599234002405
30
0
10
-296.70061848509295
20
233.94697991022426
30
0
10
-290.26719564564803
20
234.48260669789434
30
0
10
-284.06794697366047
20
234.99027044700227
30
0
10
-278.07856936234498
20
235.53615373743321
30
0
10
-272.27562695825645
20
236.24463241268856
30
0
10
-266.64977267175749
20
237.26491932450648
30
0
10
-261.21810775790925
20
238.74372752313019
30
0
10
-256.03513896087497
20
240.79753157996993
30
0
10
-251.20890756751419
20
243.47987206826639
30
0
10
-246.90026541156914
20
246.76730625813533
30
0
10
-243.28918677629329
20
250.58337805766308
30
0
10
-240.54712825376919
20
254.81463245767887
30
0
10
-238.80921892500567
20
259.32859783617431
30
0
10
-238.14060048206144
20
263.99330739243521
30
0
10
-238.53470864419504
20
268.68278153114665
30
0
10
-239.92659147413781
20
273.27471049626723
30
0
10
-242.20238645517111
20
277.65143091939979
30
0
10
-245.20719176771939
20
281.69770236267817
30
0
10
-248.7645734883406
20
285.30700012280488
30
0
10
-252.71038520892009
20
288.39649868469104
30
0
10
-256.92236877605967
20
290.91978686259279
30
0
10
-261.35234990818816
20
292.88090235809796
30
0
10
-266.05565288325164
20
294.34745601115424
30
0
10
-271.12654154934785
20
295.42565669985731
30
0
10
-276.6295777001377
20
296.23502461927245
30
0
10
-282.54290504001966
20
296.88509424288941
30
0
10
-288.6718026466578
20
297.44717764355352
30
0
10
-294.64669176564303
20
297.94072178696297
30
0
10
-300.10079713880612
20
298.35824329188665
30
0
10
-304.88880259911616
20
298.68895133939333
30
0
10
-309.13788380235576
20
298.93123658980051
30
0
10
-313.74566801489902
20
299.13847665625389
30
0
10
-319.13554117264073
20
299.33301793132495
30
0
10
-325.28372318315178
20
299.50661528588444
30
0
10
-330.62968250286985
20
299.61228448565726
30
0
10
-334.75297102501082
20
299.66254077979039
30
0
10
-337.53257264066042
20
299.68161672403949
30
0
10
-338.93004214446427
20
299.68754627740498
30
0
0
CIRCLE
5
107
100
AcDbEntity
8
0
100
AcDbCircle
10
-116.69302087638266
20
261.51455835454556
30
0
40
3.0499999999999972
210
0
220
0
230
1
0
SPLINE
5
108
100
AcDbEntity
8
0
100
AcDbSpline
70
4
71
5
72
78
73
72
74
0
42
0.000000001
43
0.0000000001
44
0.0000000001
40
0.040688213867998618
40
0.040688213867998618
40
0.040688213867998618
40
0.040688213867998618
40
0.040688213867998618
40
0.040688213867998618
40
0.048000000000000001
40
0.056000000000000001
40
0.064000000000000001
40
0.072000000000000008
40
0.080000000000000016
40
0.088000000000000023
40
0.09600000000000003
40
0.10400000000000004
40
0.11200000000000004
40
0.12000000000000005
40
0.12800000000000006
40
0.13600000000000007
40
0.14400000000000007
40
0.15200000000000008
40
0.16000000000000009
40
0.16800000000000009
40
0.1760000000000001
40
0.18400000000000011
40
0.19200000000000012
40
0.20000000000000012
40
0.20800000000000013
40
0.21600000000000014
40
0.22400000000000014
40
0.23200000000000015
40
0.24000000000000016
40
0.24800000000000016
40
0.25600000000000017
40
0.26400000000000018
40
0.27200000000000019
40
0.28000000000000019
40
0.2880000000000002
40
0.29600000000000021
40
0.30400000000000021
40
0.31200000000000022
40
0.32000000000000023
40
0.32800000000000024
40
0.33600000000000024
40
0.34400000000000025
40
0.35200000000000026
40
0.36000000000000026
40
0.36800000000000027
40
0.37600000000000028
40
0.38400000000000029
40
0.39200000000000029
40
0.4000000000000003
40
0.40800000000000031
40
0.41600000000000031
40
0.42400000000000032
40
0.43200000000000033
40
0.44000000000000034
40
0.44800000000000034
40
0.45600000000000035
40
0.46400000000000036
40
0.47200000000000036
40
0.48000000000000037
40
0.48800000000000038
40
0.49600000000000039
40
0.50400000000000034
40
0.51200000000000034
40
0.52000000000000035
40
0.52800000000000036
40
0.53600000000000037
40
0.54400000000000037
40
0.55200000000000038
40
0.56000000000000039
40
0.56800000000000039
40
0.56935741635976311
40
0.56935741635976311
40
0.56935741635976311
40
0.56935741635976311
40
0.56935741635976311
40
0.56935741635976311
41
1
41
1
41
1
41
1
41
1
41
1
41
1
41
1
41
1
41
1
41
1
41
1
41
1
41
1
41
1
41
1
41
1
41
1
41
1
41
1
41
1
41
1
41
1
41
1
41
1
41
1
41
1
41
1
41
1
41
1
41
1
41
1
41
1
41
1
41
1
41
1
41
1
41
1
41
1
41
1
41
1
41
1
41
1
41
1
41
1
41
1
41
1
41
1
41
1
41
1
41
1
41
1
41
1
41
1
41
1
41
1
41
1
41
1
41
1
41
1
41
1
41
1
41
1
41
1
41
1
41
1
41
1
41
1
41
1
41
1
41
1
41
1
10
-116.69302087663974
20
271.24890503686828
30
0
10
-117.09913322488396
20
271.23454300135018
30
0
10
-117.94536230060936
20
271.15408161458168
30
0
10
-119.18239457858806
20
270.87301272335446
30
0
10
-120.58178904741669
20
270.20222477169295
30
0
10
-121.71887677043038
20
269.06161261586203
30
0
10
-122.50718627284073
20
267.9239815108192
30
0
10
-123.37979617668161
20
267.13270050287957
30
0
10
-124.68863773847501
20
266.86941782255997
30
0
10
-126.41958432232364
20
267.05100581792897
30
0
10
-128.3714439455139
20
267.46446855116011
30
0
10
-130.29763740775704
20
267.87707280590155
30
0
10
-132.09567249843658
20
268.1826617772702
30
0
10
-133.83075082634375
20
268.41657039560511
30
0
10
-135.63915133482078
20
268.67399502134168
30
0
10
-137.67180727265927
20
269.06124397137933
30
0
10
-140.00892551539815
20
269.62215536172272
30
0
10
-142.65423640198193
20
270.33635551388852
30
0
10
-145.55935057515916
20
271.14530263409682
30
0
10
-148.63867422441214
20
271.96942771577005
30
0
10
-151.78842705234288
20
272.72949824582292
30
0
10
-154.90339985203988
20
273.36489734860822
30
0
10
-157.89597557349674
20
273.85657485139041
30
0
10
-160.70235531392339
20
274.21828144812372
30
0
10
-163.28622686064267
20
274.48199469242394
30
0
10
-165.64383556218249
20
274.68510849084572
30
0
10
-167.80732448414517
20
274.85744618975366
30
0
10
-169.8515892837024
20
275.00701043860022
30
0
10
-171.89127307101981
20
275.11038940858128
30
0
10
-174.04307587030326
20
275.12170022648064
30
0
10
-176.39129248020058
20
274.97852321692369
30
0
10
-178.95646259541462
20
274.60927956931874
30
0
10
-181.6517731144811
20
273.93931538425386
30
0
10
-184.29943686182497
20
272.90082868166814
30
0
10
-186.67808604563714
20
271.44428836283157
30
0
10
-188.56150486497216
20
269.54993058654361
30
0
10
-189.75864036520647
20
267.23807316515894
30
0
10
-190.15860143970139
20
264.58273349190193
30
0
10
-189.75590793152892
20
261.7149648368204
30
0
10
-188.61793551600016
20
258.79702396573708
30
0
10
-186.86330021311835
20
256.00221970770292
30
0
10
-184.63532206307659
20
253.49179594087047
30
0
10
-182.0790154697732
20
251.39474399682928
30
0
10
-179.31314503329565
20
249.78230375653683
30
0
10
-176.41598239829662
20
248.65840528918284
30
0
10
-173.43646217877085
20
247.98020057032969
30
0
10
-170.39983464535487
20
247.67203410189956
30
0
10
-167.31552567363298
20
247.64207489246755
30
0
10
-164.18400950557495
20
247.79768549094825
30
0
10
-161.00418656674185
20
248.06160651727143
30
0
10
-157.78030100326879
20
248.38701919848859
30
0
10
-154.52218324616808
20
248.751318341071
30
0
10
-151.24574543056917
20
249.15068458329563
30
0
10
-147.97334084852605
20
249.59435706630825
30
0
10
-144.73428650427167
20
250.09906249094047
30
0
10
-141.56507996598893
20
250.68332772518633
30
0
10
-138.51032586895687
20
251.36197697178761
30
0
10
-135.62152919109843
20
252.14002110827184
30
0
10
-132.95073489862568
20
253.00347531470874
30
0
10
-130.54479368887701
20
253.91230015499386
30
0
10
-128.44011266568566
20
254.7892390479208
30
0
10
-126.6555060429379
20
255.51788020138278
30
0
10
-125.18997988565295
20
255.9180687466889
30
0
10
-124.0020287403695
20
255.81681703782971
30
0
10
-122.99177733180392
20
255.14894437413972
30
0
10
-121.95951342072371
20
254.08735643926747
30
0
10
-120.67960528223546
20
252.97356503768472
30
0
10
-119.28794816888526
20
252.29652753441633
30
0
10
-118.07346172055553
20
252.03993980452015
30
0
10
-117.21896310909464
20
251.98639511086753
30
0
10
-116.75960493329353
20
251.99128549614647
30
0
10
-116.69302087642555
20
251.99269919085219
30
0
0
SPLINE
5
109
100
AcDbEntity
8
0
100
AcDbSpline
70
4
71
5
72
78
73
72
74
0
42
0.000000001
43
0.0000000001
44
0.0000000001
40
-0.56935741635976311
40
-0.56935741635976311
40
-0.56935741635976311
40
-0.56935741635976311
40
-0.56935741635976311
40
-0.56935741635976311
40
-0.56800000000000039
40
-0.56000000000000039
40
-0.55200000000000038
40
-0.54400000000000037
40
-0.53600000000000037
40
-0.52800000000000036
40
-0.52000000000000035
40
-0.51200000000000034
40
-0.50400000000000034
40
-0.49600000000000039
40
-0.48800000000000038
40
-0.48000000000000037
40
-0.47200000000000036
40
-0.46400000000000036
40
-0.45600000000000035
40
-0.44800000000000034
40
-0.44000000000000034
40
-0.43200000000000033
40
-0.42400000000000032
40
-0.41600000000000031
40
-0.40800000000000031
40
-0.4000000000000003
40
-0.39200000000000029
40
-0.38400000000000029
40
-0.37600000000000028
40
-0.36800000000000027
40
-0.36000000000000026
40
-0.35200000000000026
40
-0.34400000000000025
40
-0.33600000000000024
40
-0.32800000000000024
40
-0.32000000000000023
40
-0.31200000000000022
40
-0.30400000000000021
40
-0.29600000000000021
40
-0.2880000000000002
40
-0.28000000000000019
40
-0.27200000000000019
40
-0.26400000000000018
40
-0.25600000000000017
40
-0.24800000000000016
40
-0.24000000000000016
40
-0.23200000000000015
40
-0.22400000000000014
40
-0.21600000000000014
40
-0.20800000000000013
40
-0.20000000000000012
40
-0.19200000000000012
40
-0.18400000000000011
40
-0.1760000000000001
40
-0.16800000000000009
40
-0.16000000000000009
40
-0.15200000000000008
40
-0.14400000000000007
40
-0.13600000000000007
40
-0.12800000000000006
40
-0.12000000000000005
40
-0.11200000000000004
40
-0.10400000000000004
40
-0.09600000000000003
40
-0.088000000000000023
40
-0.080000000000000016
40
-0.072000000000000008
40
-0.064000000000000001
40
-0.056000000000000001
40
-0.048000000000000001
40
-0.040688213867998618
40
-0.040688213867998618
40
-0.040688213867998618
40
-0.040688213867998618
40
-0.040688213867998618
40
-0.040688213867998618
41
1
41
1
41
1
41
1
41
1
41
1
41
1
41
1
41
1
41
1
41
1
41
1
41
1
41
1
41
1
41
1
41
1
41
1
41
1
41
1
41
1
41
1
41
1
41
1
41
1
41
1
41
1
41
1
41
1
41
1
41
1
41
1
41
1
41
1
41
1
41
1
41
1
41
1
41
1
41
1
41
1
41
1
41
1
41
1
41
1
41
1
41
1
41
1
41
1
41
1
41
1
41
1
41
1
41
1
41
1
41
1
41
1
41
1
41
1
41
1
41
1
41
1
41
1
41
1
41
1
41
1
41
1
41
1
41
1
41
1
41
1
41
1
10
-116.69302087633979
20
251.99269919085219
30
0
10
-116.62643681947181
20
251.99128549614647
30
0
10
-116.16707864367069
20
251.98639511086753
30
0
10
-115.31258003220981
20
252.03993980452015
30
0
10
-114.09809358388006
20
252.29652753441633
30
0
10
-112.70643647052987
20
252.97356503768472
30
0
10
-111.42652833204161
20
254.08735643926747
30
0
10
-110.39426442096142
20
255.14894437413972
30
0
10
-109.38401301239583
20
255.81681703782971
30
0
10
-108.19606186711239
20
255.9180687466889
30
0
10
-106.73053570982744
20
255.51788020138278
30
0
10
-104.94592908707966
20
254.7892390479208
30
0
10
-102.84124806388833
20
253.91230015499386
30
0
10
-100.43530685413967
20
253.00347531470874
30
0
10
-97.764512561666891
20
252.14002110827184
30
0
10
-94.875715883808468
20
251.36197697178761
30
0
10
-91.820961786776408
20
250.68332772518633
30
0
10
-88.651755248493657
20
250.09906249094047
30
0
10
-85.412700904239273
20
249.59435706630825
30
0
10
-82.14029632219615
20
249.15068458329563
30
0
10
-78.863858506597239
20
248.751318341071
30
0
10
-75.605740749496533
20
248.38701919848859
30
0
10
-72.381855186023472
20
248.06160651727143
30
0
10
-69.202032247190388
20
247.79768549094825
30
0
10
-66.070516079132346
20
247.64207489246755
30
0
10
-62.986207107410443
20
247.67203410189956
30
0
10
-59.949579573994463
20
247.98020057032969
30
0
10
-56.97005935446871
20
248.65840528918284
30
0
10
-54.072896719469661
20
249.78230375653683
30
0
10
-51.307026282992148
20
251.39474399682928
30
0
10
-48.750719689688751
20
253.49179594087047
30
0
10
-46.522741539646972
20
256.00221970770292
30
0
10
-44.768106236765171
20
258.79702396573708
30
0
10
-43.630133821236399
20
261.7149648368204
30
0
10
-43.227440313063958
20
264.58273349190193
30
0
10
-43.627401387558855
20
267.23807316515894
30
0
10
-44.824536887793158
20
269.54993058654361
30
0
10
-46.707955707128193
20
271.44428836283157
30
0
10
-49.086604890940357
20
272.90082868166814
30
0
10
-51.734268638284213
20
273.93931538425386
30
0
10
-54.429579157350716
20
274.60927956931874
30
0
10
-56.994749272564746
20
274.97852321692369
30
0
10
-59.342965882462089
20
275.12170022648064
30
0
10
-61.494768681745526
20
275.11038940858128
30
0
10
-63.534452469062934
20
275.00701043860022
30
0
10
-65.578717268620153
20
274.85744618975366
30
0
10
-67.742206190582834
20
274.68510849084572
30
0
10
-70.099814892122652
20
274.48199469242394
30
0
10
-72.683686438841946
20
274.21828144812372
30
0
10
-75.490066179268581
20
273.85657485139041
30
0
10
-78.48264190072544
20
273.36489734860822
30
0
10
-81.59761470042244
20
272.72949824582292
30
0
10
-84.74736752835318
20
271.96942771577005
30
0
10
-87.826691177606165
20
271.14530263409682
30
0
10
-90.731805350783389
20
270.33635551388852
30
0
10
-93.377116237367176
20
269.62215536172272
30
0
10
-95.714234480106057
20
269.06124397137933
30
0
10
-97.74689041794457
20
268.67399502134168
30
0
10
-99.555290926421591
20
268.41657039560511
30
0
10
-101.29036925432874
20
268.1826617772702
30
0
10
-103.08840434500829
20
267.87707280590155
30
0
10
-105.01459780725142
20
267.46446855116011
30
0
10
-106.96645743044169
20
267.05100581792897
30
0
10
-108.69740401429033
20
266.86941782255997
30
0
10
-110.00624557608373
20
267.13270050287957
30
0
10
-110.8788554799246
20
267.9239815108192
30
0
10
-111.66716498233495
20
269.06161261586203
30
0
10
-112.80425270534863
20
270.20222477169295
30
0
10
-114.20364717417726
20
270.87301272335446
30
0
10
-115.44067945215596
20
271.15408161458168
30
0
10
-116.28690852788138
20
271.23454300135018
30
0
10
-116.69302087612559
20
271.24890503686828
30
0
0
LINE
5
110
100
AcDbEntity
8
0
100
AcDbLine
10
250.14722869094589
20
307.85636034995593
30
0
11
222.10146778913114
21
307.85636034995593
31
0
0
SPLINE
5
111
100
AcDbEntity
8
0
100
AcDbSpline
70
4
71
5
72
29
73
23
74
0
42
0.000000001
43
0.0000000001
44
0.0000000001
40
0
40
0
40
0
40
0
40
0
40
0
40
0.028571428571428571
40
0.057142857142857141
40
0.085714285714285715
40
0.11428571428571428
40
0.14285714285714285
40
0.17142857142857143
40
0.20000000000000001
40
0.22857142857142859
40
0.25714285714285717
40
0.28571428571428575
40
0.31428571428571433
40
0.34285714285714292
40
0.3714285714285715
40
0.40000000000000008
40
0.42857142857142866
40
0.45714285714285724
40
0.48571428571428582
40
0.50800446069558614
40
0.50800446069558614
40
0.50800446069558614
40
0.50800446069558614
40
0.50800446069558614
40
0.50800446069558614
41
1
41
1
41
1
41
1
41
1
41
1
41
1
41
1
41
1
41
1
41
1
41
1
41
1
41
1
41
1
41
1
41
1
41
1
41
1
41
1
41
1
41
1
41
1
10
222.10146778913114
20
307.85636034995593
30
0
10
221.26086228206273
20
307.49522013603064
30
0
10
219.57156253289776
20
306.78194940960293
30
0
10
217.01334596769769
20
305.73907300642298
30
0
10
213.55379850235397
20
304.4026973608714
30
0
10
209.14841826678872
20
302.82204396312522
30
0
10
204.6629877530043
20
301.32920002978898
30
0
10
200.09958853319426
20
299.91975686918403
30
0
10
195.46263320750529
20
298.58546021103467
30
0
10
190.75731564708619
20
297.31491880764975
30
0
10
185.98493681208981
20
296.09697305678469
30
0
10
181.13855449157137
20
294.92352998844865
30
0
10
176.19945574703155
20
293.79230765301207
30
0
10
171.13075906199796
20
292.71042584054999
30
0
10
165.88476587266166
20
291.69363124060436
30
0
10
160.41682059429797
20
290.76334268486295
30
0
10
154.69776544330423
20
289.94437284192327
30
0
10
148.72568572951113
20
289.262464828661
30
0
10
142.81336867490671
20
288.76460376661083
30
0
10
138.04826172112593
20
288.50070782484488
30
0
10
134.53402510895728
20
288.38281339638746
30
0
10
132.29035713265569
20
288.33975193324852
30
0
10
131.30916341968293
20
288.32719301003596
30
0
0
SPLINE
5
112
100
AcDbEntity
8
0
100
AcDbSpline
70
4
71
5
72
29
73
23
74
0
42
0.000000001
43
0.0000000001
44
0.0000000001
40
-0.50800446069558614
40
-0.50800446069558614
40
-0.50800446069558614
40
-0.50800446069558614
40
-0.50800446069558614
40
-0.50800446069558614
40
-0.48571428571428582
40
-0.45714285714285724
40
-0.42857142857142866
40
-0.40000000000000008
40
-0.3714285714285715
40
-0.34285714285714292
40
-0.31428571428571433
40
-0.28571428571428575
40
-0.25714285714285717
40
-0.22857142857142859
40
-0.20000000000000001
40
-0.17142857142857143
40
-0.14285714285714285
40
-0.11428571428571428
40
-0.085714285714285715
40
-0.057142857142857141
40
-0.028571428571428571
40
0
40
0
40
0
40
0
40
0
40
0
41
1
41
1
41
1
41
1
41
1
41
1
41
1
41
1
41
1
41
1
41
1
41
1
41
1
41
1
41
1
41
1
41
1
41
1
41
1
41
1
41
1
41
1
41
1
10
131.3091634199267
20
288.32719301003596
30
0
10
130.32796970695395
20
288.33975193324852
30
0
10
128.08430173065236
20
288.38281339638746
30
0
10
124.57006511848374
20
288.50070782484488
30
0
10
119.80495816470292
20
288.76460376661083
30
0
10
113.89264111009852
20
289.262464828661
30
0
10
107.9205613963054
20
289.94437284192327
30
0
10
102.20150624531166
20
290.76334268486295
30
0
10
96.733560966948019
20
291.69363124060436
30
0
10
91.487567777611702
20
292.71042584054999
30
0
10
86.418871092578087
20
293.79230765301207
30
0
10
81.47977234803831
20
294.92352998844865
30
0
10
76.633390027519809
20
296.09697305678469
30
0
10
71.861011192523449
20
297.31491880764975
30
0
10
67.155693632104345
20
298.58546021103467
30
0
10
62.518738306415386
20
299.91975686918403
30
0
10
57.955339086605342
20
301.32920002978898
30
0
10
53.469908572820927
20
302.82204396312522
30
0
10
49.064528337255673
20
304.4026973608714
30
0
10
45.604980871911977
20
305.73907300642298
30
0
10
43.0467643067119
20
306.78194940960293
30
0
10
41.357464557546926
20
307.49522013603064
30
0
10
40.516859050478487
20
307.85636034995593
30
0
0
LINE
5
113
100
AcDbEntity
8
0
100
AcDbLine
10
40.516859050478502
20
307.85636034995588
30
0
11
12.4710981486637
21
307.85636034995593
31
0
0
LINE
5
114
100
AcDbEntity
8
0
100
AcDbLine
10
12.4710981486637
20
307.85636034995593
30
0
11
12.4710981486637
21
287.85636034995593
31
0
0
LINE
5
115
100
AcDbEntity
8
0
100
AcDbLine
10
12.4710981486637
20
287.85636034995593
30
0
11
32.4710981486637
21
287.85636034995593
31
0
0
LINE
5
116
100
AcDbEntity
8
0
100
AcDbLine
10
32.4710981486637
20
287.85636034995593
30
0
11
32.4710981486637
21
270.44358951028835
31
0
0
SPLINE
5
117
100
AcDbEntity
8
0
100
AcDbSpline
70
4
71
5
72
31
73
25
74
0
42
0.000000001
43
0.0000000001
44
0.0000000001
40
-1
40
-1
40
-1
40
-1
40
-1
40
-1
40
-0.95000000000000029
40
-0.90000000000000024
40
-0.8500000000000002
40
-0.80000000000000016
40
-0.75000000000000011
40
-0.70000000000000007
40
-0.65000000000000002
40
-0.59999999999999998
40
-0.54999999999999993
40
-0.49999999999999994
40
-0.44999999999999996
40
-0.39999999999999997
40
-0.34999999999999998
40
-0.29999999999999999
40
-0.25
40
-0.20000000000000001
40
-0.15000000000000002
40
-0.10000000000000001
40
-0.050000000000000003
40
0
40
0
40
0
40
0
40
0
40
0
41
1
41
1
41
1
41
1
41
1
41
1
41
1
41
1
41
1
41
1
41
1
41
1
41
1
41
1
41
1
41
1
41
1
41
1
41
1
41
1
41
1
41
1
41
1
41
1
41
1
10
32.471098148663714
20
270.44358951028835
30
0
10
33.283791795059358
20
269.85798416093934
30
0
10
34.909287063584571
20
268.70299326448912
30
0
10
37.347854005358059
20
267.01916702675334
30
0
10
40.599926335523257
20
264.87177667880718
30
0
10
44.66639827647132
20
262.35068755639304
30
0
10
48.735105646417196
20
259.98939641638532
30
0
10
52.807776767818268
20
257.77813719032122
30
0
10
56.887223326568432
20
255.69691705697235
30
0
10
60.9778923274216
20
253.7138633440432
30
0
10
65.087723503519157
20
251.79389494393956
30
0
10
69.230054475073587
20
249.90628882085335
30
0
10
73.425178310856325
20
248.03171167133502
30
0
10
77.703092804268664
20
246.17186170052048
30
0
10
82.101497330960754
20
244.34802248468196
30
0
10
86.660702867455157
20
242.59230861983963
30
0
10
91.419213377261968
20
240.94103090417261
30
0
10
96.409289027434369
20
239.42774581252473
30
0
10
101.65111489325625
20
238.07499295663627
30
0
10
107.15437799601469
20
236.89500247882762
30
0
10
112.92202089017289
20
235.89319476687984
30
0
10
117.746701801778
20
235.23499136761762
30
0
10
121.48250530345918
20
234.82138145840767
30
0
10
124.02495784709726
20
234.58106995292906
30
0
10
125.30916341980483
20
234.46977139522332
30
0
0
LINE
5
118
100
AcDbEntity
8
0
100
AcDbLine
10
125.30916341980483
20
234.46977139522332
30
0
11
125.30916341980483
21
269.46977139522335
31
0
0
LINE
5
119
100
AcDbEntity
8
0
100
AcDbLine
10
125.30916341980483
20
269.46977139522335
30
0
11
137.30916341844036
21
269.46977139471164
31
0
0
LINE
5
120
100
AcDbEntity
8
0
100
AcDbLine
10
137.30916341844036
20
269.46977139471164
30
0
11
137.30916341844036
21
234.46977139471161
31
0
0
SPLINE
5
121
100
AcDbEntity
8
0
100
AcDbSpline
70
4
71
5
72
31
73
25
74
0
42
0.000000001
43
0.0000000001
44
0.0000000001
40
0
40
0
40
0
40
0
40
0
40
0
40
0.050000000000000003
40
0.10000000000000001
40
0.15000000000000002
40
0.20000000000000001
40
0.25
40
0.29999999999999999
40
0.34999999999999998
40
0.39999999999999997
40
0.44999999999999996
40
0.49999999999999994
40
0.54999999999999993
40
0.59999999999999998
40
0.65000000000000002
40
0.70000000000000007
40
0.75000000000000011
40
0.80000000000000016
40
0.8500000000000002
40
0.90000000000000024
40
0.95000000000000029
40
1
40
1
40
1
40
1
40
1
40
1
41
1
41
1
41
1
41
1
41
1
41
1
41
1
41
1
41
1
41
1
41
1
41
1
41
1
41
1
41
1
41
1
41
1
41
1
41
1
41
1
41
1
41
1
41
1
41
1
41
1
10
137.30916341844036
20
234.46977139471161
30
0
10
138.59336899118452
20
234.58106995242051
30
0
10
141.13582153489784
20
234.82138145790927
30
0
10
144.87162503669816
20
235.23499136714619
30
0
10
149.6963059484639
20
235.89319476646284
30
0
10
155.46394884280733
20
236.89500247849423
30
0
10
160.96721194572586
20
238.07499295638817
30
0
10
166.20903781167655
20
239.42774581235258
30
0
10
171.19911346194647
20
240.94103090405542
30
0
10
175.95762397182108
20
242.59230861975203
30
0
10
180.51682950835806
20
244.34802248460119
30
0
10
184.91523403507443
20
246.17186170043112
30
0
10
189.19314852850255
20
248.03171167123122
30
0
10
193.38827236430038
20
249.90628882074077
30
0
10
197.5306033358747
20
251.79389494382764
30
0
10
201.64043451199763
20
253.71386334394231
30
0
10
205.73110351288165
20
255.69691705688851
30
0
10
209.81055007166543
20
257.77813719025494
30
0
10
213.88322119309925
20
259.98939641633376
30
0
10
217.9519285630742
20
262.3506875563524
30
0
10
222.01840050404567
20
264.871776678777
30
0
10
225.2704728342257
20
267.0191670267331
30
0
10
227.70903977601108
20
268.70299326447844
30
0
10
229.33453504454531
20
269.85798416093576
30
0
10
230.14722869094589
20
270.44358951028835
30
0
0
LINE
5
122
100
AcDbEntity
8
0
100
AcDbLine
10
230.14722869094595
20
270.44358951028835
30
0
11
230.14722869094589
21
287.85636034995593
31
0
0
LINE
5
123
100
AcDbEntity
8
0
100
AcDbLine
10
230.14722869094589
20
287.85636034995593
30
0
11
250.14722869094589
21
287.85636034995593
31
0
0
LINE
5
124
100
AcDbEntity
8
0
100
AcDbLine
10
250.14722869094589
20
287.85636034995593
30
0
11
250.14722869094589
21
307.85636034995593
31
0
0
SPLINE
5
125
100
AcDbEntity
8
0
100
AcDbSpline
70
4
71
5
72
51
73
45
74
0
42
0.000000001
43
0.0000000001
44
0.0000000001
40
0
40
0
40
0
40
0
40
0
40
0
40
0.025000000000000001
40
0.050000000000000003
40
0.075000000000000011
40
0.10000000000000001
40
0.125
40
0.14999999999999999
40
0.17499999999999999
40
0.19999999999999998
40
0.22499999999999998
40
0.24999999999999997
40
0.27499999999999997
40
0.29999999999999999
40
0.32500000000000001
40
0.35000000000000003
40
0.37500000000000006
40
0.40000000000000008
40
0.4250000000000001
40
0.45000000000000012
40
0.47500000000000014
40
0.50000000000000011
40
0.52500000000000013
40
0.55000000000000016
40
0.57500000000000018
40
0.6000000000000002
40
0.62500000000000022
40
0.65000000000000024
40
0.67500000000000027
40
0.70000000000000029
40
0.72500000000000031
40
0.75000000000000033
40
0.77500000000000036
40
0.80000000000000038
40
0.8250000000000004
40
0.85000000000000042
40
0.87500000000000044
40
0.90000000000000047
40
0.92500000000000049
40
0.95000000000000051
40
0.97500000000000053
40
1
40
1
40
1
40
1
40
1
40
1
41
1
41
1
41
1
41
1
41
1
41
1
41
1
41
1
41
1
41
1
41
1
41
1
41
1
41
1
41
1
41
1
41
1
41
1
41
1
41
1
41
1
41
1
41
1
41
1
41
1
41
1
41
1
41
1
41
1
41
1
41
1
41
1
41
1
41
1
41
1
41
1
41
1
41
1
41
1
41
1
41
1
41
1
41
1
41
1
41
1
10
529.01160626757326
20
336.14055794025899
30
0
10
526.30131267588433
20
335.37993752309143
30
0
10
520.86769480878479
20
333.91712931127711
30
0
10
512.67817600779222
20
331.89821453364198
30
0
10
501.68055353561874
20
329.55728303603667
30
0
10
487.80680482785397
20
327.21168705665355
30
0
10
473.8183010064725
20
325.43002505196841
30
0
10
459.73963306578474
20
324.17615304792088
30
0
10
445.61239296530351
20
323.38741658183238
30
0
10
431.49971646465497
20
322.96679638985177
30
0
10
417.49061860174521
20
322.77704159545243
30
0
10
403.70426891670661
20
322.64671003186953
30
0
10
390.29343902990342
20
322.3750654478448
30
0
10
377.45029147444649
20
321.73654405448906
30
0
10
365.4069641387656
20
320.4869815968525
30
0
10
354.44937903889132
20
318.36482617544345
30
0
10
344.87873974101137
20
315.11214105789043
30
0
10
336.918725758307
20
310.51434782819962
30
0
10
330.65120567233492
20
304.43259669100888
30
0
10
325.90864359083503
20
296.8447625673524
30
0
10
322.29251999303551
20
287.86560335470926
30
0
10
319.4148267554832
20
277.73694797357007
30
0
10
317.06663292896519
20
266.82146346007903
30
0
10
315.46482647665448
20
255.60402348832514
30
0
10
315.30760948050522
20
244.66260737076962
30
0
10
317.45034663179388
20
234.57145972633163
30
0
10
322.66321608664452
20
225.81940106830069
30
0
10
331.35091580116011
20
218.72003228668126
30
0
10
343.30134249514003
20
213.32949426346988
30
0
10
357.86684175367066
20
209.51188743132849
30
0
10
374.13079261147607
20
206.99916377211079
30
0
10
391.07873072666229
20
205.45254980106353
30
0
10
407.76523334707298
20
204.52235833642868
30
0
10
423.48627951980779
20
203.90943051480204
30
0
10
437.93973977272486
20
203.42273978847754
30
0
10
451.12182721968907
20
202.95532134382074
30
0
10
463.23712523620458
20
202.46416563484615
30
0
10
474.6015695635175
20
201.94833319630993
30
0
10
485.55595761757399
20
201.42935092247399
30
0
10
496.35822547981911
20
200.92749145476768
30
0
10
507.155680454302
20
200.45348172253253
30
0
10
515.85046383603458
20
200.1011579137737
30
0
10
522.41436081531674
20
199.85278522055688
30
0
10
526.80935008590438
20
199.69425941352299
30
0
10
529.01160626757326
20
199.61675994372791
30
0
0
LINE
5
126
100
AcDbEntity
8
0
100
AcDbLine
10
529.01160626757314
20
199.61675994372791
30
0
11
713.24762109586004
21
199.61675994372791
31
0
0
SPLINE
5
127
100
AcDbEntity
8
0
100
AcDbSpline
70
4
71
5
72
51
73
45
74
0
42
0.000000001
43
0.0000000001
44
0.0000000001
40
-1
40
-1
40
-1
40
-1
40
-1
40
-1
40
-0.97500000000000053
40
-0.95000000000000051
40
-0.92500000000000049
40
-0.90000000000000047
40
-0.87500000000000044
40
-0.85000000000000042
40
-0.8250000000000004
40
-0.80000000000000038
40
-0.77500000000000036
40
-0.75000000000000033
40
-0.72500000000000031
40
-0.70000000000000029
40
-0.67500000000000027
40
-0.65000000000000024
40
-0.62500000000000022
40
-0.6000000000000002
40
-0.57500000000000018
40
-0.55000000000000016
40
-0.52500000000000013
40
-0.50000000000000011
40
-0.47500000000000014
40
-0.45000000000000012
40
-0.4250000000000001
40
-0.40000000000000008
40
-0.37500000000000006
40
-0.35000000000000003
40
-0.32500000000000001
40
-0.29999999999999999
40
-0.27499999999999997
40
-0.24999999999999997
40
-0.22499999999999998
40
-0.19999999999999998
40
-0.17499999999999999
40
-0.14999999999999999
40
-0.125
40
-0.10000000000000001
40
-0.075000000000000011
40
-0.050000000000000003
40
-0.025000000000000001
40
0
40
0
40
0
40
0
40
0
40
0
41
1
41
1
41
1
41
1
41
1
41
1
41
1
41
1
41
1
41
1
41
1
41
1
41
1
41
1
41
1
41
1
41
1
41
1
41
1
41
1
41
1
41
1
41
1
41
1
41
1
41
1
41
1
41
1
41
1
41
1
41
1
41
1
41
1
41
1
41
1
41
1
41
1
41
1
41
1
41
1
41
1
41
1
41
1
41
1
41
1
10
713.24762109586004
20
199.61675994372791
30
0
10
715.44987727752891
20
199.69425941352299
30
0
10
719.84486654811667
20
199.85278522055688
30
0
10
726.40876352739883
20
200.1011579137737
30
0
10
735.1035469091313
20
200.45348172253253
30
0
10
745.90100188361419
20
200.92749145476768
30
0
10
756.7032697458593
20
201.42935092247399
30
0
10
767.6576577999158
20
201.94833319630993
30
0
10
779.02210212722878
20
202.46416563484615
30
0
10
791.13740014374434
20
202.95532134382074
30
0
10
804.31948759070849
20
203.42273978847754
30
0
10
818.77294784362562
20
203.90943051480204
30
0
10
834.49399401636038
20
204.52235833642868
30
0
10
851.18049663677107
20
205.45254980106353
30
0
10
868.12843475195734
20
206.99916377211079
30
0
10
884.39238560976264
20
209.51188743132849
30
0
10
898.95788486829338
20
213.32949426346988
30
0
10
910.90831156227318
20
218.72003228668126
30
0
10
919.59601127678877
20
225.81940106830069
30
0
10
924.80888073163953
20
234.57145972633163
30
0
10
926.95161788292808
20
244.66260737076962
30
0
10
926.79440088677893
20
255.60402348832514
30
0
10
925.19259443446811
20
266.82146346007903
30
0
10
922.84440060795021
20
277.73694797357007
30
0
10
919.96670737039778
20
287.86560335470926
30
0
10
916.35058377259838
20
296.8447625673524
30
0
10
911.60802169109843
20
304.43259669100888
30
0
10
905.34050160512629
20
310.51434782819962
30
0
10
897.38048762242204
20
315.11214105789043
30
0
10
887.80984832454214
20
318.36482617544345
30
0
10
876.85226322466769
20
320.4869815968525
30
0
10
864.80893588898675
20
321.73654405448906
30
0
10
851.96578833352987
20
322.3750654478448
30
0
10
838.55495844672669
20
322.64671003186953
30
0
10
824.76860876168814
20
322.77704159545243
30
0
10
810.75951089877833
20
322.96679638985177
30
0
10
796.64683439812984
20
323.38741658183238
30
0
10
782.51959429764861
20
324.17615304792088
30
0
10
768.44092635696086
20
325.43002505196841
30
0
10
754.45242253557933
20
327.21168705665355
30
0
10
740.57867382781467
20
329.55728303603667
30
0
10
729.58105135564108
20
331.89821453364198
30
0
10
721.39153255464862
20
333.91712931127711
30
0
10
715.95791468754896
20
335.37993752309143
30
0
10
713.24762109586004
20
336.14055794025899
30
0
0
LINE
5
128
100
AcDbEntity
8
0
100
AcDbLine
10
713.24762109586004
20
336.1405579402591
30
0
11
529.01160626757326
21
336.14055794025899
31
0
0
CIRCLE
5
129
100
AcDbEntity
8
0
100
AcDbCircle
10
-223.59857916893907
20
-148.78445279056368
30
0
40
3.0499999999999972
210
0
220
0
230
1
0
CIRCLE
5
130
100
AcDbEntity
8
0
100
AcDbCircle
10
-223.59857916893907
20
-148.78445279056368
30
0
40
60
210
0
220
-0
230
1
0
ENDSEC
0
SECTION
2
OBJECTS
0
DICTIONARY
5
C
100
AcDbDictionary
3
ACAD_GROUP
350
D
3
ACAD_MLINESTYLE
350
17
0
DICTIONARY
5
D
100
AcDbDictionary
0
DICTIONARY
5
1A
330
C
100
AcDbDictionary
0
DICTIONARY
5
17
100
AcDbDictionary
0
ENDSEC
0
EOF
