0
SECTION
2
HEADER
9
$INSUNITS
70
4
9
$ACADVER
1
AC1014
9
$HANDSEED
5
FFFF
0
ENDSEC
0
SECTION
2
TABLES
0
TABLE
2
VPORT
5
8
100
AcDbSymbolTable
0
ENDTAB
0
TABLE
2
LTYPE
5
5
100
AcDbSymbolTable
0
LTYPE
5
14
100
AcDbSymbolTableRecord
100
AcDbLinetypeTableRecord
2
BYBLOCK
70
0
0
LTYPE
5
15
100
AcDbSymbolTableRecord
100
AcDbLinetypeTableRecord
2
BYLAYER
70
0
0
ENDTAB
0
TABLE
2
LAYER
5
2
100
AcDbSymbolTable
70
2
0
LAYER
5
50
100
AcDbSymbolTableRecord
100
AcDbLayerTableRecord
2
0
70
0
6
CONTINUOUS
0
ENDTAB
0
TABLE
2
STYLE
5
3
100
AcDbSymbolTable
70
1
0
STYLE
5
11
100
AcDbSymbolTableRecord
100
AcDbTextStyleTableRecord
2
STANDARD
70
0
0
ENDTAB
0
TABLE
2
VIEW
5
6
100
AcDbSymbolTable
70
0
0
ENDTAB
0
TABLE
2
UCS
5
7
100
AcDbSymbolTable
70
0
0
ENDTAB
0
TABLE
2
APPID
5
9
100
AcDbSymbolTable
70
2
0
APPID
5
12
100
AcDbSymbolTableRecord
100
AcDbRegAppTableRecord
2
ACAD
70
0
0
ENDTAB
0
TABLE
2
DIMSTYLE
5
A
100
AcDbSymbolTable
70
1
0
ENDTAB
0
TABLE
2
BLOCK_RECORD
5
1
100
AcDbSymbolTable
70
1
0
BLOCK_RECORD
5
1F
100
AcDbSymbolTableRecord
100
AcDbBlockTableRecord
2
*MODEL_SPACE
0
BLOCK_RECORD
5
1B
100
AcDbSymbolTableRecord
100
AcDbBlockTableRecord
2
*PAPER_SPACE
0
ENDTAB
0
ENDSEC
0
SECTION
2
BLOCKS
0
BLOCK
5
20
100
AcDbEntity
100
AcDbBlockBegin
2
*MODEL_SPACE
0
ENDBLK
5
21
100
AcDbEntity
100
AcDbBlockEnd
0
BLOCK
5
1C
100
AcDbEntity
100
AcDbBlockBegin
2
*PAPER_SPACE
0
ENDBLK
5
1D
100
AcDbEntity
100
AcDbBlockEnd
0
ENDSEC
0
SECTION
2
ENTITIES
0
SPLINE
5
100
100
AcDbEntity
8
0
100
AcDbSpline
70
6
71
5
72
31
73
25
74
0
42
0.000000001
43
0.0000000001
44
0.0000000001
40
-1
40
-1
40
-1
40
-1
40
-1
40
-1
40
-0.95000000000000029
40
-0.90000000000000024
40
-0.8500000000000002
40
-0.80000000000000016
40
-0.75000000000000011
40
-0.70000000000000007
40
-0.65000000000000002
40
-0.59999999999999998
40
-0.54999999999999993
40
-0.49999999999999994
40
-0.44999999999999996
40
-0.39999999999999997
40
-0.34999999999999998
40
-0.29999999999999999
40
-0.25
40
-0.20000000000000001
40
-0.15000000000000002
40
-0.10000000000000001
40
-0.050000000000000003
40
0
40
0
40
0
40
0
40
0
40
0
41
1
41
1
41
1
41
1
41
1
41
1
41
1
41
1
41
1
41
1
41
1
41
1
41
1
41
1
41
1
41
1
41
1
41
1
41
1
41
1
41
1
41
1
41
1
41
1
41
1
10
-94.011525110752743
20
-85.483074782622197
30
0
10
-95.993600343260908
20
-87.641334480242222
30
0
10
-99.852231660020948
20
-91.513386046746049
30
0
10
-105.6726005731976
20
-96.401354507199699
30
0
10
-116.85923861072807
20
-104.36028794366362
30
0
10
-136.48160615136086
20
-114.88309059245293
30
0
10
-161.26752957080748
20
-123.49468365205658
30
0
10
-188.55719994287196
20
-126.11705469309889
30
0
10
-216.05679938103373
20
-120.80937139949737
30
0
10
-241.89667499834175
20
-108.42973935508331
30
0
10
-264.36796644911857
20
-91.559347714788046
30
0
10
-281.17611476924708
20
-73.750700791253891
30
0
10
-289.7217674556162
20
-58.490263777984204
30
0
10
-285.01687635856109
20
-48.736589432325374
30
0
10
-263.7709659190636
20
-44.98839645132427
30
0
10
-228.49743440079268
20
-45.172118570081217
30
0
10
-184.46686824605058
20
-46.673540222202028
30
0
10
-138.89436081763949
20
-46.879102625080961
30
0
10
-100.18703307633052
20
-45.90092176799827
30
0
10
-74.979276842171686
20
-44.779926788007515
30
0
10
-71.401410913785497
20
-54.306850709466744
30
0
10
-81.189739017488364
20
-69.675648941946207
30
0
10
-87.959780264972082
20
-78.563827861026112
30
0
10
-92.029449878244549
20
-83.324815085002172
30
0
10
-94.011525110752743
20
-85.483074782622197
30
0
0
LWPOLYLINE
5
101
100
AcDbEntity
8
0
100
AcDbPolyline
90
4
70
1
43
0.0
10
-239.29608475831935
20
-2.3458159412380475
10
-102.77208475831934
20
-2.3458159412380297
10
-102.77208475831935
20
-14.345815941238049
10
-239.29608475831935
20
-14.345815941238049
0
SPLINE
5
102
100
AcDbEntity
8
0
100
AcDbSpline
70
4
71
5
72
125
73
119
74
0
42
0.000000001
43
0.0000000001
44
0.0000000001
40
0.24262990764203249
40
0.24262990764203249
40
0.24262990764203249
40
0.24262990764203249
40
0.24262990764203249
40
0.24262990764203249
40
0.24666666666666645
40
0.25333333333333313
40
0.25999999999999979
40
0.26666666666666644
40
0.2733333333333331
40
0.27999999999999975
40
0.2866666666666664
40
0.29333333333333306
40
0.29999999999999971
40
0.30666666666666637
40
0.31333333333333302
40
0.31999999999999967
40
0.32666666666666633
40
0.33333333333333298
40
0.33999999999999964
40
0.34666666666666629
40
0.35333333333333294
40
0.3599999999999996
40
0.36666666666666625
40
0.37333333333333291
40
0.37999999999999956
40
0.38666666666666621
40
0.39333333333333287
40
0.39999999999999952
40
0.40666666666666618
40
0.41333333333333283
40
0.41999999999999948
40
0.42666666666666614
40
0.43333333333333279
40
0.43999999999999945
40
0.4466666666666661
40
0.45333333333333276
40
0.45999999999999941
40
0.46666666666666606
40
0.47333333333333272
40
0.47999999999999937
40
0.48666666666666603
40
0.49333333333333268
40
0.49999999999999933
40
0.50666666666666604
40
0.51333333333333275
40
0.51999999999999946
40
0.52666666666666617
40
0.53333333333333288
40
0.53999999999999959
40
0.5466666666666663
40
0.55333333333333301
40
0.55999999999999972
40
0.56666666666666643
40
0.57333333333333314
40
0.57999999999999985
40
0.58666666666666656
40
0.59333333333333327
40
0.59999999999999998
40
0.60666666666666669
40
0.6133333333333334
40
0.62000000000000011
40
0.62666666666666682
40
0.63333333333333353
40
0.64000000000000024
40
0.64666666666666694
40
0.65333333333333365
40
0.66000000000000036
40
0.66666666666666707
40
0.67333333333333378
40
0.68000000000000049
40
0.6866666666666672
40
0.69333333333333391
40
0.70000000000000062
40
0.70666666666666733
40
0.71333333333333404
40
0.72000000000000075
40
0.72666666666666746
40
0.73333333333333417
40
0.74000000000000088
40
0.74666666666666759
40
0.7533333333333343
40
0.76000000000000101
40
0.76666666666666772
40
0.77333333333333443
40
0.78000000000000114
40
0.78666666666666785
40
0.79333333333333456
40
0.80000000000000127
40
0.80666666666666798
40
0.81333333333333468
40
0.82000000000000139
40
0.8266666666666681
40
0.83333333333333481
40
0.84000000000000152
40
0.84666666666666823
40
0.85333333333333494
40
0.86000000000000165
40
0.86666666666666836
40
0.87333333333333507
40
0.88000000000000178
40
0.88666666666666849
40
0.8933333333333352
40
0.90000000000000191
40
0.90666666666666862
40
0.91333333333333533
40
0.92000000000000204
40
0.92666666666666875
40
0.93333333333333546
40
0.94000000000000217
40
0.94666666666666888
40
0.95333333333333559
40
0.9600000000000023
40
0.96666666666666901
40
0.97333333333333572
40
0.98000000000000242
40
0.98666666666666913
40
0.99333333333333584
40
1
40
1
40
1
40
1
40
1
40
1
41
1
41
1
41
1
41
1
41
1
41
1
41
1
41
1
41
1
41
1
41
1
41
1
41
1
41
1
41
1
41
1
41
1
41
1
41
1
41
1
41
1
41
1
41
1
41
1
41
1
41
1
41
1
41
1
41
1
41
1
41
1
41
1
41
1
41
1
41
1
41
1
41
1
41
1
41
1
41
1
41
1
41
1
41
1
41
1
41
1
41
1
41
1
41
1
41
1
41
1
41
1
41
1
41
1
41
1
41
1
41
1
41
1
41
1
41
1
41
1
41
1
41
1
41
1
41
1
41
1
41
1
41
1
41
1
41
1
41
1
41
1
41
1
41
1
41
1
41
1
41
1
41
1
41
1
41
1
41
1
41
1
41
1
41
1
41
1
41
1
41
1
41
1
41
1
41
1
41
1
41
1
41
1
41
1
41
1
41
1
41
1
41
1
41
1
41
1
41
1
41
1
41
1
41
1
41
1
41
1
41
1
41
1
41
1
41
1
41
1
41
1
41
1
41
1
41
1
41
1
41
1
41
1
41
1
41
1
10
-451.51098873264471
20
-35.219034490552474
30
0
10
-451.35634377865449
20
-36.195908188159351
30
0
10
-450.8998222608227
20
-38.762816149030854
30
0
10
-449.96338707106298
20
-42.810801991543556
30
0
10
-448.25230741266535
20
-48.05001992881926
30
0
10
-445.36322408560522
20
-53.90531615581402
30
0
10
-441.33096570129351
20
-59.178332789062154
30
0
10
-436.32689947564563
20
-63.421588774997218
30
0
10
-430.29407832064805
20
-66.773446638893802
30
0
10
-423.24875789748256
20
-69.40213251630577
30
0
10
-415.32921530552051
20
-71.456497766467905
30
0
10
-406.75635172396176
20
-73.067444357304694
30
0
10
-397.79692884569266
20
-74.348684581857199
30
0
10
-388.72458985652969
20
-75.397486514165777
30
0
10
-379.78473550761271
20
-76.295925935491709
30
0
10
-371.15039796305132
20
-77.11065160205905
30
0
10
-362.91861135447363
20
-77.899430122626498
30
0
10
-355.12808869033313
20
-78.720780794328078
30
0
10
-347.77064699075032
20
-79.643541177068158
30
0
10
-340.80437352567293
20
-80.754487629400984
30
0
10
-334.16809102433058
20
-82.171658755410348
30
0
10
-327.7869038680746
20
-84.035536153236592
30
0
10
-321.56814989099638
20
-86.478344894802291
30
0
10
-315.40066841923368
20
-89.600530923205525
30
0
10
-309.15124879941561
20
-93.441703438225403
30
0
10
-302.66670394722826
20
-97.961759920770305
30
0
10
-295.79782253917068
20
-103.05946879199047
30
0
10
-288.41963392915898
20
-108.58565064884215
30
0
10
-280.45423423033191
20
-114.35850916937206
30
0
10
-271.88995336771779
20
-120.17788591982628
30
0
10
-262.80875989168646
20
-125.84035157339918
30
0
10
-253.36745143178771
20
-131.15157329215833
30
0
10
-243.76360487737233
20
-135.93806274454383
30
0
10
-234.2069102011244
20
-140.05887281242417
30
0
10
-224.88754790160408
20
-143.41789176712862
30
0
10
-215.94748418357472
20
-145.97458174563596
30
0
10
-207.44653776162625
20
-147.75854880816956
30
0
10
-199.34283081803824
20
-148.87284146556792
30
0
10
-191.52802305593485
20
-149.4540130185118
30
0
10
-183.85437121785796
20
-149.63841000678099
30
0
10
-176.16463983176368
20
-149.5267821713698
30
0
10
-168.32156389259151
20
-149.1478376307364
30
0
10
-160.23530210133831
20
-148.42730898058034
30
0
10
-151.86047041847684
20
-147.22996033832089
30
0
10
-143.19515843521182
20
-145.39570873287806
30
0
10
-134.27964082664312
20
-142.77950509650432
30
0
10
-125.19422333651482
20
-139.28611551560735
30
0
10
-116.06002344614512
20
-134.91596074216645
30
0
10
-107.0254833778429
20
-129.76117913181389
30
0
10
-98.245324773343441
20
-123.97613643689276
30
0
10
-89.862124946714985
20
-117.75607669062586
30
0
10
-81.986240526532129
20
-111.31207803057036
30
0
10
-74.677732793340212
20
-104.84836883879639
30
0
10
-67.924295743626416
20
-98.536786183918451
30
0
10
-61.630533999594974
20
-92.498137333383909
30
0
10
-55.6489121132931
20
-86.807711962950606
30
0
10
-49.803958412841148
20
-81.49715249731517
30
0
10
-43.919526523989319
20
-76.557474460843324
30
0
10
-37.843765299226064
20
-71.942189030255321
30
0
10
-31.477699367777426
20
-67.568773636658563
30
0
10
-24.771769930613623
20
-63.338557590720981
30
0
10
-17.718103824508184
20
-59.158546928043805
30
0
10
-10.34443544000138
20
-54.963692433882784
30
0
10
-2.7070369887390795
20
-50.736407391129283
30
0
10
5.1151270709862073
20
-46.533897072841313
30
0
10
13.031947745169852
20
-42.46768978082352
30
0
10
20.95507814393897
20
-38.669406132927385
30
0
10
28.810841653524282
20
-35.260197822787987
30
0
10
36.552133214907293
20
-32.320767506969112
30
0
10
44.173170954175774
20
-29.856071436898329
30
0
10
51.715550551105451
20
-27.778006037920115
30
0
10
59.245562782409891
20
-25.948962022373223
30
0
10
66.835703684897183
20
-24.216109229752306
30
0
10
74.545711228149415
20
-22.447583604244166
30
0
10
82.401038341347999
20
-20.571961763319983
30
0
10
90.380946851761877
20
-18.603700372603967
30
0
10
98.443078916844925
20
-16.61447312203191
30
0
10
106.54219439217061
20
-14.713152762667685
30
0
10
114.65126764935272
20
-13.022386799628546
30
0
10
122.7814153021513
20
-11.656690476319779
30
0
10
131.00274713995114
20
-10.699738782527348
30
0
10
139.40271492456264
20
-10.214124407410329
30
0
10
148.04610225180187
20
-10.250618729062788
30
0
10
156.9310047601596
20
-10.858536077755529
30
0
10
165.9542185048949
20
-12.093541840877702
30
0
10
174.8532952873764
20
-14.031760451516096
30
0
10
183.24427686807616
20
-16.758111328867752
30
0
10
190.72282719131607
20
-20.33783570319428
30
0
10
196.95109991571252
20
-24.791361556531232
30
0
10
201.74061052916801
20
-30.071363369114607
30
0
10
205.16079314413651
20
-36.03019122997015
30
0
10
207.55235635366037
20
-42.4219411143035
30
0
10
209.38446254038206
20
-48.961198633801928
30
0
10
211.15106928043997
20
-55.36742419883052
30
0
10
213.24597686463613
20
-61.417478990462456
30
0
10
215.86287390674443
20
-66.987914208756848
30
0
10
219.07058737514336
20
-72.023555853334599
30
0
10
222.87143436307184
20
-76.512806154262506
30
0
10
227.27219382050978
20
-80.458718321566778
30
0
10
232.33102323449461
20
-83.857071823635891
30
0
10
238.13792367590565
20
-86.695236601011203
30
0
10
244.79975111690089
20
-88.947221766018757
30
0
10
252.436529272016
20
-90.571314405141919
30
0
10
261.13347855065138
20
-91.503391639682775
30
0
10
270.7851375706756
20
-91.643586181768313
30
0
10
280.936159830593
20
-90.840371300337324
30
0
10
290.6712110117054
20
-88.883399439961508
30
0
10
298.37668972777681
20
-85.475284873420605
30
0
10
301.75199027193861
20
-80.243532073166293
30
0
10
300.78273883951192
20
-73.24386158220608
30
0
10
296.46630223244574
20
-64.805480479511857
30
0
10
290.5142226013993
20
-55.48335001091224
30
0
10
284.67427095894857
20
-46.070958457003293
30
0
10
280.08381495365938
20
-37.102496881617576
30
0
10
277.43219513201404
20
-28.893675999181589
30
0
10
277.13513052658652
20
-23.061992308575206
30
0
10
277.98999520116689
20
-19.125422555140076
30
0
10
279.03877506914387
20
-16.695375524655677
30
0
10
279.68288579030207
20
-15.528932969179511
30
0
0
LINE
5
103
100
AcDbEntity
8
0
100
AcDbLine
10
279.68288579030207
20
-15.528932969179509
30
0
11
240.68288579030201
21
-15.528932969179507
31
0
0
LINE
5
104
100
AcDbEntity
8
0
100
AcDbLine
10
240.68288579030201
20
-15.528932969179507
30
0
11
240.68288579030201
21
-3.5289329691795146
31
0
0
LINE
5
105
100
AcDbEntity
8
0
100
AcDbLine
10
240.68288579030201
20
-3.5289329691795146
30
0
11
271.01800869225877
21
-3.5289329691794968
31
0
0
LINE
5
106
100
AcDbEntity
8
0
100
AcDbLine
10
271.01800869225877
20
-3.5289329691794968
30
0
11
254.35591709735667
21
26.884564379966207
31
0
0
SPLINE
5
107
100
AcDbEntity
8
0
100
AcDbSpline
70
4
71
5
72
46
73
40
74
0
42
0.000000001
43
0.0000000001
44
0.0000000001
40
0
40
0
40
0
40
0
40
0
40
0
40
0.028571428571428571
40
0.057142857142857141
40
0.085714285714285715
40
0.11428571428571428
40
0.14285714285714285
40
0.17142857142857143
40
0.20000000000000001
40
0.22857142857142859
40
0.25714285714285717
40
0.28571428571428575
40
0.31428571428571433
40
0.34285714285714292
40
0.3714285714285715
40
0.40000000000000008
40
0.42857142857142866
40
0.45714285714285724
40
0.48571428571428582
40
0.51428571428571435
40
0.54285714285714293
40
0.57142857142857151
40
0.60000000000000009
40
0.62857142857142867
40
0.65714285714285725
40
0.68571428571428583
40
0.71428571428571441
40
0.74285714285714299
40
0.77142857142857157
40
0.80000000000000016
40
0.82857142857142874
40
0.85714285714285732
40
0.8857142857142859
40
0.91428571428571448
40
0.94285714285714306
40
0.97142857142857164
40
1
40
1
40
1
40
1
40
1
40
1
41
1
41
1
41
1
41
1
41
1
41
1
41
1
41
1
41
1
41
1
41
1
41
1
41
1
41
1
41
1
41
1
41
1
41
1
41
1
41
1
41
1
41
1
41
1
41
1
41
1
41
1
41
1
41
1
41
1
41
1
41
1
41
1
41
1
41
1
41
1
41
1
41
1
41
1
41
1
41
1
10
254.35591709735667
20
26.884564379966214
30
0
10
252.25219003945836
20
27.018433021280885
30
0
10
247.95747123154555
20
27.290486205461704
30
0
10
241.25360328882775
20
27.711513340679701
30
0
10
231.79079903958637
20
28.298815022297852
30
0
10
219.10221155103727
20
29.075129044714071
30
0
10
205.60127081889385
20
29.890232761568292
30
0
10
191.39022015423578
20
30.736954884125055
30
0
10
176.64218138992436
20
31.603279681167869
30
0
10
161.62917397387912
20
32.470350247908833
30
0
10
146.68030188432709
20
33.316064879907358
30
0
10
132.11958841710467
20
34.120315564639412
30
0
10
118.21158789603874
20
34.869597436651745
30
0
10
105.10150461010319
20
35.562099116787053
30
0
10
92.761614938168364
20
36.212219631019735
30
0
10
80.92176660566696
20
36.856569896591473
30
0
10
69.164439487835892
20
37.544632210728395
30
0
10
57.035926637151164
20
38.327966995457828
30
0
10
44.15502311615667
20
39.249513099880964
30
0
10
30.314786280755015
20
40.333824555325549
30
0
10
15.609708353134115
20
41.57414111863617
30
0
10
0.36836405617643264
20
42.943655060712246
30
0
10
-14.954427134096484
20
44.411982849762516
30
0
10
-29.868939810922271
20
45.9593054397006
30
0
10
-43.952032602292206
20
47.592574481761581
30
0
10
-56.936101566749961
20
49.358457132293545
30
0
10
-68.826217860488782
20
51.364380947471005
30
0
10
-79.834453396548042
20
53.745284901334564
30
0
10
-90.27147719503246
20
56.617267584800004
30
0
10
-100.45443691262641
20
60.036277517684276
30
0
10
-110.60618220789935
20
63.952905546044569
30
0
10
-120.76368850634942
20
68.172269451819062
30
0
10
-130.83930587540169
20
72.414294744912681
30
0
10
-140.67851706953996
20
76.372678698522122
30
0
10
-150.11394268941098
20
79.768725612365557
30
0
10
-159.03206632697331
20
82.420630138087716
30
0
10
-165.71173964016555
20
83.879741173035967
30
0
10
-170.45810456187954
20
84.589255211619331
30
0
10
-173.50551042305148
20
84.891541952326307
30
0
10
-175
20
85
30
0
0
LINE
5
108
100
AcDbEntity
8
0
100
AcDbLine
10
-175.00000000000003
20
85
30
0
11
-216.55849942430564
21
88.179666518811146
31
0
0
LINE
5
109
100
AcDbEntity
8
0
100
AcDbLine
10
-216.55849942430564
20
88.179666518811146
30
0
11
-191.47849870926342
21
63.766687099381727
31
0
0
LINE
5
110
100
AcDbEntity
8
0
100
AcDbLine
10
-191.47849870926342
20
63.766687099381727
30
0
11
-200.56230142640567
21
55.925480036943007
31
0
0
LINE
5
111
100
AcDbEntity
8
0
100
AcDbLine
10
-200.56230142640567
20
55.925480036943007
30
0
11
-225.35290587545785
21
80.056759899584264
31
0
0
SPLINE
5
112
100
AcDbEntity
8
0
100
AcDbSpline
70
4
71
5
72
45
73
39
74
0
42
0.000000001
43
0.0000000001
44
0.0000000001
40
0
40
0
40
0
40
0
40
0
40
0
40
0.0066666666666666671
40
0.013333333333333334
40
0.02
40
0.026666666666666668
40
0.033333333333333333
40
0.040000000000000001
40
0.046666666666666669
40
0.053333333333333337
40
0.060000000000000005
40
0.066666666666666666
40
0.073333333333333334
40
0.080000000000000002
40
0.08666666666666667
40
0.093333333333333338
40
0.10000000000000001
40
0.10666666666666667
40
0.11333333333333334
40
0.12000000000000001
40
0.12666666666666668
40
0.13333333333333333
40
0.13999999999999999
40
0.14666666666666664
40
0.15333333333333329
40
0.15999999999999995
40
0.1666666666666666
40
0.17333333333333326
40
0.17999999999999991
40
0.18666666666666656
40
0.19333333333333322
40
0.19999999999999987
40
0.20666666666666653
40
0.21333333333333318
40
0.21999999999999983
40
0.22638207218038678
40
0.22638207218038678
40
0.22638207218038678
40
0.22638207218038678
40
0.22638207218038678
40
0.22638207218038678
41
1
41
1
41
1
41
1
41
1
41
1
41
1
41
1
41
1
41
1
41
1
41
1
41
1
41
1
41
1
41
1
41
1
41
1
41
1
41
1
41
1
41
1
41
1
41
1
41
1
41
1
41
1
41
1
41
1
41
1
41
1
41
1
41
1
41
1
41
1
41
1
41
1
41
1
41
1
10
-225.35290587545785
20
80.056759899584264
30
0
10
-226.53064121675283
20
79.282758469335619
30
0
10
-228.70521612647298
20
77.661796133156315
30
0
10
-231.42367437892892
20
75.016557600759171
30
0
10
-233.98880382683146
20
71.406943555935626
30
0
10
-235.71476601677142
20
68.127176976715219
30
0
10
-236.72129901280107
20
65.476452647066054
30
0
10
-238.16341133338031
20
60.813456386287669
30
0
10
-240.71074977678597
20
54.719440754841941
30
0
10
-244.80929083470244
20
48.331544509272206
30
0
10
-250.59569708885803
20
42.944692607783949
30
0
10
-257.97069929405166
20
39.01338404033271
30
0
10
-266.66020567260392
20
36.577983125393978
30
0
10
-276.29234222855223
20
35.317309821912382
30
0
10
-286.46911871544728
20
34.759116559304573
30
0
10
-296.83610108152726
20
34.414435168715094
30
0
10
-307.16421089899103
20
33.966531681868084
30
0
10
-317.33676554362853
20
33.262819058758168
30
0
10
-327.3139334956702
20
32.269101788924431
30
0
10
-337.10551573681266
20
31.0367200045348
30
0
10
-346.73903086736681
20
29.663375929312387
30
0
10
-356.23265928341959
20
28.258921041659871
30
0
10
-365.55915306619249
20
26.90355126648122
30
0
10
-374.63903282966851
20
25.629232406626464
30
0
10
-383.37283767674296
20
24.431499703296481
30
0
10
-391.66325562741054
20
23.273697165696685
30
0
10
-399.44230283067327
20
22.094365266228174
30
0
10
-406.69413184164483
20
20.81304528849628
30
0
10
-413.4856963368411
20
19.337400981879011
30
0
10
-419.92357575725669
20
17.560402381004515
30
0
10
-426.09661551676345
20
15.354383347284095
30
0
10
-432.03052798909698
20
12.569606832622524
30
0
10
-437.62074686351627
20
9.0227211414502406
30
0
10
-442.64239311376116
20
4.5232656421414399
30
0
10
-446.79835417179652
20
-1.0132200251877606
30
0
10
-449.27920046355808
20
-6.3013397761741743
30
0
10
-450.60682381296124
20
-10.672981038452713
30
0
10
-451.25506737681968
20
-13.70714796533607
30
0
10
-451.51758478340048
20
-15.219034490544214
30
0
0
LINE
5
113
100
AcDbEntity
8
0
100
AcDbLine
10
-451.51758478340048
20
-15.219034490544212
30
0
11
-461.51098873264607
21
-15.219034490544221
31
0
0
LINE
5
114
100
AcDbEntity
8
0
100
AcDbLine
10
-461.51098873264607
20
-15.219034490544221
30
0
11
-461.51098873264607
21
-35.219034490544217
31
0
0
LINE
5
115
100
AcDbEntity
8
0
100
AcDbLine
10
-461.51098873264607
20
-35.219034490544217
30
0
11
-451.51098873264471
21
-35.219034490552474
31
0
0
ENDSEC
0
SECTION
2
OBJECTS
0
DICTIONARY
5
C
100
AcDbDictionary
3
ACAD_GROUP
350
D
3
ACAD_MLINESTYLE
350
17
0
DICTIONARY
5
D
100
AcDbDictionary
0
DICTIONARY
5
1A
330
C
100
AcDbDictionary
0
DICTIONARY
5
17
100
AcDbDictionary
0
ENDSEC
0
EOF
