0
SECTION
2
HEADER
9
$INSUNITS
70
4
9
$ACADVER
1
AC1014
9
$HANDSEED
5
FFFF
0
ENDSEC
0
SECTION
2
TABLES
0
TABLE
2
VPORT
5
8
100
AcDbSymbolTable
0
ENDTAB
0
TABLE
2
LTYPE
5
5
100
AcDbSymbolTable
0
LTYPE
5
14
100
AcDbSymbolTableRecord
100
AcDbLinetypeTableRecord
2
BYBLOCK
70
0
0
LTYPE
5
15
100
AcDbSymbolTableRecord
100
AcDbLinetypeTableRecord
2
BYLAYER
70
0
0
ENDTAB
0
TABLE
2
LAYER
5
2
100
AcDbSymbolTable
70
2
0
LAYER
5
50
100
AcDbSymbolTableRecord
100
AcDbLayerTableRecord
2
0
70
0
6
CONTINUOUS
0
ENDTAB
0
TABLE
2
STYLE
5
3
100
AcDbSymbolTable
70
1
0
STYLE
5
11
100
AcDbSymbolTableRecord
100
AcDbTextStyleTableRecord
2
STANDARD
70
0
0
ENDTAB
0
TABLE
2
VIEW
5
6
100
AcDbSymbolTable
70
0
0
ENDTAB
0
TABLE
2
UCS
5
7
100
AcDbSymbolTable
70
0
0
ENDTAB
0
TABLE
2
APPID
5
9
100
AcDbSymbolTable
70
2
0
APPID
5
12
100
AcDbSymbolTableRecord
100
AcDbRegAppTableRecord
2
ACAD
70
0
0
ENDTAB
0
TABLE
2
DIMSTYLE
5
A
100
AcDbSymbolTable
70
1
0
ENDTAB
0
TABLE
2
BLOCK_RECORD
5
1
100
AcDbSymbolTable
70
1
0
BLOCK_RECORD
5
1F
100
AcDbSymbolTableRecord
100
AcDbBlockTableRecord
2
*MODEL_SPACE
0
BLOCK_RECORD
5
1B
100
AcDbSymbolTableRecord
100
AcDbBlockTableRecord
2
*PAPER_SPACE
0
ENDTAB
0
ENDSEC
0
SECTION
2
BLOCKS
0
BLOCK
5
20
100
AcDbEntity
100
AcDbBlockBegin
2
*MODEL_SPACE
0
ENDBLK
5
21
100
AcDbEntity
100
AcDbBlockEnd
0
BLOCK
5
1C
100
AcDbEntity
100
AcDbBlockBegin
2
*PAPER_SPACE
0
ENDBLK
5
1D
100
AcDbEntity
100
AcDbBlockEnd
0
ENDSEC
0
SECTION
2
ENTITIES
0
LWPOLYLINE
5
100
100
AcDbEntity
8
0
100
AcDbPolyline
90
8
70
1
43
0.0
10
325.00000000000176
20
375.00000000000182
10
-324.99999999999795
20
375.00000000000182
42
0.41421356237309503
10
-374.99999999999795
20
325.00000000000182
10
-374.99999999999818
20
-324.99999999999818
42
0.41421356237309503
10
-324.99999999999818
20
-374.99999999999818
10
325.00000000000182
20
-374.99999999999807
42
0.41421356237309503
10
375.00000000000182
20
-324.99999999999807
10
375.00000000000176
20
325.00000000000193
42
0.41421356237309465
0
LINE
5
101
100
AcDbEntity
8
0
100
AcDbLine
10
375.00000000000176
20
375.00000000000182
30
0
11
-374.99999999999818
21
-374.99999999999807
31
0
0
LINE
5
102
100
AcDbEntity
8
0
100
AcDbLine
10
-374.99999999999795
20
375.00000000000182
30
0
11
375.00000000000182
21
-374.99999999999807
31
0
0
LWPOLYLINE
5
103
100
AcDbEntity
8
0
100
AcDbPolyline
90
8
70
1
43
0.0
10
776.7678152045853
20
313.06364609687751
10
1326.7678152045851
20
313.06364609687751
42
-0.41421356237309503
10
1376.7678152045848
20
263.06364609687779
10
1376.7678152045848
20
-286.93635390312306
42
-0.41421356237309503
10
1326.7678152045851
20
-336.93635390312284
10
776.7678152045853
20
-336.93635390312289
42
-0.41421356237309503
10
726.76781520458474
20
-286.93635390312232
10
726.76781520458485
20
263.06364609687694
42
-0.41421356237309548
0
LWPOLYLINE
5
104
100
AcDbEntity
8
0
100
AcDbPolyline
90
4
70
1
43
0.0
10
-336.92412579911672
20
-316.70966112665303
10
-315.7109223635203
20
-337.9228645622494
10
-308.18023514388369
20
-330.39217734261257
10
-329.39343857948012
20
-309.17897390701631
0
LINE
5
105
100
AcDbEntity
8
0
100
AcDbLine
10
0
20
2.5
30
0
11
0
21
20
31
0
0
LWPOLYLINE
5
106
100
AcDbEntity
8
0
100
AcDbPolyline
90
4
70
1
43
0.0
10
336.92412579911684
20
-316.70966112665303
10
315.7109223635203
20
-337.92286456224952
10
308.18023514388369
20
-330.39217734261257
10
329.39343857948012
20
-309.17897390701631
0
LINE
5
107
100
AcDbEntity
8
0
100
AcDbLine
10
20
20
0
30
0
11
2.5
21
0
31
0
0
LWPOLYLINE
5
108
100
AcDbEntity
8
0
100
AcDbPolyline
90
4
70
1
43
0.0
10
-308.18023514388369
20
330.39217734261257
10
-329.39343857948012
20
309.17897390701631
10
-336.92412579911684
20
316.70966112665303
10
-315.7109223635203
20
337.92286456224952
0
LWPOLYLINE
5
109
100
AcDbEntity
8
0
100
AcDbPolyline
90
4
70
1
43
0.0
10
308.18023514388369
20
330.39217734261257
10
329.39343857948012
20
309.17897390701626
10
336.92412579911684
20
316.70966112665303
10
315.71092236352035
20
337.92286456224952
0
CIRCLE
5
110
100
AcDbEntity
8
0
100
AcDbCircle
10
776.7678152045853
20
263.06364609687699
30
0
40
7.5
210
0
220
0
230
1
0
CIRCLE
5
111
100
AcDbEntity
8
0
100
AcDbCircle
10
1326.7678152045851
20
263.06364609687779
30
0
40
7.5
210
0
220
0
230
1
0
CIRCLE
5
112
100
AcDbEntity
8
0
100
AcDbCircle
10
776.7678152045853
20
-286.93635390312232
30
0
40
7.5
210
0
220
0
230
1
0
CIRCLE
5
113
100
AcDbEntity
8
0
100
AcDbCircle
10
1326.7678152045851
20
-286.93635390312306
30
0
40
7.5
210
0
220
0
230
1
0
LWPOLYLINE
5
114
100
AcDbEntity
8
0
100
AcDbPolyline
90
10
70
1
43
0.0
10
-672.22653136538941
20
-175.23132534289559
10
-672.22653136538941
20
-165.23132534289559
10
-661.22653136538941
20
-165.23132534289559
10
-661.22653136538941
20
-135.23132534289559
10
-672.22653136538941
20
-135.23132534289559
10
-672.22653136538941
20
-125.23132534289559
10
-962.22653136538941
20
-125.23132534289559
42
0.41421356237310336
10
-972.22653136538929
20
-135.23132534289559
10
-972.22653136538941
20
-165.23132534289559
42
0.41421356237310336
10
-962.22653136538941
20
-175.23132534289559
0
CIRCLE
5
115
100
AcDbEntity
8
0
100
AcDbCircle
10
-934.2197950726005
20
-150.13341238670392
30
0
40
7.5
210
0
220
0
230
1
0
LWPOLYLINE
5
116
100
AcDbEntity
8
0
100
AcDbPolyline
90
10
70
1
43
0.0
10
-657.96651016753333
20
93.906552472971981
10
-657.96651016753333
20
123.90655247297198
10
-668.96651016753322
20
123.90655247297198
10
-668.96651016753322
20
133.90655247297198
10
-958.96651016753322
20
133.90655247297198
42
0.4142135623730992
10
-968.96651016753322
20
123.90655247297198
10
-968.96651016753322
20
93.906552472971981
42
0.4142135623730992
10
-958.96651016753322
20
83.906552472971981
10
-668.96651016753322
20
83.906552472971981
10
-668.96651016753322
20
93.906552472971981
0
CIRCLE
5
117
100
AcDbEntity
8
0
100
AcDbCircle
10
-930.95977387474431
20
109.00446542916364
30
0
40
7.5
210
0
220
0
230
1
0
CIRCLE
5
118
100
AcDbEntity
8
0
100
AcDbCircle
10
1051.8470519595317
20
-10.000010824936965
30
0
40
290
210
0
220
0
230
1
0
LWPOLYLINE
5
119
100
AcDbEntity
8
0
100
AcDbPolyline
90
68
70
1
43
0.0
10
1063.5818489673352
20
3.9657560845706663
10
1068.1201867809693
20
12.973172763508787
42
0.71497968186365923
10
1023.5506082558771
20
-22.196545956666949
10
1006.494827449334
20
-33.282363978886778
42
-3.0713787536134718
10
1057.9744073048378
20
-61.852372075070853
10
1057.9744073048378
20
-71.915559153316607
42
0.64406788629266853
10
1092.7670073418717
20
31.651291532721046
10
1107.547658722365
20
45.193457910302783
42
-1.7704113343160777
10
975.05811881467594
20
10.2106807449176
10
964.68884588785454
20
10.2106807449176
42
0.45329628532542088
10
1041.0347194798826
20
-101.57754482613151
10
1041.0347194798826
20
-121.69668944740323
42
-1.9210864488642736
10
1158.4123830762312
20
15.041558196884512
10
1168.706614064316
20
15.041558196884521
42
0.59333721109049808
10
965.7229283292952
20
71.333479841906239
10
951.28219795708833
20
85.171060545339685
42
-2.0856219112321237
10
978.44995583657897
20
-131.44741377019923
10
973.65895837804487
20
-140.23992630442245
42
0.37221080386006566
10
1167.167881972618
20
-108.15097667783768
10
1181.6398667446906
20
-122.01850637064581
42
-0.75522043244559434
10
883.7008244693925
20
12.811674410639187
10
873.59676127761361
20
12.811674410639187
42
2.1706874821001452
10
1104.2801842760146
20
159.96448179730149
10
1114.549428572245
20
177.68734190256203
42
-0.26281795379056033
10
1246.8550760998733
20
32.173761332928649
10
1257.0984027478837
20
32.173761332928649
42
0.77210109798170123
10
851.1363548956374
20
49.540102318441932
10
830.29613387532868
20
49.540102318441853
42
-0.24280424758858471
10
973.81958810519279
20
204.13105813832684
10
969.15811252061826
20
213.07634671275332
42
0.71491158410238786
10
979.27390837739893
20
-240.99387967441461
10
971.69604545456025
20
-259.56696379459146
42
-3.0634219214782368
10
1263.1426426828587
20
-163.73481043443931
10
1272.6525321203792
20
-167.61486816220227
42
23.761453338937457
10
1243.5159421681801
20
-202.39451171269624
10
1237.3760637395947
20
-194.37968920755247
42
-0.27122134469198639
10
983.79752294254388
20
-263.16624571072117
10
991.41484545637638
20
-244.49644747597975
42
1.2297059403062864
10
1014.53528480367
20
224.85269342474621
10
1014.53528480367
20
214.72415746963435
42
-3.2885343738308634
10
827.74925801025972
20
39.543766978495313
10
848.32851181449178
20
39.543766978495313
42
1.1406871330005817
10
1261.8275953879127
20
-9.4158487691344348
10
1251.8266529239215
20
-9.4158487691343407
42
-2.9888933903561732
10
1104.2801842760146
20
180.77509884518238
10
1093.863619800924
20
162.79799073049639
42
0.38002377166103585
10
882.99060052417474
20
50.122147194414445
10
893.69368287566317
20
50.122147194414438
42
-1.1373457954355297
10
1188.9879148573416
20
-112.68933755758802
10
1174.4038743586543
20
-98.714432398280422
42
2.0154460164888039
10
935.66098515919884
20
-107.10259326296894
10
942.63518203367266
20
-99.824406505801448
42
-0.35901230790511168
10
945.01441014374086
20
78.252270193622863
10
959.48667106187656
20
64.384475888614631
42
1.3492239954349077
10
1171.2205045231503
20
-24.469957763751626
10
1161.1632604052372
20
-24.469957763751616
42
-0.38191773298804577
10
1051.8464428470174
20
-122.2293123991129
10
1051.8464428470174
20
-102.2293123991129
42
1.5750621233441098
10
982.54546558123798
20
45.193457910302797
10
989.37306401770684
20
37.741448428089519
42
-0.4029828148561122
10
1099.3758103701159
20
52.120972937117138
10
1084.253682685438
20
38.265942883488464
42
0.9492461526816427
10
1014.3662988058034
20
-59.082687972809318
10
1021.8464428470174
20
-52.229312399112857
42
-0.092951633254346314
10
1009.392414870646
20
-38.64248162549459
10
1026.1669670443512
20
-27.739454967776872
42
0.58669995497022764
10
1078.5126731017581
20
-25.973844548340264
10
1069.5816104734909
20
-21.473977307095062
42
-2.6888056285856696
0
LWPOLYLINE
5
120
100
AcDbEntity
8
0
100
AcDbPolyline
90
10
70
1
43
0.0
10
-674.56181717805396
20
-65.981678304646536
10
-663.56181717805396
20
-65.981678304646536
10
-663.56181717805396
20
-35.981678304646536
10
-674.56181717805396
20
-35.981678304646536
10
-674.56181717805396
20
-25.981678304646536
10
-964.56181717805396
20
-25.981678304646536
42
0.41421356237310336
10
-974.56181717805384
20
-35.981678304646536
10
-974.56181717805396
20
-65.981678304646536
42
0.41421356237310336
10
-964.56181717805396
20
-75.981678304646536
10
-674.56181717805396
20
-75.981678304646536
0
CIRCLE
5
121
100
AcDbEntity
8
0
100
AcDbCircle
10
-936.55508088526506
20
-50.883765348454872
30
0
40
7.5
210
0
220
0
230
1
0
LWPOLYLINE
5
122
100
AcDbEntity
8
0
100
AcDbPolyline
90
10
70
1
43
0.0
10
-963.39417427172157
20
4.5856822322850732
10
-673.39417427172157
20
4.5856822322850732
10
-673.39417427172157
20
14.585682232285073
10
-662.39417427172157
20
14.585682232285073
10
-662.39417427172157
20
44.585682232285073
10
-673.39417427172157
20
44.585682232285073
10
-673.39417427172157
20
54.585682232285073
10
-963.39417427172157
20
54.585682232285073
42
0.41421356237310336
10
-973.39417427172134
20
44.585682232285073
10
-973.39417427172157
20
14.585682232285073
42
0.41421356237310336
0
CIRCLE
5
123
100
AcDbEntity
8
0
100
AcDbCircle
10
-935.38743797893267
20
29.683595188476737
30
0
40
7.5
210
0
220
0
230
1
0
ENDSEC
0
SECTION
2
OBJECTS
0
DICTIONARY
5
C
100
AcDbDictionary
3
ACAD_GROUP
350
D
3
ACAD_MLINESTYLE
350
17
0
DICTIONARY
5
D
100
AcDbDictionary
0
DICTIONARY
5
1A
330
C
100
AcDbDictionary
0
DICTIONARY
5
17
100
AcDbDictionary
0
ENDSEC
0
EOF
