0
SECTION
2
HEADER
9
$HANDSEED
5
A6
9
$INSUNITS
70
4
9
$ACADVER
1
AC1021
0
ENDSEC
0
SECTION
2
CLASSES
0
ENDSEC
0
SECTION
2
TABLES
0
TABLE
2
LTYPE
5
A4
330
0
100
AcDbSymbolTable
70
5
0
LTYPE
5
70
330
A4
100
AcDbSymbolTableRecord
100
AcDbLinetypeTableRecord
2
CONTINUOUS
3
______
70
0
72
65
73
0
40
0
0
LTYPE
5
71
330
A4
100
AcDbSymbolTableRecord
100
AcDbLinetypeTableRecord
2
DASHED
3
_ _ _ 
70
0
72
65
73
2
40
10
49
5
74
0
49
-5
74
0
0
LTYPE
5
72
330
A4
100
AcDbSymbolTableRecord
100
AcDbLinetypeTableRecord
2
DOTTED
3
. . . 
70
0
72
65
73
2
40
5
49
0
74
0
49
-5
74
0
0
LTYPE
5
74
330
A4
100
AcDbSymbolTableRecord
100
AcDbLinetypeTableRecord
2
ByBlock
3

70
0
72
65
73
0
40
0
0
LTYPE
5
75
330
A4
100
AcDbSymbolTableRecord
100
AcDbLinetypeTableRecord
2
ByLayer
3

70
0
72
65
73
0
40
0
0
ENDTAB
0
TABLE
2
LAYER
5
A5
330
0
100
AcDbSymbolTable
70
2
0
LAYER
5
73
330
A5
100
AcDbSymbolTableRecord
100
AcDbLayerTableRecord
2
0
62
7
70
0
6
CONTINUOUS
390
1
0
LAYER
5
84
330
A5
100
AcDbSymbolTableRecord
100
AcDbLayerTableRecord
2
l_0
62
0
70
0
6
CONTINUOUS
390
1
0
ENDTAB
0
TABLE
2
VPORT
5
76
330
0
100
AcDbSymbolTable
70
1
0
VPORT
5
7C
330
76
100
AcDbSymbolTableRecord
100
AcDbViewportTableRecord
2
*ACTIVE
40
1000
70
0
0
ENDTAB
0
TABLE
2
STYLE
5
77
330
0
100
AcDbSymbolTable
70
1
0
STYLE
5
7D
330
77
100
AcDbSymbolTableRecord
100
AcDbTextStyleTableRecord
2
standard
70
0
40
0
41
1
50
0
71
0
42
1
3
txt
4

0
ENDTAB
0
TABLE
2
VIEW
5
78
330
0
100
AcDbSymbolTable
70
0
0
ENDTAB
0
TABLE
2
UCS
5
79
330
0
100
AcDbSymbolTable
70
0
0
ENDTAB
0
TABLE
2
APPID
5
7A
330
0
100
AcDbSymbolTable
70
1
0
APPID
5
7E
330
7A
100
AcDbSymbolTableRecord
100
AcDbRegAppTableRecord
2
ACAD
70
0
0
ENDTAB
0
TABLE
2
DIMSTYLE
5
7B
330
0
100
AcDbSymbolTable
100
AcDbDimStyleTable
70
0
71
1
0
ENDTAB
0
TABLE
2
BLOCK_RECORD
5
A1
330
0
100
AcDbSymbolTable
70
2
0
BLOCK_RECORD
5
A2
330
A1
100
AcDbSymbolTableRecord
100
AcDbBlockTableRecord
2
*Model_Space
70
0
280
0
281
1
0
BLOCK_RECORD
5
A3
330
A1
100
AcDbSymbolTableRecord
100
AcDbBlockTableRecord
2
*Paper_Space
70
0
280
0
281
1
0
ENDTAB
0
ENDSEC
0
SECTION
2
BLOCKS
0
BLOCK
5
7F
330
0
100
AcDbEntity
100
AcDbBlockBegin
2
*Model_Space
70
0
10
0
20
0
30
0
3
*Model_Space
1

0
ENDBLK
5
80
330
0
100
AcDbEntity
100
AcDbBlockEnd
0
BLOCK
5
81
330
0
100
AcDbEntity
100
AcDbBlockBegin
2
*Paper_Space
70
0
10
0
20
0
30
0
3
*Paper_Space
1

0
ENDBLK
5
82
330
0
100
AcDbEntity
100
AcDbBlockEnd
0
ENDSEC
0
SECTION
2
ENTITIES
0
LINE
5
85
330
7F
100
AcDbEntity
100
AcDbLine
8
l_0
10
1.2626553773880005
20
11.558274269104004
30
0
11
-1.2273445129394531
21
11.558274269104004
31
0
0
LINE
5
86
330
7F
100
AcDbEntity
100
AcDbLine
8
l_0
10
-1.2273445129394531
20
11.558274269104004
30
0
11
-1.2273445129394531
21
19.1082820892334
31
0
0
LINE
5
87
330
7F
100
AcDbEntity
100
AcDbLine
8
l_0
10
-1.2273445129394531
20
19.1082820892334
30
0
11
-14.220502853393555
21
9.66819953918457
31
0
0
LINE
5
88
330
7F
100
AcDbEntity
100
AcDbLine
8
l_0
10
-14.220502853393555
20
9.66819953918457
30
0
11
-9.37843132019043
21
6.872628688812256
31
0
0
LINE
5
89
330
7F
100
AcDbEntity
100
AcDbLine
8
l_0
10
-9.37843132019043
20
6.872628688812256
30
0
11
-10.623431205749512
21
4.716225624084473
31
0
0
LINE
5
8A
330
7F
100
AcDbEntity
100
AcDbLine
8
l_0
10
-10.623431205749512
20
4.716225624084473
30
0
11
-16.425594329833984
21
8.066105842590332
31
0
0
LINE
5
8B
330
7F
100
AcDbEntity
100
AcDbLine
8
l_0
10
-16.425594329833984
20
8.066105842590332
30
0
11
-19.021129608154297
21
6.180339813232422
31
0
0
LINE
5
8C
330
7F
100
AcDbEntity
100
AcDbLine
8
l_0
10
-19.021129608154297
20
6.180339813232422
30
0
11
-14.724533081054688
21
-7.043224334716797
31
0
0
LINE
5
8D
330
7F
100
AcDbEntity
100
AcDbLine
8
l_0
10
-14.724533081054688
20
-7.043224334716797
30
0
11
-10.64108657836914
21
-4.68564510345459
31
0
0
LINE
5
8E
330
7F
100
AcDbEntity
100
AcDbLine
8
l_0
10
-10.64108657836914
20
-4.68564510345459
30
0
11
-9.396086692810059
21
-6.842048645019531
31
0
0
LINE
5
8F
330
7F
100
AcDbEntity
100
AcDbLine
8
l_0
10
-9.396086692810059
20
-6.842048645019531
30
0
11
-13.937891006469727
21
-9.46426010131836
31
0
0
LINE
5
90
330
7F
100
AcDbEntity
100
AcDbLine
8
l_0
10
-13.937891006469727
20
-9.46426010131836
30
0
11
-11.755704879760742
21
-16.180339813232422
31
0
0
LINE
5
91
330
7F
100
AcDbEntity
100
AcDbLine
8
l_0
10
-11.755704879760742
20
-16.180339813232422
30
0
11
-1.2626553773880005
21
-16.180339813232422
31
0
0
LINE
5
92
330
7F
100
AcDbEntity
100
AcDbLine
8
l_0
10
-1.2626553773880005
20
-16.180339813232422
30
0
11
-1.2626553773880005
21
-11.558274269104004
31
0
0
LINE
5
93
330
7F
100
AcDbEntity
100
AcDbLine
8
l_0
10
-1.2626553773880005
20
-11.558274269104004
30
0
11
1.2273445129394531
21
-11.558274269104004
31
0
0
LINE
5
94
330
7F
100
AcDbEntity
100
AcDbLine
8
l_0
10
1.2273445129394531
20
-11.558274269104004
30
0
11
1.2273445129394531
21
-16.180339813232422
31
0
0
LINE
5
95
330
7F
100
AcDbEntity
100
AcDbLine
8
l_0
10
1.2273445129394531
20
-16.180339813232422
30
0
11
11.755704879760742
21
-16.180339813232422
31
0
0
LINE
5
96
330
7F
100
AcDbEntity
100
AcDbLine
8
l_0
10
11.755704879760742
20
-16.180339813232422
30
0
11
13.926735877990723
21
-9.4985933303833
31
0
0
LINE
5
97
330
7F
100
AcDbEntity
100
AcDbLine
8
l_0
10
13.926735877990723
20
-9.4985933303833
30
0
11
9.37843132019043
21
-6.872628688812256
31
0
0
LINE
5
98
330
7F
100
AcDbEntity
100
AcDbLine
8
l_0
10
9.37843132019043
20
-6.872628688812256
30
0
11
10.623431205749512
21
-4.716225624084473
31
0
0
LINE
5
99
330
7F
100
AcDbEntity
100
AcDbLine
8
l_0
10
10.623431205749512
20
-4.716225624084473
30
0
11
14.713377952575684
21
-7.077557563781738
31
0
0
LINE
5
9A
330
7F
100
AcDbEntity
100
AcDbLine
8
l_0
10
14.713377952575684
20
-7.077557563781738
30
0
11
19.021129608154297
21
6.180339813232422
31
0
0
LINE
5
9B
330
7F
100
AcDbEntity
100
AcDbLine
8
l_0
10
19.021129608154297
20
6.180339813232422
30
0
11
16.456865310668945
21
8.043386459350586
31
0
0
LINE
5
9C
330
7F
100
AcDbEntity
100
AcDbLine
8
l_0
10
16.456865310668945
20
8.043386459350586
30
0
11
10.64108657836914
21
4.68564510345459
31
0
0
LINE
5
9D
330
7F
100
AcDbEntity
100
AcDbLine
8
l_0
10
10.64108657836914
20
4.68564510345459
30
0
11
9.396086692810059
21
6.842048645019531
31
0
0
LINE
5
9E
330
7F
100
AcDbEntity
100
AcDbLine
8
l_0
10
9.396086692810059
20
6.842048645019531
30
0
11
14.2517728805542
21
9.645480155944824
31
0
0
LINE
5
9F
330
7F
100
AcDbEntity
100
AcDbLine
8
l_0
10
14.2517728805542
20
9.645480155944824
30
0
11
1.2626553773880005
21
19.082626342773438
31
0
0
LINE
5
A0
330
7F
100
AcDbEntity
100
AcDbLine
8
l_0
10
1.2626553773880005
20
19.082626342773438
30
0
11
1.2626553773880005
21
11.558274269104004
31
0
0
ENDSEC
0
SECTION
2
OBJECTS
0
DICTIONARY
5
6F
330
0
100
AcDbDictionary
281
1
3
ACAD_GROUP
350
83
0
DICTIONARY
5
83
330
6F
100
AcDbDictionary
281
1
0
ENDSEC
0
EOF