0
SECTION
2
HEADER
9
$INSUNITS
70
4
9
$ACADVER
1
AC1014
9
$HANDSEED
5
FFFF
0
ENDSEC
0
SECTION
2
TABLES
0
TABLE
2
VPORT
5
8
100
AcDbSymbolTable
0
ENDTAB
0
TABLE
2
LTYPE
5
5
100
AcDbSymbolTable
0
LTYPE
5
14
100
AcDbSymbolTableRecord
100
AcDbLinetypeTableRecord
2
BYBLOCK
70
0
0
LTYPE
5
15
100
AcDbSymbolTableRecord
100
AcDbLinetypeTableRecord
2
BYLAYER
70
0
0
ENDTAB
0
TABLE
2
LAYER
5
2
100
AcDbSymbolTable
70
2
0
LAYER
5
50
100
AcDbSymbolTableRecord
100
AcDbLayerTableRecord
2
0
70
0
6
CONTINUOUS
0
ENDTAB
0
TABLE
2
STYLE
5
3
100
AcDbSymbolTable
70
1
0
STYLE
5
11
100
AcDbSymbolTableRecord
100
AcDbTextStyleTableRecord
2
STANDARD
70
0
0
ENDTAB
0
TABLE
2
VIEW
5
6
100
AcDbSymbolTable
70
0
0
ENDTAB
0
TABLE
2
UCS
5
7
100
AcDbSymbolTable
70
0
0
ENDTAB
0
TABLE
2
APPID
5
9
100
AcDbSymbolTable
70
2
0
APPID
5
12
100
AcDbSymbolTableRecord
100
AcDbRegAppTableRecord
2
ACAD
70
0
0
ENDTAB
0
TABLE
2
DIMSTYLE
5
A
100
AcDbSymbolTable
70
1
0
ENDTAB
0
TABLE
2
BLOCK_RECORD
5
1
100
AcDbSymbolTable
70
1
0
BLOCK_RECORD
5
1F
100
AcDbSymbolTableRecord
100
AcDbBlockTableRecord
2
*MODEL_SPACE
0
BLOCK_RECORD
5
1B
100
AcDbSymbolTableRecord
100
AcDbBlockTableRecord
2
*PAPER_SPACE
0
ENDTAB
0
ENDSEC
0
SECTION
2
BLOCKS
0
BLOCK
5
20
100
AcDbEntity
100
AcDbBlockBegin
2
*MODEL_SPACE
0
ENDBLK
5
21
100
AcDbEntity
100
AcDbBlockEnd
0
BLOCK
5
1C
100
AcDbEntity
100
AcDbBlockBegin
2
*PAPER_SPACE
0
ENDBLK
5
1D
100
AcDbEntity
100
AcDbBlockEnd
0
ENDSEC
0
SECTION
2
ENTITIES
0
LWPOLYLINE
5
100
100
AcDbEntity
8
0
100
AcDbPolyline
90
4
70
1
43
0.0
10
-894
20
-1330
10
-906
20
-1330
10
-906
20
-1270
10
-894
20
-1270
0
LWPOLYLINE
5
101
100
AcDbEntity
8
0
100
AcDbPolyline
90
14
70
1
43
0.0
10
-770.76225788880481
20
0
10
-1029.2377421111953
20
4.0305989411839815e-15
10
-1029.2377421111953
20
-100
10
-1041.2377421111953
20
-99.999999999999986
10
-1041.2377421111953
20
0
10
-1100
20
0
10
-1100
20
-1540
42
0.41421356237309709
10
-1040
20
-1600
10
-760
20
-1600
42
0.41421356237309709
10
-700.00000000000011
20
-1540
10
-700
20
0
10
-758.7622578888047
20
0
10
-758.7622578888047
20
-99.999999999999986
10
-770.76225788880481
20
-100
0
LWPOLYLINE
5
102
100
AcDbEntity
8
0
100
AcDbPolyline
90
4
70
1
43
0.0
10
-894
20
-1080
10
-906
20
-1080
10
-906
20
-1020
10
-894
20
-1020
0
LWPOLYLINE
5
103
100
AcDbEntity
8
0
100
AcDbPolyline
90
4
70
1
43
0.0
10
-906
20
-20
10
-894
20
-20
10
-894
20
-80
10
-906
20
-80
0
LWPOLYLINE
5
104
100
AcDbEntity
8
0
100
AcDbPolyline
90
4
70
1
43
0.0
10
-894
20
-830
10
-906
20
-830
10
-906
20
-770
10
-894
20
-770
0
LWPOLYLINE
5
105
100
AcDbEntity
8
0
100
AcDbPolyline
90
4
70
1
43
0.0
10
-906
20
-270
10
-894
20
-270
10
-894
20
-330
10
-906
20
-330
0
LWPOLYLINE
5
106
100
AcDbEntity
8
0
100
AcDbPolyline
90
4
70
1
43
0.0
10
-894
20
-580
10
-906
20
-580
10
-906
20
-520
10
-894
20
-520
0
LWPOLYLINE
5
107
100
AcDbEntity
8
0
100
AcDbPolyline
90
4
70
1
43
0.0
10
-801.38592790284679
20
-208.91929034707459
10
-808.09624274449573
20
-218.86774121773522
10
-891
20
-162.94845087066051
10
-884.28968515835118
20
-153
0
LWPOLYLINE
5
108
100
AcDbEntity
8
0
100
AcDbPolyline
90
4
70
1
43
0.0
10
-801.38592790284679
20
-458.91929034707459
10
-808.09624274449573
20
-468.86774121773522
10
-891
20
-412.94845087066051
10
-884.28968515835118
20
-403
0
LWPOLYLINE
5
109
100
AcDbEntity
8
0
100
AcDbPolyline
90
4
70
1
43
0.0
10
-801.38592790284679
20
-708.91929034707459
10
-808.09624274449573
20
-718.86774121773533
10
-891
20
-662.94845087066051
10
-884.28968515835118
20
-653
0
LWPOLYLINE
5
110
100
AcDbEntity
8
0
100
AcDbPolyline
90
4
70
1
43
0.0
10
-801.38592790284679
20
-958.91929034707459
10
-808.09624274449573
20
-968.86774121773533
10
-891
20
-912.94845087066051
10
-884.28968515835118
20
-903
0
LWPOLYLINE
5
111
100
AcDbEntity
8
0
100
AcDbPolyline
90
4
70
1
43
0.0
10
-801.38592790284679
20
-1208.9192903470746
10
-808.09624274449573
20
-1218.8677412177353
10
-891
20
-1162.9484508706605
10
-884.28968515835118
20
-1153
0
LWPOLYLINE
5
112
100
AcDbEntity
8
0
100
AcDbPolyline
90
4
70
1
43
0.0
10
-991.90375725550427
20
-718.86774121773533
10
-998.6140720971531
20
-708.91929034707459
10
-915.71031484164882
20
-653
10
-909
20
-662.94845087066051
0
LWPOLYLINE
5
113
100
AcDbEntity
8
0
100
AcDbPolyline
90
4
70
1
43
0.0
10
-991.90375725550427
20
-968.86774121773533
10
-998.6140720971531
20
-958.91929034707459
10
-915.71031484164882
20
-903
10
-909
20
-912.94845087066051
0
LWPOLYLINE
5
114
100
AcDbEntity
8
0
100
AcDbPolyline
90
4
70
1
43
0.0
10
-991.90375725550427
20
-468.86774121773522
10
-998.6140720971531
20
-458.91929034707459
10
-915.71031484164882
20
-403
10
-909
20
-412.94845087066051
0
LWPOLYLINE
5
115
100
AcDbEntity
8
0
100
AcDbPolyline
90
4
70
1
43
0.0
10
-991.90375725550427
20
-1218.8677412177353
10
-998.6140720971531
20
-1208.9192903470746
10
-915.71031484164882
20
-1153
10
-909
20
-1162.9484508706605
0
LWPOLYLINE
5
116
100
AcDbEntity
8
0
100
AcDbPolyline
90
4
70
1
43
0.0
10
-998.6140720971531
20
-208.91929034707459
10
-915.71031484164882
20
-153
10
-909
20
-162.94845087066051
10
-991.90375725550427
20
-218.86774121773522
0
LWPOLYLINE
5
117
100
AcDbEntity
8
0
100
AcDbPolyline
90
28
70
1
43
0.0
10
-1306
20
-1350.8334277789934
10
-1305.9999999999993
20
-1330
10
-1293.9999999999995
20
-1330
10
-1293.9999999999995
20
-1270
10
-1305.9999999999993
20
-1270
10
-1305.9999999999993
20
-1080
10
-1293.9999999999995
20
-1080
10
-1293.9999999999995
20
-1020
10
-1305.9999999999993
20
-1020
10
-1305.9999999999993
20
-830
10
-1293.9999999999995
20
-830
10
-1293.9999999999995
20
-770
10
-1305.9999999999993
20
-770
10
-1305.9999999999993
20
-580
10
-1293.9999999999995
20
-580
10
-1293.9999999999995
20
-520
10
-1305.9999999999993
20
-520
10
-1305.9999999999993
20
-330
10
-1293.9999999999995
20
-330
10
-1293.9999999999995
20
-270
10
-1305.9999999999993
20
-270
10
-1305.9999999999993
20
-80
10
-1293.9999999999995
20
-80
10
-1293.9999999999995
20
-20
10
-1305.9999999999993
20
-20
10
-1306
20
0
10
-1506
20
0
10
-1506
20
-1350.8334277789934
0
LWPOLYLINE
5
118
100
AcDbEntity
8
0
100
AcDbPolyline
90
6
70
1
43
0.0
10
-835.2377421111953
20
150.12004803843848
42
0.40254267324099807
10
-691.2377421111953
20
300.00000000000006
10
-991.2377421111953
20
300.00000000000011
42
0.40254267324099796
10
-847.2377421111953
20
150.12004803843854
10
-847.23774211119519
20
200.00000000000011
10
-835.2377421111953
20
200.00000000000011
0
LWPOLYLINE
5
119
100
AcDbEntity
8
0
100
AcDbPolyline
90
6
70
1
43
0.0
10
-1626.4917353195758
20
-448.70138534511761
10
-1622.7918251548713
20
-236.73367397196256
10
-1722.7765946705103
20
-234.98843332823401
10
-1722.9860235477577
20
-246.98660567011072
10
-1822.9707930633977
20
-245.24136502638214
10
-1826.4612743508544
20
-445.21090405766046
0
ENDSEC
0
SECTION
2
OBJECTS
0
DICTIONARY
5
C
100
AcDbDictionary
3
ACAD_GROUP
350
D
3
ACAD_MLINESTYLE
350
17
0
DICTIONARY
5
D
100
AcDbDictionary
0
DICTIONARY
5
1A
330
C
100
AcDbDictionary
0
DICTIONARY
5
17
100
AcDbDictionary
0
ENDSEC
0
EOF
