0
SECTION
2
HEADER
9
$HANDSEED
5
148
9
$INSUNITS
70
1
9
$ACADVER
1
AC1021
0
ENDSEC
0
SECTION
2
CLASSES
0
ENDSEC
0
SECTION
2
TABLES
0
TABLE
2
LTYPE
5
146
330
0
100
AcDbSymbolTable
70
5
0
LTYPE
5
2
330
146
100
AcDbSymbolTableRecord
100
AcDbLinetypeTableRecord
2
CONTINUOUS
3
______
70
0
72
65
73
0
40
0
0
LTYPE
5
3
330
146
100
AcDbSymbolTableRecord
100
AcDbLinetypeTableRecord
2
DASHED
3
_ _ _ 
70
0
72
65
73
2
40
10
49
5
74
0
49
-5
74
0
0
LTYPE
5
4
330
146
100
AcDbSymbolTableRecord
100
AcDbLinetypeTableRecord
2
DOTTED
3
. . . 
70
0
72
65
73
2
40
5
49
0
74
0
49
-5
74
0
0
LTYPE
5
6
330
146
100
AcDbSymbolTableRecord
100
AcDbLinetypeTableRecord
2
ByBlock
3

70
0
72
65
73
0
40
0
0
LTYPE
5
7
330
146
100
AcDbSymbolTableRecord
100
AcDbLinetypeTableRecord
2
ByLayer
3

70
0
72
65
73
0
40
0
0
ENDTAB
0
TABLE
2
LAYER
5
147
330
0
100
AcDbSymbolTable
70
2
0
LAYER
5
5
330
147
100
AcDbSymbolTableRecord
100
AcDbLayerTableRecord
2
0
62
7
70
0
6
CONTINUOUS
390
1
0
LAYER
5
16
330
147
100
AcDbSymbolTableRecord
100
AcDbLayerTableRecord
2
l_0
62
0
70
0
6
CONTINUOUS
390
1
0
ENDTAB
0
TABLE
2
VPORT
5
8
330
0
100
AcDbSymbolTable
70
1
0
VPORT
5
E
330
8
100
AcDbSymbolTableRecord
100
AcDbViewportTableRecord
2
*ACTIVE
40
1000
70
0
0
ENDTAB
0
TABLE
2
STYLE
5
9
330
0
100
AcDbSymbolTable
70
1
0
STYLE
5
F
330
9
100
AcDbSymbolTableRecord
100
AcDbTextStyleTableRecord
2
standard
70
0
40
0
41
1
50
0
71
0
42
1
3
txt
4

0
ENDTAB
0
TABLE
2
VIEW
5
A
330
0
100
AcDbSymbolTable
70
0
0
ENDTAB
0
TABLE
2
UCS
5
B
330
0
100
AcDbSymbolTable
70
0
0
ENDTAB
0
TABLE
2
APPID
5
C
330
0
100
AcDbSymbolTable
70
1
0
APPID
5
10
330
C
100
AcDbSymbolTableRecord
100
AcDbRegAppTableRecord
2
ACAD
70
0
0
ENDTAB
0
TABLE
2
DIMSTYLE
5
D
330
0
100
AcDbSymbolTable
100
AcDbDimStyleTable
70
0
71
1
0
ENDTAB
0
TABLE
2
BLOCK_RECORD
5
143
330
0
100
AcDbSymbolTable
70
2
0
BLOCK_RECORD
5
144
330
143
100
AcDbSymbolTableRecord
100
AcDbBlockTableRecord
2
*Model_Space
70
0
280
0
281
1
0
BLOCK_RECORD
5
145
330
143
100
AcDbSymbolTableRecord
100
AcDbBlockTableRecord
2
*Paper_Space
70
0
280
0
281
1
0
ENDTAB
0
ENDSEC
0
SECTION
2
BLOCKS
0
BLOCK
5
11
330
0
100
AcDbEntity
100
AcDbBlockBegin
2
*Model_Space
70
0
10
0
20
0
30
0
3
*Model_Space
1

0
ENDBLK
5
12
330
0
100
AcDbEntity
100
AcDbBlockEnd
0
BLOCK
5
13
330
0
100
AcDbEntity
100
AcDbBlockBegin
2
*Paper_Space
70
0
10
0
20
0
30
0
3
*Paper_Space
1

0
ENDBLK
5
14
330
0
100
AcDbEntity
100
AcDbBlockEnd
0
ENDSEC
0
SECTION
2
ENTITIES
0
LINE
5
17
330
11
100
AcDbEntity
100
AcDbLine
8
l_0
10
0.7398596333993226
20
0.9094443917274475
30
0
11
0.6995190310014039
21
0.932735025882721
31
0
0
LINE
5
18
330
11
100
AcDbEntity
100
AcDbLine
8
l_0
10
0.6995190310014039
20
0.932735025882721
30
0
11
0.216506414367035
21
0.6538675427436829
31
0
0
LINE
5
19
330
11
100
AcDbEntity
100
AcDbLine
8
l_0
10
0.216506414367035
20
0.6538675427436829
30
0
11
0.216506414367035
21
0.4038675129413605
31
0
0
LINE
5
1A
330
11
100
AcDbEntity
100
AcDbLine
8
l_0
10
0.216506414367035
20
0.4038675129413605
30
0
11
5.240567024777931e-8
21
0.2788675129413605
31
0
0
LINE
5
1B
330
11
100
AcDbEntity
100
AcDbLine
8
l_0
10
5.240567024777931e-8
20
0.2788675129413605
30
0
11
5.240567024777931e-8
21
-0.2788675129413605
31
0
0
LINE
5
1C
330
11
100
AcDbEntity
100
AcDbLine
8
l_0
10
5.240567024777931e-8
20
-0.2788675129413605
30
0
11
0.216506414367035
21
-0.4038675129413605
31
0
0
LINE
5
1D
330
11
100
AcDbEntity
100
AcDbLine
8
l_0
10
0.216506414367035
20
-0.4038675129413605
30
0
11
0.216506414367035
21
-0.6538675427436829
31
0
0
LINE
5
1E
330
11
100
AcDbEntity
100
AcDbLine
8
l_0
10
0.216506414367035
20
-0.6538675427436829
30
0
11
0.6995190310014039
21
-0.932735025882721
31
0
0
LINE
5
1F
330
11
100
AcDbEntity
100
AcDbLine
8
l_0
10
0.6995190310014039
20
-0.932735025882721
30
0
11
0.9160253929627686
21
-0.807735025882721
31
0
0
LINE
5
20
330
11
100
AcDbEntity
100
AcDbLine
8
l_0
10
0.9160253929627686
20
-0.807735025882721
30
0
11
1.1325317549241334
21
-0.932735025882721
31
0
0
LINE
5
21
330
11
100
AcDbEntity
100
AcDbLine
8
l_0
10
1.1325317549241334
20
-0.932735025882721
30
0
11
1.6155444609654694
21
-0.6538675427436829
31
0
0
LINE
5
22
330
11
100
AcDbEntity
100
AcDbLine
8
l_0
10
1.6155444609654694
20
-0.6538675427436829
30
0
11
1.6155444609654694
21
-0.4038675129413605
31
0
0
LINE
5
23
330
11
100
AcDbEntity
100
AcDbLine
8
l_0
10
1.6155444609654694
20
-0.4038675129413605
30
0
11
1.8320508229268342
21
-0.2788675129413605
31
0
0
LINE
5
24
330
11
100
AcDbEntity
100
AcDbLine
8
l_0
10
1.8320508229268342
20
-0.2788675129413605
30
0
11
1.8320508229268342
21
0.2788675129413605
31
0
0
LINE
5
25
330
11
100
AcDbEntity
100
AcDbLine
8
l_0
10
1.8320508229268342
20
0.2788675129413605
30
0
11
1.6155444609654694
21
0.4038675129413605
31
0
0
LINE
5
26
330
11
100
AcDbEntity
100
AcDbLine
8
l_0
10
1.6155444609654694
20
0.4038675129413605
30
0
11
1.6155444609654694
21
0.6538675427436829
31
0
0
LINE
5
27
330
11
100
AcDbEntity
100
AcDbLine
8
l_0
10
1.6155444609654694
20
0.6538675427436829
30
0
11
1.1325317549241334
21
0.932735025882721
31
0
0
LINE
5
28
330
11
100
AcDbEntity
100
AcDbLine
8
l_0
10
1.1325317549241334
20
0.932735025882721
30
0
11
1.1090204643739014
21
0.919160783290863
31
0
0
SPLINE
5
29
330
11
100
AcDbEntity
100
AcDbSpline
8
l_0
210
0
220
0
230
1
70
8
71
3
72
8
73
4
74
0
42
1e-7
43
1e-7
44
1e-10
40
0
40
0
40
0
40
0
40
1
40
1
40
1
40
1
10
1.1090204643739014
20
0.919160783290863
30
0
10
1.1119711724452923
20
0.9325252970059713
30
0
10
1.1134465264809876
20
0.9462106625239054
30
0
10
1.1134465264809876
20
0.9602168798446655
30
0
0
SPLINE
5
2A
330
11
100
AcDbEntity
100
AcDbSpline
8
l_0
210
0
220
0
230
1
70
8
71
3
72
8
73
4
74
0
42
1e-7
43
1e-7
44
1e-10
40
0
40
0
40
0
40
0
40
1
40
1
40
1
40
1
10
1.1134465264809876
20
0.9602168798446655
30
0
10
1.1134465264809876
20
0.9859851598739624
30
0
10
1.1084528493417054
20
1.0106672048568726
30
0
10
1.098465495063141
20
1.0342631340026855
30
0
0
SPLINE
5
2B
330
11
100
AcDbEntity
100
AcDbSpline
8
l_0
210
0
220
0
230
1
70
8
71
3
72
8
73
4
74
0
42
1e-7
43
1e-7
44
1e-10
40
0
40
0
40
0
40
0
40
1
40
1
40
1
40
1
10
1.098465495063141
20
1.0342631340026855
30
0
10
1.088833622886017
20
1.0570192337036133
30
0
10
1.0752497541440278
20
1.0771652460098267
30
0
10
1.0577138590348512
20
1.0947010517120361
30
0
0
SPLINE
5
2C
330
11
100
AcDbEntity
100
AcDbSpline
8
l_0
210
0
220
0
230
1
70
8
71
3
72
8
73
4
74
0
42
1e-7
43
1e-7
44
1e-10
40
0
40
0
40
0
40
0
40
1
40
1
40
1
40
1
10
1.0577138590348512
20
1.0947010517120361
30
0
10
1.0401779341233521
20
1.1122369766235352
30
0
10
1.0200319615535687
20
1.1258208751678467
30
0
10
0.9972759413255006
20
1.1354527473449707
30
0
0
SPLINE
5
2D
330
11
100
AcDbEntity
100
AcDbSpline
8
l_0
210
0
220
0
230
1
70
8
71
3
72
8
73
4
74
0
42
1e-7
43
1e-7
44
1e-10
40
0
40
0
40
0
40
0
40
1
40
1
40
1
40
1
10
0.9972759413255006
20
1.1354527473449707
30
0
10
0.9736800916525473
20
1.1454401016235352
30
0
10
0.9489979870649924
20
1.1504337787628174
30
0
10
0.9232296275628358
20
1.1504337787628174
30
0
0
SPLINE
5
2E
330
11
100
AcDbEntity
100
AcDbSpline
8
l_0
210
0
220
0
230
1
70
8
71
3
72
8
73
4
74
0
42
1e-7
43
1e-7
44
1e-10
40
0
40
0
40
0
40
0
40
1
40
1
40
1
40
1
10
0.9232296275628358
20
1.1504337787628174
30
0
10
0.8974613475335389
20
1.1504337787628174
30
0
10
0.8727792628141989
20
1.1454401016235352
30
0
10
0.8491833734048158
20
1.1354527473449707
30
0
0
SPLINE
5
2F
330
11
100
AcDbEntity
100
AcDbSpline
8
l_0
210
0
220
0
230
1
70
8
71
3
72
8
73
4
74
0
42
1e-7
43
1e-7
44
1e-10
40
0
40
0
40
0
40
0
40
1
40
1
40
1
40
1
10
0.8491833734048158
20
1.1354527473449707
30
0
10
0.8264273333085328
20
1.1258208751678467
30
0
10
0.8062813210023194
20
1.1122369766235352
30
0
10
0.7887453960908204
20
1.0947010517120361
30
0
0
SPLINE
5
30
330
11
100
AcDbEntity
100
AcDbSpline
8
l_0
210
0
220
0
230
1
70
8
71
3
72
8
73
4
74
0
42
1e-7
43
1e-7
44
1e-10
40
0
40
0
40
0
40
0
40
1
40
1
40
1
40
1
10
0.7887453960908204
20
1.0947010517120361
30
0
10
0.7712094711793214
20
1.077165126800537
30
0
10
0.7576255726350098
20
1.0570191144943237
30
0
10
0.7479937004578858
20
1.0342631340026855
30
0
0
SPLINE
5
31
330
11
100
AcDbEntity
100
AcDbSpline
8
l_0
210
0
220
0
230
1
70
8
71
3
72
8
73
4
74
0
42
1e-7
43
1e-7
44
1e-10
40
0
40
0
40
0
40
0
40
1
40
1
40
1
40
1
10
0.7479937004578858
20
1.0342631340026855
30
0
10
0.7380063461793214
20
1.0106672048568726
30
0
10
0.7330126690400391
20
0.9859851598739624
30
0
10
0.7330126690400391
20
0.9602168798446655
30
0
0
SPLINE
5
32
330
11
100
AcDbEntity
100
AcDbSpline
8
l_0
210
0
220
0
230
1
70
8
71
3
72
8
73
4
74
0
42
1e-7
43
1e-7
44
1e-10
40
0
40
0
40
0
40
0
40
1
40
1
40
1
40
1
10
0.7330126690400391
20
0.9602168798446655
30
0
10
0.7330126690400391
20
0.9427962899208069
30
0
10
0.7352949904931336
20
0.9258721470832825
30
0
10
0.7398596333993226
20
0.9094443917274475
30
0
0
SPLINE
5
33
330
11
100
AcDbEntity
100
AcDbSpline
8
l_0
210
0
220
0
230
1
70
8
71
3
72
8
73
4
74
0
42
1e-7
43
1e-7
44
1e-10
40
0
40
0
40
0
40
0
40
1
40
1
40
1
40
1
10
1.0134465026391297
20
0.9602168798446655
30
0
10
1.0134465026391297
20
0.9724572896957397
30
0
10
1.0110893475545197
20
0.9841464161872864
30
0
10
1.0063750671876222
20
0.9952843189239502
30
0
0
SPLINE
5
34
330
11
100
AcDbEntity
100
AcDbSpline
8
l_0
210
0
220
0
230
1
70
8
71
3
72
8
73
4
74
0
42
1e-7
43
1e-7
44
1e-10
40
0
40
0
40
0
40
0
40
1
40
1
40
1
40
1
10
1.0063750671876222
20
0.9952843189239502
30
0
10
1.0018082189095765
20
1.0060739517211914
30
0
10
0.9953508901131898
20
1.0156426429748535
30
0
10
0.9870031404031068
20
1.0239903926849365
30
0
0
SPLINE
5
35
330
11
100
AcDbEntity
100
AcDbSpline
8
l_0
210
0
220
0
230
1
70
8
71
3
72
8
73
4
74
0
42
1e-7
43
1e-7
44
1e-10
40
0
40
0
40
0
40
0
40
1
40
1
40
1
40
1
10
0.9870031404031068
20
1.0239903926849365
30
0
10
0.9786553906930238
20
1.0323381423950195
30
0
10
0.9690866994393617
20
1.0387954711914062
30
0
10
0.9582970070374757
20
1.0433623790740967
30
0
0
SPLINE
5
36
330
11
100
AcDbEntity
100
AcDbSpline
8
l_0
210
0
220
0
230
1
70
8
71
3
72
8
73
4
74
0
42
1e-7
43
1e-7
44
1e-10
40
0
40
0
40
0
40
0
40
1
40
1
40
1
40
1
10
0.9582970070374757
20
1.0433623790740967
30
0
10
0.9471590446961671
20
1.0480767488479614
30
0
10
0.9354699182046204
20
1.050433874130249
30
0
10
0.9232296275628358
20
1.050433874130249
30
0
0
SPLINE
5
37
330
11
100
AcDbEntity
100
AcDbSpline
8
l_0
210
0
220
0
230
1
70
8
71
3
72
8
73
4
74
0
42
1e-7
43
1e-7
44
1e-10
40
0
40
0
40
0
40
0
40
1
40
1
40
1
40
1
10
0.9232296275628358
20
1.050433874130249
30
0
10
0.9109892773164063
20
1.050433874130249
30
0
10
0.8993001508248597
20
1.0480767488479614
30
0
10
0.8881621884835511
20
1.0433623790740967
30
0
0
SPLINE
5
38
330
11
100
AcDbEntity
100
AcDbSpline
8
l_0
210
0
220
0
230
1
70
8
71
3
72
8
73
4
74
0
42
1e-7
43
1e-7
44
1e-10
40
0
40
0
40
0
40
0
40
1
40
1
40
1
40
1
10
0.8881621884835511
20
1.0433623790740967
30
0
10
0.8773724960816651
20
1.0387954711914062
30
0
10
0.867803804828003
20
1.0323381423950195
30
0
10
0.85945605511792
20
1.0239903926849365
30
0
0
SPLINE
5
39
330
11
100
AcDbEntity
100
AcDbSpline
8
l_0
210
0
220
0
230
1
70
8
71
3
72
8
73
4
74
0
42
1e-7
43
1e-7
44
1e-10
40
0
40
0
40
0
40
0
40
1
40
1
40
1
40
1
10
0.85945605511792
20
1.0239903926849365
30
0
10
0.8511084246171265
20
1.015642762184143
30
0
10
0.8446511554253846
20
1.006074070930481
30
0
10
0.8400841879380494
20
0.9952843189239502
30
0
0
SPLINE
5
3A
330
11
100
AcDbEntity
100
AcDbSpline
8
l_0
210
0
220
0
230
1
70
8
71
3
72
8
73
4
74
0
42
1e-7
43
1e-7
44
1e-10
40
0
40
0
40
0
40
0
40
1
40
1
40
1
40
1
10
0.8400841879380494
20
0.9952843189239502
30
0
10
0.8353698777688294
20
0.9841463565826416
30
0
10
0.833012692881897
20
0.972457230091095
30
0
10
0.833012692881897
20
0.9602168798446655
30
0
0
SPLINE
5
3B
330
11
100
AcDbEntity
100
AcDbSpline
8
l_0
210
0
220
0
230
1
70
8
71
3
72
8
73
4
74
0
42
1e-7
43
1e-7
44
1e-10
40
0
40
0
40
0
40
0
40
1
40
1
40
1
40
1
10
0.833012692881897
20
0.9602168798446655
30
0
10
0.833012692881897
20
0.9479764103889465
30
0
10
0.8353698181641847
20
0.9362872838973999
30
0
10
0.8400841283334046
20
0.9251495003700256
30
0
0
SPLINE
5
3C
330
11
100
AcDbEntity
100
AcDbSpline
8
l_0
210
0
220
0
230
1
70
8
71
3
72
8
73
4
74
0
42
1e-7
43
1e-7
44
1e-10
40
0
40
0
40
0
40
0
40
1
40
1
40
1
40
1
10
0.8400841283334046
20
0.9251495003700256
30
0
10
0.8446510958207398
20
0.9143597483634949
30
0
10
0.8511083650124818
20
0.9047910571098328
30
0
10
0.85945605511792
20
0.8964433670043945
30
0
0
SPLINE
5
3D
330
11
100
AcDbEntity
100
AcDbSpline
8
l_0
210
0
220
0
230
1
70
8
71
3
72
8
73
4
74
0
42
1e-7
43
1e-7
44
1e-10
40
0
40
0
40
0
40
0
40
1
40
1
40
1
40
1
10
0.85945605511792
20
0.8964433670043945
30
0
10
0.8678037452233582
20
0.8880956768989563
30
0
10
0.8773724364770203
20
0.8816383481025696
30
0
10
0.8881621288789063
20
0.8770714402198792
30
0
0
SPLINE
5
3E
330
11
100
AcDbEntity
100
AcDbSpline
8
l_0
210
0
220
0
230
1
70
8
71
3
72
8
73
4
74
0
42
1e-7
43
1e-7
44
1e-10
40
0
40
0
40
0
40
0
40
1
40
1
40
1
40
1
10
0.8881621288789063
20
0.8770714402198792
30
0
10
0.8993000316155702
20
0.8723571300506592
30
0
10
0.9109891581071168
20
0.8700000047683716
30
0
10
0.9232296275628358
20
0.8700000047683716
30
0
0
SPLINE
5
3F
330
11
100
AcDbEntity
100
AcDbSpline
8
l_0
210
0
220
0
230
1
70
8
71
3
72
8
73
4
74
0
42
1e-7
43
1e-7
44
1e-10
40
0
40
0
40
0
40
0
40
1
40
1
40
1
40
1
10
0.9232296275628358
20
0.8700000047683716
30
0
10
0.93547003741391
20
0.8700000047683716
30
0
10
0.9471591639054566
20
0.8723571300506592
30
0
10
0.9582970666421204
20
0.8770714402198792
30
0
0
SPLINE
5
40
330
11
100
AcDbEntity
100
AcDbSpline
8
l_0
210
0
220
0
230
1
70
8
71
3
72
8
73
4
74
0
42
1e-7
43
1e-7
44
1e-10
40
0
40
0
40
0
40
0
40
1
40
1
40
1
40
1
10
0.9582970666421204
20
0.8770714402198792
30
0
10
0.9690867590440064
20
0.8816382884979248
30
0
10
0.9786554502976685
20
0.8880956172943115
30
0
10
0.9870031404031068
20
0.8964433670043945
30
0
0
SPLINE
5
41
330
11
100
AcDbEntity
100
AcDbSpline
8
l_0
210
0
220
0
230
1
70
8
71
3
72
8
73
4
74
0
42
1e-7
43
1e-7
44
1e-10
40
0
40
0
40
0
40
0
40
1
40
1
40
1
40
1
10
0.9870031404031068
20
0.8964433670043945
30
0
10
0.995350830508545
20
0.9047910571098328
30
0
10
1.0018081593049317
20
0.9143597483634949
30
0
10
1.0063750671876222
20
0.9251494407653809
30
0
0
SPLINE
5
42
330
11
100
AcDbEntity
100
AcDbSpline
8
l_0
210
0
220
0
230
1
70
8
71
3
72
8
73
4
74
0
42
1e-7
43
1e-7
44
1e-10
40
0
40
0
40
0
40
0
40
1
40
1
40
1
40
1
10
1.0063750671876222
20
0.9251494407653809
30
0
10
1.0110893475545197
20
0.9362873435020447
30
0
10
1.0134465026391297
20
0.9479764699935913
30
0
10
1.0134465026391297
20
0.9602168798446655
30
0
0
LINE
5
43
330
11
100
AcDbEntity
100
AcDbLine
8
l_0
10
0.8160253691209107
20
0.75
30
0
11
0.6995190310014039
21
0.817264974117279
31
0
0
LINE
5
44
330
11
100
AcDbEntity
100
AcDbLine
8
l_0
10
0.6995190310014039
20
0.817264974117279
30
0
11
0.31650631899960335
21
0.5961324572563171
31
0
0
LINE
5
45
330
11
100
AcDbEntity
100
AcDbLine
8
l_0
10
0.31650631899960335
20
0.5961324572563171
30
0
11
0.31650631899960335
21
0.46160250902175903
31
0
0
LINE
5
46
330
11
100
AcDbEntity
100
AcDbLine
8
l_0
10
0.31650631899960335
20
0.46160250902175903
30
0
11
0.4830127286446839
21
0.557735025882721
31
0
0
LINE
5
47
330
11
100
AcDbEntity
100
AcDbLine
8
l_0
10
0.4830127286446839
20
0.557735025882721
30
0
11
0.508012704802826
21
0.5433012843132019
31
0
0
LINE
5
48
330
11
100
AcDbEntity
100
AcDbLine
8
l_0
10
0.508012704802826
20
0.5433012843132019
30
0
11
0.6495190190804749
21
0.4616025686264038
31
0
0
LINE
5
49
330
11
100
AcDbEntity
100
AcDbLine
8
l_0
10
0.6495190190804749
20
0.4616025686264038
30
0
11
0.6495190190804749
21
0.6538675427436829
31
0
0
LINE
5
4A
330
11
100
AcDbEntity
100
AcDbLine
8
l_0
10
0.6495190190804749
20
0.6538675427436829
30
0
11
0.8160253691209107
21
0.75
31
0
0
LINE
5
4B
330
11
100
AcDbEntity
100
AcDbLine
8
l_0
10
1.5155444632006436
20
0.4616025388240814
30
0
11
1.5155444632006436
21
0.5961324572563171
31
0
0
LINE
5
4C
330
11
100
AcDbEntity
100
AcDbLine
8
l_0
10
1.5155444632006436
20
0.5961324572563171
30
0
11
1.1325317549241334
21
0.817264974117279
31
0
0
LINE
5
4D
330
11
100
AcDbEntity
100
AcDbLine
8
l_0
10
1.1325317549241334
20
0.817264974117279
30
0
11
1.0160254168046265
21
0.75
31
0
0
LINE
5
4E
330
11
100
AcDbEntity
100
AcDbLine
8
l_0
10
1.0160254168046265
20
0.75
30
0
11
1.1825317668450623
21
0.6538675427436829
31
0
0
LINE
5
4F
330
11
100
AcDbEntity
100
AcDbLine
8
l_0
10
1.1825317668450623
20
0.6538675427436829
30
0
11
1.1825317668450623
21
0.4616025388240814
31
0
0
LINE
5
50
330
11
100
AcDbEntity
100
AcDbLine
8
l_0
10
1.1825317668450623
20
0.4616025388240814
30
0
11
1.3490381168854981
21
0.557735025882721
31
0
0
LINE
5
51
330
11
100
AcDbEntity
100
AcDbLine
8
l_0
10
1.3490381168854981
20
0.557735025882721
30
0
11
1.5155444632006436
21
0.4616025388240814
31
0
0
LINE
5
52
330
11
100
AcDbEntity
100
AcDbLine
8
l_0
10
0.7495190429223328
20
0.4038675129413605
30
0
11
0.9160253929627686
21
0.30773502588272095
31
0
0
LINE
5
53
330
11
100
AcDbEntity
100
AcDbLine
8
l_0
10
0.9160253929627686
20
0.30773502588272095
30
0
11
1.0825317430032044
21
0.4038675129413605
31
0
0
LINE
5
54
330
11
100
AcDbEntity
100
AcDbLine
8
l_0
10
1.0825317430032044
20
0.4038675129413605
30
0
11
1.0825317430032044
21
0.5961324572563171
31
0
0
LINE
5
55
330
11
100
AcDbEntity
100
AcDbLine
8
l_0
10
1.0825317430032044
20
0.5961324572563171
30
0
11
0.9160253929627686
21
0.692264974117279
31
0
0
LINE
5
56
330
11
100
AcDbEntity
100
AcDbLine
8
l_0
10
0.9160253929627686
20
0.692264974117279
30
0
11
0.7495190429223328
21
0.5961325168609619
31
0
0
LINE
5
57
330
11
100
AcDbEntity
100
AcDbLine
8
l_0
10
0.7495190429223328
20
0.5961325168609619
30
0
11
0.7495190429223328
21
0.4038675129413605
31
0
0
LINE
5
58
330
11
100
AcDbEntity
100
AcDbLine
8
l_0
10
0.6495190190804749
20
0.15386749804019928
30
0
11
0.6495190190804749
21
0.3461325168609619
31
0
0
LINE
5
59
330
11
100
AcDbEntity
100
AcDbLine
8
l_0
10
0.6495190190804749
20
0.3461325168609619
30
0
11
0.4830127286446839
21
0.44226497411727905
31
0
0
LINE
5
5A
330
11
100
AcDbEntity
100
AcDbLine
8
l_0
10
0.4830127286446839
20
0.44226497411727905
30
0
11
0.31650631899960335
21
0.34613245725631714
31
0
0
LINE
5
5B
330
11
100
AcDbEntity
100
AcDbLine
8
l_0
10
0.31650631899960335
20
0.34613245725631714
30
0
11
0.31650631899960335
21
0.15386752784252167
31
0
0
LINE
5
5C
330
11
100
AcDbEntity
100
AcDbLine
8
l_0
10
0.31650631899960335
20
0.15386752784252167
30
0
11
0.4830127286446839
21
0.05773501843214035
31
0
0
LINE
5
5D
330
11
100
AcDbEntity
100
AcDbLine
8
l_0
10
0.4830127286446839
20
0.05773501843214035
30
0
11
0.6495190190804749
21
0.15386749804019928
31
0
0
LINE
5
5E
330
11
100
AcDbEntity
100
AcDbLine
8
l_0
10
1.1825317668450623
20
0.3461324870586395
30
0
11
1.1825317668450623
21
0.15386751294136047
31
0
0
LINE
5
5F
330
11
100
AcDbEntity
100
AcDbLine
8
l_0
10
1.1825317668450623
20
0.15386751294136047
30
0
11
1.349038101984337
21
0.05773502588272095
31
0
0
LINE
5
60
330
11
100
AcDbEntity
100
AcDbLine
8
l_0
10
1.349038101984337
20
0.05773502588272095
30
0
11
1.5155444632006436
21
0.15386751294136047
31
0
0
LINE
5
61
330
11
100
AcDbEntity
100
AcDbLine
8
l_0
10
1.5155444632006436
20
0.15386751294136047
30
0
11
1.5155444632006436
21
0.3461324870586395
31
0
0
LINE
5
62
330
11
100
AcDbEntity
100
AcDbLine
8
l_0
10
1.5155444632006436
20
0.3461324870586395
30
0
11
1.3490381168854981
21
0.44226494431495667
31
0
0
LINE
5
63
330
11
100
AcDbEntity
100
AcDbLine
8
l_0
10
1.3490381168854981
20
0.44226494431495667
30
0
11
1.1825317668450623
21
0.3461324870586395
31
0
0
LINE
5
64
330
11
100
AcDbEntity
100
AcDbLine
8
l_0
10
0.383012704802826
20
3.7955940612732775e-9
30
0
11
0.216506414367035
21
0.09613248705863953
31
0
0
LINE
5
65
330
11
100
AcDbEntity
100
AcDbLine
8
l_0
10
0.216506414367035
20
0.09613248705863953
30
0
11
0.216506414367035
21
0.28839749097824097
31
0
0
LINE
5
66
330
11
100
AcDbEntity
100
AcDbLine
8
l_0
10
0.216506414367035
20
0.28839749097824097
30
0
11
0.09999995703823861
21
0.22113247215747833
31
0
0
LINE
5
67
330
11
100
AcDbEntity
100
AcDbLine
8
l_0
10
0.09999995703823861
20
0.22113247215747833
30
0
11
0.09999995703823861
21
-0.22113247215747833
31
0
0
LINE
5
68
330
11
100
AcDbEntity
100
AcDbLine
8
l_0
10
0.09999995703823861
20
-0.22113247215747833
30
0
11
0.216506414367035
21
-0.28839749097824097
31
0
0
LINE
5
69
330
11
100
AcDbEntity
100
AcDbLine
8
l_0
10
0.216506414367035
20
-0.28839749097824097
30
0
11
0.216506414367035
21
-0.09613248705863953
31
0
0
LINE
5
6A
330
11
100
AcDbEntity
100
AcDbLine
8
l_0
10
0.216506414367035
20
-0.09613248705863953
30
0
11
0.24150639052517708
21
-0.08169873058795929
31
0
0
LINE
5
6B
330
11
100
AcDbEntity
100
AcDbLine
8
l_0
10
0.24150639052517708
20
-0.08169873058795929
30
0
11
0.383012704802826
21
3.7955940612732775e-9
31
0
0
LINE
5
6C
330
11
100
AcDbEntity
100
AcDbLine
8
l_0
10
0.8660253810418397
20
0.08660253882408142
30
0
11
0.8660253810418397
21
0.22113250195980072
31
0
0
LINE
5
6D
330
11
100
AcDbEntity
100
AcDbLine
8
l_0
10
0.8660253810418397
20
0.22113250195980072
30
0
11
0.7495190429223328
21
0.2883974611759186
31
0
0
LINE
5
6E
330
11
100
AcDbEntity
100
AcDbLine
8
l_0
10
0.7495190429223328
20
0.2883974611759186
30
0
11
0.7495190429223328
21
0.15386749804019928
31
0
0
LINE
5
6F
330
11
100
AcDbEntity
100
AcDbLine
8
l_0
10
0.7495190429223328
20
0.15386749804019928
30
0
11
0.8660253810418397
21
0.08660253882408142
31
0
0
LINE
5
70
330
11
100
AcDbEntity
100
AcDbLine
8
l_0
10
1.0825317430032044
20
0.15386751294136047
30
0
11
1.0825317430032044
21
0.2883974611759186
31
0
0
LINE
5
71
330
11
100
AcDbEntity
100
AcDbLine
8
l_0
10
1.0825317430032044
20
0.2883974611759186
30
0
11
0.9660254048836976
21
0.22113250195980072
31
0
0
LINE
5
72
330
11
100
AcDbEntity
100
AcDbLine
8
l_0
10
0.9660254048836976
20
0.22113250195980072
30
0
11
0.9660254048836976
21
0.08660253882408142
31
0
0
LINE
5
73
330
11
100
AcDbEntity
100
AcDbLine
8
l_0
10
0.9660254048836976
20
0.08660253882408142
30
0
11
1.0825317430032044
21
0.15386751294136047
31
0
0
LINE
5
74
330
11
100
AcDbEntity
100
AcDbLine
8
l_0
10
1.4490381071997434
20
0
30
0
11
1.6155444609654694
21
-0.09613248705863953
31
0
0
LINE
5
75
330
11
100
AcDbEntity
100
AcDbLine
8
l_0
10
1.6155444609654694
20
-0.09613248705863953
30
0
11
1.6155444609654694
21
-0.2883974611759186
31
0
0
LINE
5
76
330
11
100
AcDbEntity
100
AcDbLine
8
l_0
10
1.6155444609654694
20
-0.2883974611759186
30
0
11
1.7320508139861375
21
-0.22113248705863953
31
0
0
LINE
5
77
330
11
100
AcDbEntity
100
AcDbLine
8
l_0
10
1.7320508139861375
20
-0.22113248705863953
30
0
11
1.7320508139861375
21
0.22113248705863953
31
0
0
LINE
5
78
330
11
100
AcDbEntity
100
AcDbLine
8
l_0
10
1.7320508139861375
20
0.22113248705863953
30
0
11
1.6155444609654694
21
0.2883974611759186
31
0
0
LINE
5
79
330
11
100
AcDbEntity
100
AcDbLine
8
l_0
10
1.6155444609654694
20
0.2883974611759186
30
0
11
1.6155444609654694
21
0.09613248705863953
31
0
0
LINE
5
7A
330
11
100
AcDbEntity
100
AcDbLine
8
l_0
10
1.6155444609654694
20
0.09613248705863953
30
0
11
1.5905444624555856
21
0.08169873058795929
31
0
0
LINE
5
7B
330
11
100
AcDbEntity
100
AcDbLine
8
l_0
10
1.5905444624555856
20
0.08169873058795929
30
0
11
1.4490381071997434
21
0
31
0
0
LINE
5
7C
330
11
100
AcDbEntity
100
AcDbLine
8
l_0
10
0.6995190310014039
20
-0.06726497411727905
30
0
11
0.8160253691209107
21
0
31
0
0
LINE
5
7D
330
11
100
AcDbEntity
100
AcDbLine
8
l_0
10
0.8160253691209107
20
0
30
0
11
0.6995190310014039
21
0.06726498901844025
31
0
0
LINE
5
7E
330
11
100
AcDbEntity
100
AcDbLine
8
l_0
10
0.6995190310014039
20
0.06726498901844025
30
0
11
0.583012692881897
21
0
31
0
0
LINE
5
7F
330
11
100
AcDbEntity
100
AcDbLine
8
l_0
10
0.583012692881897
20
0
30
0
11
0.6995190310014039
21
-0.06726497411727905
31
0
0
LINE
5
80
330
11
100
AcDbEntity
100
AcDbLine
8
l_0
10
1.1325317549241334
20
-0.06726497411727905
30
0
11
1.2490380930436402
21
0
31
0
0
LINE
5
81
330
11
100
AcDbEntity
100
AcDbLine
8
l_0
10
1.2490380930436402
20
0
30
0
11
1.1325317549241334
21
0.06726496666669846
31
0
0
LINE
5
82
330
11
100
AcDbEntity
100
AcDbLine
8
l_0
10
1.1325317549241334
20
0.06726496666669846
30
0
11
1.0160253870023042
21
0
31
0
0
LINE
5
83
330
11
100
AcDbEntity
100
AcDbLine
8
l_0
10
1.0160253870023042
20
0
30
0
11
1.1325317549241334
21
-0.06726497411727905
31
0
0
LINE
5
84
330
11
100
AcDbEntity
100
AcDbLine
8
l_0
10
0.6495190190804749
20
-0.3461325168609619
30
0
11
0.6495190190804749
21
-0.15386749804019928
31
0
0
LINE
5
85
330
11
100
AcDbEntity
100
AcDbLine
8
l_0
10
0.6495190190804749
20
-0.15386749804019928
30
0
11
0.4830127286446839
21
-0.05773501470685005
31
0
0
LINE
5
86
330
11
100
AcDbEntity
100
AcDbLine
8
l_0
10
0.4830127286446839
20
-0.05773501470685005
30
0
11
0.31650631899960335
21
-0.15386752784252167
31
0
0
LINE
5
87
330
11
100
AcDbEntity
100
AcDbLine
8
l_0
10
0.31650631899960335
20
-0.15386752784252167
30
0
11
0.31650631899960335
21
-0.34613245725631714
31
0
0
LINE
5
88
330
11
100
AcDbEntity
100
AcDbLine
8
l_0
10
0.31650631899960335
20
-0.34613245725631714
30
0
11
0.4830127286446839
21
-0.44226497411727905
31
0
0
LINE
5
89
330
11
100
AcDbEntity
100
AcDbLine
8
l_0
10
0.4830127286446839
20
-0.44226497411727905
30
0
11
0.6495190190804749
21
-0.3461325168609619
31
0
0
LINE
5
8A
330
11
100
AcDbEntity
100
AcDbLine
8
l_0
10
1.1825317668450623
20
-0.3461324870586395
30
0
11
1.3490381168854981
21
-0.44226494431495667
31
0
0
LINE
5
8B
330
11
100
AcDbEntity
100
AcDbLine
8
l_0
10
1.3490381168854981
20
-0.44226494431495667
30
0
11
1.5155444632006436
21
-0.3461324870586395
31
0
0
LINE
5
8C
330
11
100
AcDbEntity
100
AcDbLine
8
l_0
10
1.5155444632006436
20
-0.3461324870586395
30
0
11
1.5155444632006436
21
-0.15386751294136047
31
0
0
LINE
5
8D
330
11
100
AcDbEntity
100
AcDbLine
8
l_0
10
1.5155444632006436
20
-0.15386751294136047
30
0
11
1.349038101984337
21
-0.05773502588272095
31
0
0
LINE
5
8E
330
11
100
AcDbEntity
100
AcDbLine
8
l_0
10
1.349038101984337
20
-0.05773502588272095
30
0
11
1.1825317668450623
21
-0.15386751294136047
31
0
0
LINE
5
8F
330
11
100
AcDbEntity
100
AcDbLine
8
l_0
10
1.1825317668450623
20
-0.15386751294136047
30
0
11
1.1825317668450623
21
-0.3461324870586395
31
0
0
LINE
5
90
330
11
100
AcDbEntity
100
AcDbLine
8
l_0
10
1.0825317430032044
20
-0.15386751294136047
30
0
11
0.9660254048836976
21
-0.08660253882408142
31
0
0
LINE
5
91
330
11
100
AcDbEntity
100
AcDbLine
8
l_0
10
0.9660254048836976
20
-0.08660253882408142
30
0
11
0.9660254048836976
21
-0.22113250195980072
31
0
0
LINE
5
92
330
11
100
AcDbEntity
100
AcDbLine
8
l_0
10
0.9660254048836976
20
-0.22113250195980072
30
0
11
1.0825317430032044
21
-0.2883974611759186
31
0
0
LINE
5
93
330
11
100
AcDbEntity
100
AcDbLine
8
l_0
10
1.0825317430032044
20
-0.2883974611759186
30
0
11
1.0825317430032044
21
-0.15386751294136047
31
0
0
LINE
5
94
330
11
100
AcDbEntity
100
AcDbLine
8
l_0
10
0.7495190429223328
20
-0.2883974611759186
30
0
11
0.8660253810418397
21
-0.22113250195980072
31
0
0
LINE
5
95
330
11
100
AcDbEntity
100
AcDbLine
8
l_0
10
0.8660253810418397
20
-0.22113250195980072
30
0
11
0.8660253810418397
21
-0.08660254627466202
31
0
0
LINE
5
96
330
11
100
AcDbEntity
100
AcDbLine
8
l_0
10
0.8660253810418397
20
-0.08660254627466202
30
0
11
0.7495190429223328
21
-0.15386749804019928
31
0
0
LINE
5
97
330
11
100
AcDbEntity
100
AcDbLine
8
l_0
10
0.7495190429223328
20
-0.15386749804019928
30
0
11
0.7495190429223328
21
-0.2883974611759186
31
0
0
LINE
5
98
330
11
100
AcDbEntity
100
AcDbLine
8
l_0
10
0.7495190429223328
20
-0.4038675129413605
30
0
11
0.9160253929627686
21
-0.30773502588272095
31
0
0
LINE
5
99
330
11
100
AcDbEntity
100
AcDbLine
8
l_0
10
0.9160253929627686
20
-0.30773502588272095
30
0
11
1.0825317430032044
21
-0.4038675129413605
31
0
0
LINE
5
9A
330
11
100
AcDbEntity
100
AcDbLine
8
l_0
10
1.0825317430032044
20
-0.4038675129413605
30
0
11
1.0825317430032044
21
-0.5961324572563171
31
0
0
LINE
5
9B
330
11
100
AcDbEntity
100
AcDbLine
8
l_0
10
1.0825317430032044
20
-0.5961324572563171
30
0
11
0.9160253929627686
21
-0.692264974117279
31
0
0
LINE
5
9C
330
11
100
AcDbEntity
100
AcDbLine
8
l_0
10
0.9160253929627686
20
-0.692264974117279
30
0
11
0.7495190429223328
21
-0.5961325168609619
31
0
0
LINE
5
9D
330
11
100
AcDbEntity
100
AcDbLine
8
l_0
10
0.7495190429223328
20
-0.5961325168609619
30
0
11
0.7495190429223328
21
-0.4038675129413605
31
0
0
LINE
5
9E
330
11
100
AcDbEntity
100
AcDbLine
8
l_0
10
0.6495190190804749
20
-0.4616025686264038
30
0
11
0.6495190190804749
21
-0.6538675427436829
31
0
0
LINE
5
9F
330
11
100
AcDbEntity
100
AcDbLine
8
l_0
10
0.6495190190804749
20
-0.6538675427436829
30
0
11
0.8160253691209107
21
-0.75
31
0
0
LINE
5
A0
330
11
100
AcDbEntity
100
AcDbLine
8
l_0
10
0.8160253691209107
20
-0.75
30
0
11
0.6995190310014039
21
-0.817264974117279
31
0
0
LINE
5
A1
330
11
100
AcDbEntity
100
AcDbLine
8
l_0
10
0.6995190310014039
20
-0.817264974117279
30
0
11
0.31650631899960335
21
-0.5961324572563171
31
0
0
LINE
5
A2
330
11
100
AcDbEntity
100
AcDbLine
8
l_0
10
0.31650631899960335
20
-0.5961324572563171
30
0
11
0.31650631899960335
21
-0.46160250902175903
31
0
0
LINE
5
A3
330
11
100
AcDbEntity
100
AcDbLine
8
l_0
10
0.31650631899960335
20
-0.46160250902175903
30
0
11
0.4830127286446839
21
-0.557735025882721
31
0
0
LINE
5
A4
330
11
100
AcDbEntity
100
AcDbLine
8
l_0
10
0.4830127286446839
20
-0.557735025882721
30
0
11
0.6495190190804749
21
-0.4616025686264038
31
0
0
LINE
5
A5
330
11
100
AcDbEntity
100
AcDbLine
8
l_0
10
1.0160254168046265
20
-0.75
30
0
11
1.1325317549241334
21
-0.817264974117279
31
0
0
LINE
5
A6
330
11
100
AcDbEntity
100
AcDbLine
8
l_0
10
1.1325317549241334
20
-0.817264974117279
30
0
11
1.5155444632006436
21
-0.5961324572563171
31
0
0
LINE
5
A7
330
11
100
AcDbEntity
100
AcDbLine
8
l_0
10
1.5155444632006436
20
-0.5961324572563171
30
0
11
1.5155444632006436
21
-0.4616025388240814
31
0
0
LINE
5
A8
330
11
100
AcDbEntity
100
AcDbLine
8
l_0
10
1.5155444632006436
20
-0.4616025388240814
30
0
11
1.3490381168854981
21
-0.557735025882721
31
0
0
LINE
5
A9
330
11
100
AcDbEntity
100
AcDbLine
8
l_0
10
1.3490381168854981
20
-0.557735025882721
30
0
11
1.3240381109250337
21
-0.5433012843132019
31
0
0
LINE
5
AA
330
11
100
AcDbEntity
100
AcDbLine
8
l_0
10
1.3240381109250337
20
-0.5433012843132019
30
0
11
1.1825317668450623
21
-0.4616025686264038
31
0
0
LINE
5
AB
330
11
100
AcDbEntity
100
AcDbLine
8
l_0
10
1.1825317668450623
20
-0.4616025686264038
30
0
11
1.1825317668450623
21
-0.6538675427436829
31
0
0
LINE
5
AC
330
11
100
AcDbEntity
100
AcDbLine
8
l_0
10
1.1825317668450623
20
-0.6538675427436829
30
0
11
1.0160254168046265
21
-0.75
31
0
0
LINE
5
AD
330
11
100
AcDbEntity
100
AcDbLine
8
l_0
10
-1.2601403666006776
20
0.9094443917274475
30
0
11
-1.3004809689985963
21
0.932735025882721
31
0
0
LINE
5
AE
330
11
100
AcDbEntity
100
AcDbLine
8
l_0
10
-1.3004809689985963
20
0.932735025882721
30
0
11
-1.7834935856329652
21
0.6538675427436829
31
0
0
LINE
5
AF
330
11
100
AcDbEntity
100
AcDbLine
8
l_0
10
-1.7834935856329652
20
0.6538675427436829
30
0
11
-1.7834935856329652
21
0.4038675129413605
31
0
0
LINE
5
B0
330
11
100
AcDbEntity
100
AcDbLine
8
l_0
10
-1.7834935856329652
20
0.4038675129413605
30
0
11
-1.99999994759433
21
0.2788675129413605
31
0
0
LINE
5
B1
330
11
100
AcDbEntity
100
AcDbLine
8
l_0
10
-1.99999994759433
20
0.2788675129413605
30
0
11
-1.99999994759433
21
-0.2788675129413605
31
0
0
LINE
5
B2
330
11
100
AcDbEntity
100
AcDbLine
8
l_0
10
-1.99999994759433
20
-0.2788675129413605
30
0
11
-1.7834935856329652
21
-0.4038675129413605
31
0
0
LINE
5
B3
330
11
100
AcDbEntity
100
AcDbLine
8
l_0
10
-1.7834935856329652
20
-0.4038675129413605
30
0
11
-1.7834935856329652
21
-0.6538675427436829
31
0
0
LINE
5
B4
330
11
100
AcDbEntity
100
AcDbLine
8
l_0
10
-1.7834935856329652
20
-0.6538675427436829
30
0
11
-1.3004809689985963
21
-0.932735025882721
31
0
0
LINE
5
B5
330
11
100
AcDbEntity
100
AcDbLine
8
l_0
10
-1.3004809689985963
20
-0.932735025882721
30
0
11
-1.0839746070372316
21
-0.807735025882721
31
0
0
LINE
5
B6
330
11
100
AcDbEntity
100
AcDbLine
8
l_0
10
-1.0839746070372316
20
-0.807735025882721
30
0
11
-0.8674682450758668
21
-0.932735025882721
31
0
0
LINE
5
B7
330
11
100
AcDbEntity
100
AcDbLine
8
l_0
10
-0.8674682450758668
20
-0.932735025882721
30
0
11
-0.3844555390345308
21
-0.6538675427436829
31
0
0
LINE
5
B8
330
11
100
AcDbEntity
100
AcDbLine
8
l_0
10
-0.3844555390345308
20
-0.6538675427436829
30
0
11
-0.3844555390345308
21
-0.4038675129413605
31
0
0
LINE
5
B9
330
11
100
AcDbEntity
100
AcDbLine
8
l_0
10
-0.3844555390345308
20
-0.4038675129413605
30
0
11
-0.16794917707316603
21
-0.2788675129413605
31
0
0
LINE
5
BA
330
11
100
AcDbEntity
100
AcDbLine
8
l_0
10
-0.16794917707316603
20
-0.2788675129413605
30
0
11
-0.16794917707316603
21
0.2788675129413605
31
0
0
LINE
5
BB
330
11
100
AcDbEntity
100
AcDbLine
8
l_0
10
-0.16794917707316603
20
0.2788675129413605
30
0
11
-0.3844555390345308
21
0.4038675129413605
31
0
0
LINE
5
BC
330
11
100
AcDbEntity
100
AcDbLine
8
l_0
10
-0.3844555390345308
20
0.4038675129413605
30
0
11
-0.3844555390345308
21
0.6538675427436829
31
0
0
LINE
5
BD
330
11
100
AcDbEntity
100
AcDbLine
8
l_0
10
-0.3844555390345308
20
0.6538675427436829
30
0
11
-0.8674682450758668
21
0.932735025882721
31
0
0
LINE
5
BE
330
11
100
AcDbEntity
100
AcDbLine
8
l_0
10
-0.8674682450758668
20
0.932735025882721
30
0
11
-0.8909795356260988
21
0.919160783290863
31
0
0
SPLINE
5
BF
330
11
100
AcDbEntity
100
AcDbSpline
8
l_0
210
0
220
0
230
1
70
8
71
3
72
8
73
4
74
0
42
1e-7
43
1e-7
44
1e-10
40
0
40
0
40
0
40
0
40
1
40
1
40
1
40
1
10
-0.8909795356260988
20
0.919160783290863
30
0
10
-0.888028827554708
20
0.9325252970059713
30
0
10
-0.8865534735190126
20
0.9462106625239054
30
0
10
-0.8865534735190126
20
0.9602168798446655
30
0
0
SPLINE
5
C0
330
11
100
AcDbEntity
100
AcDbSpline
8
l_0
210
0
220
0
230
1
70
8
71
3
72
8
73
4
74
0
42
1e-7
43
1e-7
44
1e-10
40
0
40
0
40
0
40
0
40
1
40
1
40
1
40
1
10
-0.8865534735190126
20
0.9602168798446655
30
0
10
-0.8865534735190126
20
0.9859851598739624
30
0
10
-0.8915471506582948
20
1.0106672048568726
30
0
10
-0.9015345049368593
20
1.0342631340026855
30
0
0
SPLINE
5
C1
330
11
100
AcDbEntity
100
AcDbSpline
8
l_0
210
0
220
0
230
1
70
8
71
3
72
8
73
4
74
0
42
1e-7
43
1e-7
44
1e-10
40
0
40
0
40
0
40
0
40
1
40
1
40
1
40
1
10
-0.9015345049368593
20
1.0342631340026855
30
0
10
-0.9111663771139833
20
1.0570192337036133
30
0
10
-0.9247502458559724
20
1.0771652460098267
30
0
10
-0.9422861409651491
20
1.0947010517120361
30
0
0
SPLINE
5
C2
330
11
100
AcDbEntity
100
AcDbSpline
8
l_0
210
0
220
0
230
1
70
8
71
3
72
8
73
4
74
0
42
1e-7
43
1e-7
44
1e-10
40
0
40
0
40
0
40
0
40
1
40
1
40
1
40
1
10
-0.9422861409651491
20
1.0947010517120361
30
0
10
-0.9598220658766481
20
1.1122369766235352
30
0
10
-0.9799680384464317
20
1.1258208751678467
30
0
10
-1.0027240586744997
20
1.1354527473449707
30
0
0
SPLINE
5
C3
330
11
100
AcDbEntity
100
AcDbSpline
8
l_0
210
0
220
0
230
1
70
8
71
3
72
8
73
4
74
0
42
1e-7
43
1e-7
44
1e-10
40
0
40
0
40
0
40
0
40
1
40
1
40
1
40
1
10
-1.0027240586744997
20
1.1354527473449707
30
0
10
-1.026319908347453
20
1.1454401016235352
30
0
10
-1.051002012935008
20
1.1504337787628174
30
0
10
-1.0767703724371644
20
1.1504337787628174
30
0
0
SPLINE
5
C4
330
11
100
AcDbEntity
100
AcDbSpline
8
l_0
210
0
220
0
230
1
70
8
71
3
72
8
73
4
74
0
42
1e-7
43
1e-7
44
1e-10
40
0
40
0
40
0
40
0
40
1
40
1
40
1
40
1
10
-1.0767703724371644
20
1.1504337787628174
30
0
10
-1.1025386524664613
20
1.1504337787628174
30
0
10
-1.1272207371858014
20
1.1454401016235352
30
0
10
-1.1508166265951845
20
1.1354527473449707
30
0
0
SPLINE
5
C5
330
11
100
AcDbEntity
100
AcDbSpline
8
l_0
210
0
220
0
230
1
70
8
71
3
72
8
73
4
74
0
42
1e-7
43
1e-7
44
1e-10
40
0
40
0
40
0
40
0
40
1
40
1
40
1
40
1
10
-1.1508166265951845
20
1.1354527473449707
30
0
10
-1.1735726666914674
20
1.1258208751678467
30
0
10
-1.1937186789976808
20
1.1122369766235352
30
0
10
-1.2112546039091798
20
1.0947010517120361
30
0
0
SPLINE
5
C6
330
11
100
AcDbEntity
100
AcDbSpline
8
l_0
210
0
220
0
230
1
70
8
71
3
72
8
73
4
74
0
42
1e-7
43
1e-7
44
1e-10
40
0
40
0
40
0
40
0
40
1
40
1
40
1
40
1
10
-1.2112546039091798
20
1.0947010517120361
30
0
10
-1.2287905288206789
20
1.077165126800537
30
0
10
-1.2423744273649904
20
1.0570191144943237
30
0
10
-1.2520062995421144
20
1.0342631340026855
30
0
0
SPLINE
5
C7
330
11
100
AcDbEntity
100
AcDbSpline
8
l_0
210
0
220
0
230
1
70
8
71
3
72
8
73
4
74
0
42
1e-7
43
1e-7
44
1e-10
40
0
40
0
40
0
40
0
40
1
40
1
40
1
40
1
10
-1.2520062995421144
20
1.0342631340026855
30
0
10
-1.2619936538206789
20
1.0106672048568726
30
0
10
-1.266987330959961
20
0.9859851598739624
30
0
10
-1.266987330959961
20
0.9602168798446655
30
0
0
SPLINE
5
C8
330
11
100
AcDbEntity
100
AcDbSpline
8
l_0
210
0
220
0
230
1
70
8
71
3
72
8
73
4
74
0
42
1e-7
43
1e-7
44
1e-10
40
0
40
0
40
0
40
0
40
1
40
1
40
1
40
1
10
-1.266987330959961
20
0.9602168798446655
30
0
10
-1.266987330959961
20
0.9427962899208069
30
0
10
-1.2647050095068666
20
0.9258721470832825
30
0
10
-1.2601403666006776
20
0.9094443917274475
30
0
0
SPLINE
5
C9
330
11
100
AcDbEntity
100
AcDbSpline
8
l_0
210
0
220
0
230
1
70
8
71
3
72
8
73
4
74
0
42
1e-7
43
1e-7
44
1e-10
40
0
40
0
40
0
40
0
40
1
40
1
40
1
40
1
10
-0.9865534973608705
20
0.9602168798446655
30
0
10
-0.9865534973608705
20
0.9724572896957397
30
0
10
-0.9889106524454805
20
0.9841464161872864
30
0
10
-0.9936249328123781
20
0.9952843189239502
30
0
0
SPLINE
5
CA
330
11
100
AcDbEntity
100
AcDbSpline
8
l_0
210
0
220
0
230
1
70
8
71
3
72
8
73
4
74
0
42
1e-7
43
1e-7
44
1e-10
40
0
40
0
40
0
40
0
40
1
40
1
40
1
40
1
10
-0.9936249328123781
20
0.9952843189239502
30
0
10
-0.9981917810904237
20
1.0060739517211914
30
0
10
-1.0046491098868104
20
1.0156426429748535
30
0
10
-1.0129968595968935
20
1.0239903926849365
30
0
0
SPLINE
5
CB
330
11
100
AcDbEntity
100
AcDbSpline
8
l_0
210
0
220
0
230
1
70
8
71
3
72
8
73
4
74
0
42
1e-7
43
1e-7
44
1e-10
40
0
40
0
40
0
40
0
40
1
40
1
40
1
40
1
10
-1.0129968595968935
20
1.0239903926849365
30
0
10
-1.0213446093069765
20
1.0323381423950195
30
0
10
-1.0309133005606386
20
1.0387954711914062
30
0
10
-1.0417029929625246
20
1.0433623790740967
30
0
0
SPLINE
5
CC
330
11
100
AcDbEntity
100
AcDbSpline
8
l_0
210
0
220
0
230
1
70
8
71
3
72
8
73
4
74
0
42
1e-7
43
1e-7
44
1e-10
40
0
40
0
40
0
40
0
40
1
40
1
40
1
40
1
10
-1.0417029929625246
20
1.0433623790740967
30
0
10
-1.0528409553038331
20
1.0480767488479614
30
0
10
-1.0645300817953798
20
1.050433874130249
30
0
10
-1.0767703724371644
20
1.050433874130249
30
0
0
SPLINE
5
CD
330
11
100
AcDbEntity
100
AcDbSpline
8
l_0
210
0
220
0
230
1
70
8
71
3
72
8
73
4
74
0
42
1e-7
43
1e-7
44
1e-10
40
0
40
0
40
0
40
0
40
1
40
1
40
1
40
1
10
-1.0767703724371644
20
1.050433874130249
30
0
10
-1.089010722683594
20
1.050433874130249
30
0
10
-1.1006998491751405
20
1.0480767488479614
30
0
10
-1.1118378115164491
20
1.0433623790740967
30
0
0
SPLINE
5
CE
330
11
100
AcDbEntity
100
AcDbSpline
8
l_0
210
0
220
0
230
1
70
8
71
3
72
8
73
4
74
0
42
1e-7
43
1e-7
44
1e-10
40
0
40
0
40
0
40
0
40
1
40
1
40
1
40
1
10
-1.1118378115164491
20
1.0433623790740967
30
0
10
-1.122627503918335
20
1.0387954711914062
30
0
10
-1.1321961951719972
20
1.0323381423950195
30
0
10
-1.1405439448820802
20
1.0239903926849365
30
0
0
SPLINE
5
CF
330
11
100
AcDbEntity
100
AcDbSpline
8
l_0
210
0
220
0
230
1
70
8
71
3
72
8
73
4
74
0
42
1e-7
43
1e-7
44
1e-10
40
0
40
0
40
0
40
0
40
1
40
1
40
1
40
1
10
-1.1405439448820802
20
1.0239903926849365
30
0
10
-1.1488915753828737
20
1.015642762184143
30
0
10
-1.1553488445746156
20
1.006074070930481
30
0
10
-1.1599158120619508
20
0.9952843189239502
30
0
0
SPLINE
5
D0
330
11
100
AcDbEntity
100
AcDbSpline
8
l_0
210
0
220
0
230
1
70
8
71
3
72
8
73
4
74
0
42
1e-7
43
1e-7
44
1e-10
40
0
40
0
40
0
40
0
40
1
40
1
40
1
40
1
10
-1.1599158120619508
20
0.9952843189239502
30
0
10
-1.1646301222311708
20
0.9841463565826416
30
0
10
-1.1669873071181032
20
0.972457230091095
30
0
10
-1.1669873071181032
20
0.9602168798446655
30
0
0
SPLINE
5
D1
330
11
100
AcDbEntity
100
AcDbSpline
8
l_0
210
0
220
0
230
1
70
8
71
3
72
8
73
4
74
0
42
1e-7
43
1e-7
44
1e-10
40
0
40
0
40
0
40
0
40
1
40
1
40
1
40
1
10
-1.1669873071181032
20
0.9602168798446655
30
0
10
-1.1669873071181032
20
0.9479764103889465
30
0
10
-1.1646301818358156
20
0.9362872838973999
30
0
10
-1.1599158716665956
20
0.9251495003700256
30
0
0
SPLINE
5
D2
330
11
100
AcDbEntity
100
AcDbSpline
8
l_0
210
0
220
0
230
1
70
8
71
3
72
8
73
4
74
0
42
1e-7
43
1e-7
44
1e-10
40
0
40
0
40
0
40
0
40
1
40
1
40
1
40
1
10
-1.1599158716665956
20
0.9251495003700256
30
0
10
-1.1553489041792604
20
0.9143597483634949
30
0
10
-1.1488916349875185
20
0.9047910571098328
30
0
10
-1.1405439448820802
20
0.8964433670043945
30
0
0
SPLINE
5
D3
330
11
100
AcDbEntity
100
AcDbSpline
8
l_0
210
0
220
0
230
1
70
8
71
3
72
8
73
4
74
0
42
1e-7
43
1e-7
44
1e-10
40
0
40
0
40
0
40
0
40
1
40
1
40
1
40
1
10
-1.1405439448820802
20
0.8964433670043945
30
0
10
-1.132196254776642
20
0.8880956768989563
30
0
10
-1.1226275635229799
20
0.8816383481025696
30
0
10
-1.111837871121094
20
0.8770714402198792
30
0
0
SPLINE
5
D4
330
11
100
AcDbEntity
100
AcDbSpline
8
l_0
210
0
220
0
230
1
70
8
71
3
72
8
73
4
74
0
42
1e-7
43
1e-7
44
1e-10
40
0
40
0
40
0
40
0
40
1
40
1
40
1
40
1
10
-1.111837871121094
20
0.8770714402198792
30
0
10
-1.10069996838443
20
0.8723571300506592
30
0
10
-1.0890108418928834
20
0.8700000047683716
30
0
10
-1.0767703724371644
20
0.8700000047683716
30
0
0
SPLINE
5
D5
330
11
100
AcDbEntity
100
AcDbSpline
8
l_0
210
0
220
0
230
1
70
8
71
3
72
8
73
4
74
0
42
1e-7
43
1e-7
44
1e-10
40
0
40
0
40
0
40
0
40
1
40
1
40
1
40
1
10
-1.0767703724371644
20
0.8700000047683716
30
0
10
-1.0645299625860902
20
0.8700000047683716
30
0
10
-1.0528408360945436
20
0.8723571300506592
30
0
10
-1.0417029333578798
20
0.8770714402198792
30
0
0
SPLINE
5
D6
330
11
100
AcDbEntity
100
AcDbSpline
8
l_0
210
0
220
0
230
1
70
8
71
3
72
8
73
4
74
0
42
1e-7
43
1e-7
44
1e-10
40
0
40
0
40
0
40
0
40
1
40
1
40
1
40
1
10
-1.0417029333578798
20
0.8770714402198792
30
0
10
-1.0309132409559938
20
0.8816382884979248
30
0
10
-1.0213445497023317
20
0.8880956172943115
30
0
10
-1.0129968595968935
20
0.8964433670043945
30
0
0
SPLINE
5
D7
330
11
100
AcDbEntity
100
AcDbSpline
8
l_0
210
0
220
0
230
1
70
8
71
3
72
8
73
4
74
0
42
1e-7
43
1e-7
44
1e-10
40
0
40
0
40
0
40
0
40
1
40
1
40
1
40
1
10
-1.0129968595968935
20
0.8964433670043945
30
0
10
-1.0046491694914552
20
0.9047910571098328
30
0
10
-0.9981918406950685
20
0.9143597483634949
30
0
10
-0.9936249328123781
20
0.9251494407653809
30
0
0
SPLINE
5
D8
330
11
100
AcDbEntity
100
AcDbSpline
8
l_0
210
0
220
0
230
1
70
8
71
3
72
8
73
4
74
0
42
1e-7
43
1e-7
44
1e-10
40
0
40
0
40
0
40
0
40
1
40
1
40
1
40
1
10
-0.9936249328123781
20
0.9251494407653809
30
0
10
-0.9889106524454805
20
0.9362873435020447
30
0
10
-0.9865534973608705
20
0.9479764699935913
30
0
10
-0.9865534973608705
20
0.9602168798446655
30
0
0
LINE
5
D9
330
11
100
AcDbEntity
100
AcDbLine
8
l_0
10
-1.1839746308790895
20
0.75
30
0
11
-1.3004809689985963
21
0.817264974117279
31
0
0
LINE
5
DA
330
11
100
AcDbEntity
100
AcDbLine
8
l_0
10
-1.3004809689985963
20
0.817264974117279
30
0
11
-1.6834936810003969
21
0.5961324572563171
31
0
0
LINE
5
DB
330
11
100
AcDbEntity
100
AcDbLine
8
l_0
10
-1.6834936810003969
20
0.5961324572563171
30
0
11
-1.6834936810003969
21
0.46160250902175903
31
0
0
LINE
5
DC
330
11
100
AcDbEntity
100
AcDbLine
8
l_0
10
-1.6834936810003969
20
0.46160250902175903
30
0
11
-1.5169872713553163
21
0.557735025882721
31
0
0
LINE
5
DD
330
11
100
AcDbEntity
100
AcDbLine
8
l_0
10
-1.5169872713553163
20
0.557735025882721
30
0
11
-1.4919872951971742
21
0.5433012843132019
31
0
0
LINE
5
DE
330
11
100
AcDbEntity
100
AcDbLine
8
l_0
10
-1.4919872951971742
20
0.5433012843132019
30
0
11
-1.3504809809195253
21
0.4616025686264038
31
0
0
LINE
5
DF
330
11
100
AcDbEntity
100
AcDbLine
8
l_0
10
-1.3504809809195253
20
0.4616025686264038
30
0
11
-1.3504809809195253
21
0.6538675427436829
31
0
0
LINE
5
E0
330
11
100
AcDbEntity
100
AcDbLine
8
l_0
10
-1.3504809809195253
20
0.6538675427436829
30
0
11
-1.1839746308790895
21
0.75
31
0
0
LINE
5
E1
330
11
100
AcDbEntity
100
AcDbLine
8
l_0
10
-0.4844555367993566
20
0.4616025388240814
30
0
11
-0.4844555367993566
21
0.5961324572563171
31
0
0
LINE
5
E2
330
11
100
AcDbEntity
100
AcDbLine
8
l_0
10
-0.4844555367993566
20
0.5961324572563171
30
0
11
-0.8674682450758668
21
0.817264974117279
31
0
0
LINE
5
E3
330
11
100
AcDbEntity
100
AcDbLine
8
l_0
10
-0.8674682450758668
20
0.817264974117279
30
0
11
-0.9839745831953737
21
0.75
31
0
0
LINE
5
E4
330
11
100
AcDbEntity
100
AcDbLine
8
l_0
10
-0.9839745831953737
20
0.75
30
0
11
-0.8174682331549379
21
0.6538675427436829
31
0
0
LINE
5
E5
330
11
100
AcDbEntity
100
AcDbLine
8
l_0
10
-0.8174682331549379
20
0.6538675427436829
30
0
11
-0.8174682331549379
21
0.4616025388240814
31
0
0
LINE
5
E6
330
11
100
AcDbEntity
100
AcDbLine
8
l_0
10
-0.8174682331549379
20
0.4616025388240814
30
0
11
-0.6509618831145021
21
0.557735025882721
31
0
0
LINE
5
E7
330
11
100
AcDbEntity
100
AcDbLine
8
l_0
10
-0.6509618831145021
20
0.557735025882721
30
0
11
-0.4844555367993566
21
0.4616025388240814
31
0
0
LINE
5
E8
330
11
100
AcDbEntity
100
AcDbLine
8
l_0
10
-1.2504809570776674
20
0.4038675129413605
30
0
11
-1.0839746070372316
21
0.30773502588272095
31
0
0
LINE
5
E9
330
11
100
AcDbEntity
100
AcDbLine
8
l_0
10
-1.0839746070372316
20
0.30773502588272095
30
0
11
-0.9174682569967958
21
0.4038675129413605
31
0
0
LINE
5
EA
330
11
100
AcDbEntity
100
AcDbLine
8
l_0
10
-0.9174682569967958
20
0.4038675129413605
30
0
11
-0.9174682569967958
21
0.5961324572563171
31
0
0
LINE
5
EB
330
11
100
AcDbEntity
100
AcDbLine
8
l_0
10
-0.9174682569967958
20
0.5961324572563171
30
0
11
-1.0839746070372316
21
0.692264974117279
31
0
0
LINE
5
EC
330
11
100
AcDbEntity
100
AcDbLine
8
l_0
10
-1.0839746070372316
20
0.692264974117279
30
0
11
-1.2504809570776674
21
0.5961325168609619
31
0
0
LINE
5
ED
330
11
100
AcDbEntity
100
AcDbLine
8
l_0
10
-1.2504809570776674
20
0.5961325168609619
30
0
11
-1.2504809570776674
21
0.4038675129413605
31
0
0
LINE
5
EE
330
11
100
AcDbEntity
100
AcDbLine
8
l_0
10
-1.3504809809195253
20
0.15386749804019928
30
0
11
-1.3504809809195253
21
0.3461325168609619
31
0
0
LINE
5
EF
330
11
100
AcDbEntity
100
AcDbLine
8
l_0
10
-1.3504809809195253
20
0.3461325168609619
30
0
11
-1.5169872713553163
21
0.44226497411727905
31
0
0
LINE
5
F0
330
11
100
AcDbEntity
100
AcDbLine
8
l_0
10
-1.5169872713553163
20
0.44226497411727905
30
0
11
-1.6834936810003969
21
0.34613245725631714
31
0
0
LINE
5
F1
330
11
100
AcDbEntity
100
AcDbLine
8
l_0
10
-1.6834936810003969
20
0.34613245725631714
30
0
11
-1.6834936810003969
21
0.15386752784252167
31
0
0
LINE
5
F2
330
11
100
AcDbEntity
100
AcDbLine
8
l_0
10
-1.6834936810003969
20
0.15386752784252167
30
0
11
-1.5169872713553163
21
0.05773501843214035
31
0
0
LINE
5
F3
330
11
100
AcDbEntity
100
AcDbLine
8
l_0
10
-1.5169872713553163
20
0.05773501843214035
30
0
11
-1.3504809809195253
21
0.15386749804019928
31
0
0
LINE
5
F4
330
11
100
AcDbEntity
100
AcDbLine
8
l_0
10
-0.8174682331549379
20
0.3461324870586395
30
0
11
-0.8174682331549379
21
0.15386751294136047
31
0
0
LINE
5
F5
330
11
100
AcDbEntity
100
AcDbLine
8
l_0
10
-0.8174682331549379
20
0.15386751294136047
30
0
11
-0.6509618980156633
21
0.05773502588272095
31
0
0
LINE
5
F6
330
11
100
AcDbEntity
100
AcDbLine
8
l_0
10
-0.6509618980156633
20
0.05773502588272095
30
0
11
-0.4844555367993566
21
0.15386751294136047
31
0
0
LINE
5
F7
330
11
100
AcDbEntity
100
AcDbLine
8
l_0
10
-0.4844555367993566
20
0.15386751294136047
30
0
11
-0.4844555367993566
21
0.3461324870586395
31
0
0
LINE
5
F8
330
11
100
AcDbEntity
100
AcDbLine
8
l_0
10
-0.4844555367993566
20
0.3461324870586395
30
0
11
-0.6509618831145021
21
0.44226494431495667
31
0
0
LINE
5
F9
330
11
100
AcDbEntity
100
AcDbLine
8
l_0
10
-0.6509618831145021
20
0.44226494431495667
30
0
11
-0.8174682331549379
21
0.3461324870586395
31
0
0
LINE
5
FA
330
11
100
AcDbEntity
100
AcDbLine
8
l_0
10
-1.6169872951971742
20
3.7955940612732775e-9
30
0
11
-1.7834935856329652
21
0.09613248705863953
31
0
0
LINE
5
FB
330
11
100
AcDbEntity
100
AcDbLine
8
l_0
10
-1.7834935856329652
20
0.09613248705863953
30
0
11
-1.7834935856329652
21
0.28839749097824097
31
0
0
LINE
5
FC
330
11
100
AcDbEntity
100
AcDbLine
8
l_0
10
-1.7834935856329652
20
0.28839749097824097
30
0
11
-1.9000000429617616
21
0.22113247215747833
31
0
0
LINE
5
FD
330
11
100
AcDbEntity
100
AcDbLine
8
l_0
10
-1.9000000429617616
20
0.22113247215747833
30
0
11
-1.9000000429617616
21
-0.22113247215747833
31
0
0
LINE
5
FE
330
11
100
AcDbEntity
100
AcDbLine
8
l_0
10
-1.9000000429617616
20
-0.22113247215747833
30
0
11
-1.7834935856329652
21
-0.28839749097824097
31
0
0
LINE
5
FF
330
11
100
AcDbEntity
100
AcDbLine
8
l_0
10
-1.7834935856329652
20
-0.28839749097824097
30
0
11
-1.7834935856329652
21
-0.09613248705863953
31
0
0
LINE
5
100
330
11
100
AcDbEntity
100
AcDbLine
8
l_0
10
-1.7834935856329652
20
-0.09613248705863953
30
0
11
-1.7584936094748231
21
-0.08169873058795929
31
0
0
LINE
5
101
330
11
100
AcDbEntity
100
AcDbLine
8
l_0
10
-1.7584936094748231
20
-0.08169873058795929
30
0
11
-1.6169872951971742
21
3.7955940612732775e-9
31
0
0
LINE
5
102
330
11
100
AcDbEntity
100
AcDbLine
8
l_0
10
-1.1339746189581605
20
0.08660253882408142
30
0
11
-1.1339746189581605
21
0.22113250195980072
31
0
0
LINE
5
103
330
11
100
AcDbEntity
100
AcDbLine
8
l_0
10
-1.1339746189581605
20
0.22113250195980072
30
0
11
-1.2504809570776674
21
0.2883974611759186
31
0
0
LINE
5
104
330
11
100
AcDbEntity
100
AcDbLine
8
l_0
10
-1.2504809570776674
20
0.2883974611759186
30
0
11
-1.2504809570776674
21
0.15386749804019928
31
0
0
LINE
5
105
330
11
100
AcDbEntity
100
AcDbLine
8
l_0
10
-1.2504809570776674
20
0.15386749804019928
30
0
11
-1.1339746189581605
21
0.08660253882408142
31
0
0
LINE
5
106
330
11
100
AcDbEntity
100
AcDbLine
8
l_0
10
-0.9174682569967958
20
0.15386751294136047
30
0
11
-0.9174682569967958
21
0.2883974611759186
31
0
0
LINE
5
107
330
11
100
AcDbEntity
100
AcDbLine
8
l_0
10
-0.9174682569967958
20
0.2883974611759186
30
0
11
-1.0339745951163026
21
0.22113250195980072
31
0
0
LINE
5
108
330
11
100
AcDbEntity
100
AcDbLine
8
l_0
10
-1.0339745951163026
20
0.22113250195980072
30
0
11
-1.0339745951163026
21
0.08660253882408142
31
0
0
LINE
5
109
330
11
100
AcDbEntity
100
AcDbLine
8
l_0
10
-1.0339745951163026
20
0.08660253882408142
30
0
11
-0.9174682569967958
21
0.15386751294136047
31
0
0
LINE
5
10A
330
11
100
AcDbEntity
100
AcDbLine
8
l_0
10
-0.5509618928002569
20
0
30
0
11
-0.3844555390345308
21
-0.09613248705863953
31
0
0
LINE
5
10B
330
11
100
AcDbEntity
100
AcDbLine
8
l_0
10
-0.3844555390345308
20
-0.09613248705863953
30
0
11
-0.3844555390345308
21
-0.2883974611759186
31
0
0
LINE
5
10C
330
11
100
AcDbEntity
100
AcDbLine
8
l_0
10
-0.3844555390345308
20
-0.2883974611759186
30
0
11
-0.26794918601386275
21
-0.22113248705863953
31
0
0
LINE
5
10D
330
11
100
AcDbEntity
100
AcDbLine
8
l_0
10
-0.26794918601386275
20
-0.22113248705863953
30
0
11
-0.26794918601386275
21
0.22113248705863953
31
0
0
LINE
5
10E
330
11
100
AcDbEntity
100
AcDbLine
8
l_0
10
-0.26794918601386275
20
0.22113248705863953
30
0
11
-0.3844555390345308
21
0.2883974611759186
31
0
0
LINE
5
10F
330
11
100
AcDbEntity
100
AcDbLine
8
l_0
10
-0.3844555390345308
20
0.2883974611759186
30
0
11
-0.3844555390345308
21
0.09613248705863953
31
0
0
LINE
5
110
330
11
100
AcDbEntity
100
AcDbLine
8
l_0
10
-0.3844555390345308
20
0.09613248705863953
30
0
11
-0.40945553754441466
21
0.08169873058795929
31
0
0
LINE
5
111
330
11
100
AcDbEntity
100
AcDbLine
8
l_0
10
-0.40945553754441466
20
0.08169873058795929
30
0
11
-0.5509618928002569
21
0
31
0
0
LINE
5
112
330
11
100
AcDbEntity
100
AcDbLine
8
l_0
10
-1.3004809689985963
20
-0.06726497411727905
30
0
11
-1.1839746308790895
21
0
31
0
0
LINE
5
113
330
11
100
AcDbEntity
100
AcDbLine
8
l_0
10
-1.1839746308790895
20
0
30
0
11
-1.3004809689985963
21
0.06726498901844025
31
0
0
LINE
5
114
330
11
100
AcDbEntity
100
AcDbLine
8
l_0
10
-1.3004809689985963
20
0.06726498901844025
30
0
11
-1.4169873071181032
21
0
31
0
0
LINE
5
115
330
11
100
AcDbEntity
100
AcDbLine
8
l_0
10
-1.4169873071181032
20
0
30
0
11
-1.3004809689985963
21
-0.06726497411727905
31
0
0
LINE
5
116
330
11
100
AcDbEntity
100
AcDbLine
8
l_0
10
-0.8674682450758668
20
-0.06726497411727905
30
0
11
-0.75096190695636
21
0
31
0
0
LINE
5
117
330
11
100
AcDbEntity
100
AcDbLine
8
l_0
10
-0.75096190695636
20
0
30
0
11
-0.8674682450758668
21
0.06726496666669846
31
0
0
LINE
5
118
330
11
100
AcDbEntity
100
AcDbLine
8
l_0
10
-0.8674682450758668
20
0.06726496666669846
30
0
11
-0.9839746129976961
21
0
31
0
0
LINE
5
119
330
11
100
AcDbEntity
100
AcDbLine
8
l_0
10
-0.9839746129976961
20
0
30
0
11
-0.8674682450758668
21
-0.06726497411727905
31
0
0
LINE
5
11A
330
11
100
AcDbEntity
100
AcDbLine
8
l_0
10
-1.3504809809195253
20
-0.3461325168609619
30
0
11
-1.3504809809195253
21
-0.15386749804019928
31
0
0
LINE
5
11B
330
11
100
AcDbEntity
100
AcDbLine
8
l_0
10
-1.3504809809195253
20
-0.15386749804019928
30
0
11
-1.5169872713553163
21
-0.05773501470685005
31
0
0
LINE
5
11C
330
11
100
AcDbEntity
100
AcDbLine
8
l_0
10
-1.5169872713553163
20
-0.05773501470685005
30
0
11
-1.6834936810003969
21
-0.15386752784252167
31
0
0
LINE
5
11D
330
11
100
AcDbEntity
100
AcDbLine
8
l_0
10
-1.6834936810003969
20
-0.15386752784252167
30
0
11
-1.6834936810003969
21
-0.34613245725631714
31
0
0
LINE
5
11E
330
11
100
AcDbEntity
100
AcDbLine
8
l_0
10
-1.6834936810003969
20
-0.34613245725631714
30
0
11
-1.5169872713553163
21
-0.44226497411727905
31
0
0
LINE
5
11F
330
11
100
AcDbEntity
100
AcDbLine
8
l_0
10
-1.5169872713553163
20
-0.44226497411727905
30
0
11
-1.3504809809195253
21
-0.3461325168609619
31
0
0
LINE
5
120
330
11
100
AcDbEntity
100
AcDbLine
8
l_0
10
-0.8174682331549379
20
-0.3461324870586395
30
0
11
-0.6509618831145021
21
-0.44226494431495667
31
0
0
LINE
5
121
330
11
100
AcDbEntity
100
AcDbLine
8
l_0
10
-0.6509618831145021
20
-0.44226494431495667
30
0
11
-0.4844555367993566
21
-0.3461324870586395
31
0
0
LINE
5
122
330
11
100
AcDbEntity
100
AcDbLine
8
l_0
10
-0.4844555367993566
20
-0.3461324870586395
30
0
11
-0.4844555367993566
21
-0.15386751294136047
31
0
0
LINE
5
123
330
11
100
AcDbEntity
100
AcDbLine
8
l_0
10
-0.4844555367993566
20
-0.15386751294136047
30
0
11
-0.6509618980156633
21
-0.05773502588272095
31
0
0
LINE
5
124
330
11
100
AcDbEntity
100
AcDbLine
8
l_0
10
-0.6509618980156633
20
-0.05773502588272095
30
0
11
-0.8174682331549379
21
-0.15386751294136047
31
0
0
LINE
5
125
330
11
100
AcDbEntity
100
AcDbLine
8
l_0
10
-0.8174682331549379
20
-0.15386751294136047
30
0
11
-0.8174682331549379
21
-0.3461324870586395
31
0
0
LINE
5
126
330
11
100
AcDbEntity
100
AcDbLine
8
l_0
10
-0.9174682569967958
20
-0.15386751294136047
30
0
11
-1.0339745951163026
21
-0.08660253882408142
31
0
0
LINE
5
127
330
11
100
AcDbEntity
100
AcDbLine
8
l_0
10
-1.0339745951163026
20
-0.08660253882408142
30
0
11
-1.0339745951163026
21
-0.22113250195980072
31
0
0
LINE
5
128
330
11
100
AcDbEntity
100
AcDbLine
8
l_0
10
-1.0339745951163026
20
-0.22113250195980072
30
0
11
-0.9174682569967958
21
-0.2883974611759186
31
0
0
LINE
5
129
330
11
100
AcDbEntity
100
AcDbLine
8
l_0
10
-0.9174682569967958
20
-0.2883974611759186
30
0
11
-0.9174682569967958
21
-0.15386751294136047
31
0
0
LINE
5
12A
330
11
100
AcDbEntity
100
AcDbLine
8
l_0
10
-1.2504809570776674
20
-0.2883974611759186
30
0
11
-1.1339746189581605
21
-0.22113250195980072
31
0
0
LINE
5
12B
330
11
100
AcDbEntity
100
AcDbLine
8
l_0
10
-1.1339746189581605
20
-0.22113250195980072
30
0
11
-1.1339746189581605
21
-0.08660254627466202
31
0
0
LINE
5
12C
330
11
100
AcDbEntity
100
AcDbLine
8
l_0
10
-1.1339746189581605
20
-0.08660254627466202
30
0
11
-1.2504809570776674
21
-0.15386749804019928
31
0
0
LINE
5
12D
330
11
100
AcDbEntity
100
AcDbLine
8
l_0
10
-1.2504809570776674
20
-0.15386749804019928
30
0
11
-1.2504809570776674
21
-0.2883974611759186
31
0
0
LINE
5
12E
330
11
100
AcDbEntity
100
AcDbLine
8
l_0
10
-1.2504809570776674
20
-0.4038675129413605
30
0
11
-1.0839746070372316
21
-0.30773502588272095
31
0
0
LINE
5
12F
330
11
100
AcDbEntity
100
AcDbLine
8
l_0
10
-1.0839746070372316
20
-0.30773502588272095
30
0
11
-0.9174682569967958
21
-0.4038675129413605
31
0
0
LINE
5
130
330
11
100
AcDbEntity
100
AcDbLine
8
l_0
10
-0.9174682569967958
20
-0.4038675129413605
30
0
11
-0.9174682569967958
21
-0.5961324572563171
31
0
0
LINE
5
131
330
11
100
AcDbEntity
100
AcDbLine
8
l_0
10
-0.9174682569967958
20
-0.5961324572563171
30
0
11
-1.0839746070372316
21
-0.692264974117279
31
0
0
LINE
5
132
330
11
100
AcDbEntity
100
AcDbLine
8
l_0
10
-1.0839746070372316
20
-0.692264974117279
30
0
11
-1.2504809570776674
21
-0.5961325168609619
31
0
0
LINE
5
133
330
11
100
AcDbEntity
100
AcDbLine
8
l_0
10
-1.2504809570776674
20
-0.5961325168609619
30
0
11
-1.2504809570776674
21
-0.4038675129413605
31
0
0
LINE
5
134
330
11
100
AcDbEntity
100
AcDbLine
8
l_0
10
-1.3504809809195253
20
-0.4616025686264038
30
0
11
-1.3504809809195253
21
-0.6538675427436829
31
0
0
LINE
5
135
330
11
100
AcDbEntity
100
AcDbLine
8
l_0
10
-1.3504809809195253
20
-0.6538675427436829
30
0
11
-1.1839746308790895
21
-0.75
31
0
0
LINE
5
136
330
11
100
AcDbEntity
100
AcDbLine
8
l_0
10
-1.1839746308790895
20
-0.75
30
0
11
-1.3004809689985963
21
-0.817264974117279
31
0
0
LINE
5
137
330
11
100
AcDbEntity
100
AcDbLine
8
l_0
10
-1.3004809689985963
20
-0.817264974117279
30
0
11
-1.6834936810003969
21
-0.5961324572563171
31
0
0
LINE
5
138
330
11
100
AcDbEntity
100
AcDbLine
8
l_0
10
-1.6834936810003969
20
-0.5961324572563171
30
0
11
-1.6834936810003969
21
-0.46160250902175903
31
0
0
LINE
5
139
330
11
100
AcDbEntity
100
AcDbLine
8
l_0
10
-1.6834936810003969
20
-0.46160250902175903
30
0
11
-1.5169872713553163
21
-0.557735025882721
31
0
0
LINE
5
13A
330
11
100
AcDbEntity
100
AcDbLine
8
l_0
10
-1.5169872713553163
20
-0.557735025882721
30
0
11
-1.3504809809195253
21
-0.4616025686264038
31
0
0
LINE
5
13B
330
11
100
AcDbEntity
100
AcDbLine
8
l_0
10
-0.9839745831953737
20
-0.75
30
0
11
-0.8674682450758668
21
-0.817264974117279
31
0
0
LINE
5
13C
330
11
100
AcDbEntity
100
AcDbLine
8
l_0
10
-0.8674682450758668
20
-0.817264974117279
30
0
11
-0.4844555367993566
21
-0.5961324572563171
31
0
0
LINE
5
13D
330
11
100
AcDbEntity
100
AcDbLine
8
l_0
10
-0.4844555367993566
20
-0.5961324572563171
30
0
11
-0.4844555367993566
21
-0.4616025388240814
31
0
0
LINE
5
13E
330
11
100
AcDbEntity
100
AcDbLine
8
l_0
10
-0.4844555367993566
20
-0.4616025388240814
30
0
11
-0.6509618831145021
21
-0.557735025882721
31
0
0
LINE
5
13F
330
11
100
AcDbEntity
100
AcDbLine
8
l_0
10
-0.6509618831145021
20
-0.557735025882721
30
0
11
-0.6759618890749666
21
-0.5433012843132019
31
0
0
LINE
5
140
330
11
100
AcDbEntity
100
AcDbLine
8
l_0
10
-0.6759618890749666
20
-0.5433012843132019
30
0
11
-0.8174682331549379
21
-0.4616025686264038
31
0
0
LINE
5
141
330
11
100
AcDbEntity
100
AcDbLine
8
l_0
10
-0.8174682331549379
20
-0.4616025686264038
30
0
11
-0.8174682331549379
21
-0.6538675427436829
31
0
0
LINE
5
142
330
11
100
AcDbEntity
100
AcDbLine
8
l_0
10
-0.8174682331549379
20
-0.6538675427436829
30
0
11
-0.9839745831953737
21
-0.75
31
0
0
ENDSEC
0
SECTION
2
OBJECTS
0
DICTIONARY
5
1
330
0
100
AcDbDictionary
281
1
3
ACAD_GROUP
350
15
0
DICTIONARY
5
15
330
1
100
AcDbDictionary
281
1
0
ENDSEC
0
EOF