0
SECTION
2
HEADER
9
$HANDSEED
5
77
9
$INSUNITS
70
4
9
$ACADVER
1
AC1021
0
ENDSEC
0
SECTION
2
CLASSES
0
ENDSEC
0
SECTION
2
TABLES
0
TABLE
2
LTYPE
5
75
330
0
100
AcDbSymbolTable
70
5
0
LTYPE
5
2
330
75
100
AcDbSymbolTableRecord
100
AcDbLinetypeTableRecord
2
CONTINUOUS
3
______
70
0
72
65
73
0
40
0
0
LTYPE
5
3
330
75
100
AcDbSymbolTableRecord
100
AcDbLinetypeTableRecord
2
DASHED
3
_ _ _ 
70
0
72
65
73
2
40
10
49
5
74
0
49
-5
74
0
0
LTYPE
5
4
330
75
100
AcDbSymbolTableRecord
100
AcDbLinetypeTableRecord
2
DOTTED
3
. . . 
70
0
72
65
73
2
40
5
49
0
74
0
49
-5
74
0
0
LTYPE
5
6
330
75
100
AcDbSymbolTableRecord
100
AcDbLinetypeTableRecord
2
ByBlock
3

70
0
72
65
73
0
40
0
0
LTYPE
5
7
330
75
100
AcDbSymbolTableRecord
100
AcDbLinetypeTableRecord
2
ByLayer
3

70
0
72
65
73
0
40
0
0
ENDTAB
0
TABLE
2
LAYER
5
76
330
0
100
AcDbSymbolTable
70
2
0
LAYER
5
5
330
76
100
AcDbSymbolTableRecord
100
AcDbLayerTableRecord
2
0
62
7
70
0
6
CONTINUOUS
390
1
0
LAYER
5
16
330
76
100
AcDbSymbolTableRecord
100
AcDbLayerTableRecord
2
l_0
62
0
70
0
6
CONTINUOUS
390
1
0
ENDTAB
0
TABLE
2
VPORT
5
8
330
0
100
AcDbSymbolTable
70
1
0
VPORT
5
E
330
8
100
AcDbSymbolTableRecord
100
AcDbViewportTableRecord
2
*ACTIVE
40
1000
70
0
0
ENDTAB
0
TABLE
2
STYLE
5
9
330
0
100
AcDbSymbolTable
70
1
0
STYLE
5
F
330
9
100
AcDbSymbolTableRecord
100
AcDbTextStyleTableRecord
2
standard
70
0
40
0
41
1
50
0
71
0
42
1
3
txt
4

0
ENDTAB
0
TABLE
2
VIEW
5
A
330
0
100
AcDbSymbolTable
70
0
0
ENDTAB
0
TABLE
2
UCS
5
B
330
0
100
AcDbSymbolTable
70
0
0
ENDTAB
0
TABLE
2
APPID
5
C
330
0
100
AcDbSymbolTable
70
1
0
APPID
5
10
330
C
100
AcDbSymbolTableRecord
100
AcDbRegAppTableRecord
2
ACAD
70
0
0
ENDTAB
0
TABLE
2
DIMSTYLE
5
D
330
0
100
AcDbSymbolTable
100
AcDbDimStyleTable
70
0
71
1
0
ENDTAB
0
TABLE
2
BLOCK_RECORD
5
72
330
0
100
AcDbSymbolTable
70
2
0
BLOCK_RECORD
5
73
330
72
100
AcDbSymbolTableRecord
100
AcDbBlockTableRecord
2
*Model_Space
70
0
280
0
281
1
0
BLOCK_RECORD
5
74
330
72
100
AcDbSymbolTableRecord
100
AcDbBlockTableRecord
2
*Paper_Space
70
0
280
0
281
1
0
ENDTAB
0
ENDSEC
0
SECTION
2
BLOCKS
0
BLOCK
5
11
330
0
100
AcDbEntity
100
AcDbBlockBegin
2
*Model_Space
70
0
10
0
20
0
30
0
3
*Model_Space
1

0
ENDBLK
5
12
330
0
100
AcDbEntity
100
AcDbBlockEnd
0
BLOCK
5
13
330
0
100
AcDbEntity
100
AcDbBlockBegin
2
*Paper_Space
70
0
10
0
20
0
30
0
3
*Paper_Space
1

0
ENDBLK
5
14
330
0
100
AcDbEntity
100
AcDbBlockEnd
0
ENDSEC
0
SECTION
2
ENTITIES
0
LINE
5
17
330
11
100
AcDbEntity
100
AcDbLine
8
l_0
10
4449.8056640625
20
190.53395080566406
30
0
11
4449.8056640625
21
184.35971069335938
31
0
0
LINE
5
18
330
11
100
AcDbEntity
100
AcDbLine
8
l_0
10
4449.8056640625
20
184.35971069335938
30
0
11
4452.2958984375
21
184.35971069335938
31
0
0
LINE
5
19
330
11
100
AcDbEntity
100
AcDbLine
8
l_0
10
4452.2958984375
20
184.35971069335938
30
0
11
4452.2958984375
21
190.52427673339844
31
0
0
LINE
5
1A
330
11
100
AcDbEntity
100
AcDbLine
8
l_0
10
4452.2958984375
20
190.52427673339844
30
0
11
4619.30322265625
21
189.87525939941406
31
0
0
LINE
5
1B
330
11
100
AcDbEntity
100
AcDbLine
8
l_0
10
4619.30322265625
20
189.87525939941406
30
0
11
4619.30322265625
21
183.58413696289062
31
0
0
LINE
5
1C
330
11
100
AcDbEntity
100
AcDbLine
8
l_0
10
4619.30322265625
20
183.58413696289062
30
0
11
4621.79345703125
21
183.58413696289062
31
0
0
LINE
5
1D
330
11
100
AcDbEntity
100
AcDbLine
8
l_0
10
4621.79345703125
20
183.58413696289062
30
0
11
4621.79345703125
21
189.86558532714844
31
0
0
LINE
5
1E
330
11
100
AcDbEntity
100
AcDbLine
8
l_0
10
4621.79345703125
20
189.86558532714844
30
0
11
4635.3955078125
21
189.81272888183594
31
0
0
SPLINE
5
1F
330
11
100
AcDbEntity
100
AcDbSpline
8
l_0
210
0
220
0
230
1
70
8
71
3
72
8
73
4
74
0
42
1e-7
43
1e-7
44
1e-10
40
0
40
0
40
0
40
0
40
1
40
1
40
1
40
1
10
4635.3955078125
20
189.81272888183594
30
0
10
4634.24609375
20
156.7849884033203
30
0
10
4589.759765625
20
130.4233856201172
30
0
10
4535.455078125
20
130.58975219726562
30
0
0
SPLINE
5
20
330
11
100
AcDbEntity
100
AcDbSpline
8
l_0
210
0
220
0
230
1
70
8
71
3
72
8
73
4
74
0
42
1e-7
43
1e-7
44
1e-10
40
0
40
0
40
0
40
0
40
1
40
1
40
1
40
1
10
4535.455078125
20
130.58975219726562
30
0
10
4481.14990234375
20
130.756103515625
30
0
10
4437.1025390625
20
157.388916015625
30
0
10
4436.5
20
190.42202758789062
30
0
0
LINE
5
21
330
11
100
AcDbEntity
100
AcDbLine
8
l_0
10
4436.5
20
190.42202758789062
30
0
11
4435.65185546875
21
190.58895874023438
31
0
0
LINE
5
22
330
11
100
AcDbEntity
100
AcDbLine
8
l_0
10
4435.65185546875
20
190.58895874023438
30
0
11
4449.8056640625
21
190.53395080566406
31
0
0
LINE
5
23
330
11
100
AcDbEntity
100
AcDbLine
8
l_0
10
4449.805716917582
20
102.35970747710638
30
0
11
4452.295716917582
21
102.35970747710638
31
0
0
LINE
5
24
330
11
100
AcDbEntity
100
AcDbLine
8
l_0
10
4452.295716917582
20
102.35970747710638
30
0
11
4452.295716917582
21
90.35970747710638
31
0
0
LINE
5
25
330
11
100
AcDbEntity
100
AcDbLine
8
l_0
10
4452.295716917582
20
90.35970747710638
30
0
11
4449.805716917582
21
90.35970747710638
31
0
0
LINE
5
26
330
11
100
AcDbEntity
100
AcDbLine
8
l_0
10
4449.805716917582
20
90.35970747710638
30
0
11
4449.805716917582
21
102.35970747710638
31
0
0
LINE
5
27
330
11
100
AcDbEntity
100
AcDbLine
8
l_0
10
4619.30327101387
20
101.58414349795513
30
0
11
4621.793271013869
21
101.58414349795513
31
0
0
LINE
5
28
330
11
100
AcDbEntity
100
AcDbLine
8
l_0
10
4621.793271013869
20
101.58414349795513
30
0
11
4621.793271013869
21
89.58414349795513
31
0
0
LINE
5
29
330
11
100
AcDbEntity
100
AcDbLine
8
l_0
10
4621.793271013869
20
89.58414349795513
30
0
11
4619.30327101387
21
89.58414349795513
31
0
0
LINE
5
2A
330
11
100
AcDbEntity
100
AcDbLine
8
l_0
10
4619.30327101387
20
89.58414349795513
30
0
11
4619.30327101387
21
101.58414349795513
31
0
0
SPLINE
5
2B
330
11
100
AcDbEntity
100
AcDbSpline
8
l_0
210
0
220
0
230
1
70
8
71
3
72
8
73
4
74
0
42
1e-7
43
1e-7
44
1e-10
40
0
40
0
40
0
40
0
40
1
40
1
40
1
40
1
10
4436.5
20
99.4220199584961
30
0
10
4437.1025390625
20
66.388916015625
30
0
10
4481.14990234375
20
39.756103515625
30
0
10
4535.455078125
20
39.58974838256836
30
0
0
SPLINE
5
2C
330
11
100
AcDbEntity
100
AcDbSpline
8
l_0
210
0
220
0
230
1
70
8
71
3
72
8
73
4
74
0
42
1e-7
43
1e-7
44
1e-10
40
0
40
0
40
0
40
0
40
1
40
1
40
1
40
1
10
4535.455078125
20
39.58974838256836
30
0
10
4568.9267578125
20
39.48720932006836
30
0
10
4598.6689453125
20
49.463016510009766
30
0
10
4616.83154296875
20
64.86615753173828
30
0
0
LINE
5
2D
330
11
100
AcDbEntity
100
AcDbLine
8
l_0
10
4616.83154296875
20
64.86615753173828
30
0
11
4616.6962890625
21
64.6218032836914
31
0
0
LINE
5
2E
330
11
100
AcDbEntity
100
AcDbLine
8
l_0
10
4616.6962890625
20
64.6218032836914
30
0
11
4702.021484375
21
39.691566467285156
31
0
0
LINE
5
2F
330
11
100
AcDbEntity
100
AcDbLine
8
l_0
10
4702.021484375
20
39.691566467285156
30
0
11
4635.50634765625
21
98.66266632080078
31
0
0
LINE
5
30
330
11
100
AcDbEntity
100
AcDbLine
8
l_0
10
4635.50634765625
20
98.66266632080078
30
0
11
4635.38037109375
21
98.4348373413086
31
0
0
SPLINE
5
31
330
11
100
AcDbEntity
100
AcDbSpline
8
l_0
210
0
220
0
230
1
70
8
71
3
72
8
73
4
74
0
42
1e-7
43
1e-7
44
1e-10
40
0
40
0
40
0
40
0
40
1
40
1
40
1
40
1
10
4635.38037109375
20
98.4348373413086
30
0
10
4635.38623046875
20
98.56070709228516
30
0
10
4635.39111328125
20
98.6866683959961
30
0
10
4635.3955078125
20
98.81272888183594
30
0
0
LINE
5
32
330
11
100
AcDbEntity
100
AcDbLine
8
l_0
10
4635.3955078125
20
98.81272888183594
30
0
11
4435.65185546875
21
99.5889663696289
31
0
0
LINE
5
33
330
11
100
AcDbEntity
100
AcDbLine
8
l_0
10
4435.65185546875
20
99.5889663696289
30
0
11
4436.5
21
99.4220199584961
31
0
0
LINE
5
34
330
11
100
AcDbEntity
100
AcDbLine
8
l_0
10
-1.2450000047683716
20
44.98307418823242
30
0
11
-1.2450000047683716
21
39
31
0
0
LINE
5
35
330
11
100
AcDbEntity
100
AcDbLine
8
l_0
10
-1.2450000047683716
20
39
30
0
11
1.2450000047683716
21
39
31
0
0
LINE
5
36
330
11
100
AcDbEntity
100
AcDbLine
8
l_0
10
1.2450000047683716
20
39
30
0
11
1.2450000047683716
21
44.98307418823242
31
0
0
SPLINE
5
37
330
11
100
AcDbEntity
100
AcDbSpline
8
l_0
210
0
220
0
230
1
70
8
71
3
72
8
73
4
74
0
42
1e-7
43
1e-7
44
1e-10
40
0
40
0
40
0
40
0
40
1
40
1
40
1
40
1
10
1.2450000047683716
20
44.98307418823242
30
0
10
8.531058311462402
20
44.78474426269531
30
0
10
15.387093544006348
20
42.85097885131836
30
0
10
21.414274215698242
20
39.58061218261719
30
0
0
LINE
5
38
330
11
100
AcDbEntity
100
AcDbLine
8
l_0
10
21.414274215698242
20
39.58061218261719
30
0
11
18.421798706054688
21
34.397491455078125
31
0
0
LINE
5
39
330
11
100
AcDbEntity
100
AcDbLine
8
l_0
10
18.421798706054688
20
34.397491455078125
30
0
11
20.578201293945312
21
33.15249252319336
31
0
0
LINE
5
3A
330
11
100
AcDbEntity
100
AcDbLine
8
l_0
10
20.578201293945312
20
33.15249252319336
30
0
11
23.56913185119629
21
38.33293533325195
31
0
0
SPLINE
5
3B
330
11
100
AcDbEntity
100
AcDbSpline
8
l_0
210
0
220
0
230
1
70
8
71
3
72
8
73
4
74
0
42
1e-7
43
1e-7
44
1e-10
40
0
40
0
40
0
40
0
40
1
40
1
40
1
40
1
10
23.56913185119629
20
38.33293533325195
30
0
10
29.56767463684082
20
34.63447570800781
30
0
10
34.63447570800781
20
29.56767463684082
30
0
10
38.33293533325195
20
23.56913185119629
30
0
0
LINE
5
3C
330
11
100
AcDbEntity
100
AcDbLine
8
l_0
10
38.33293533325195
20
23.56913185119629
30
0
11
33.15249252319336
21
20.578201293945312
31
0
0
LINE
5
3D
330
11
100
AcDbEntity
100
AcDbLine
8
l_0
10
33.15249252319336
20
20.578201293945312
30
0
11
34.397491455078125
21
18.421798706054688
31
0
0
LINE
5
3E
330
11
100
AcDbEntity
100
AcDbLine
8
l_0
10
34.397491455078125
20
18.421798706054688
30
0
11
39.58061218261719
21
21.414274215698242
31
0
0
SPLINE
5
3F
330
11
100
AcDbEntity
100
AcDbSpline
8
l_0
210
0
220
0
230
1
70
8
71
3
72
8
73
4
74
0
42
1e-7
43
1e-7
44
1e-10
40
0
40
0
40
0
40
0
40
1
40
1
40
1
40
1
10
39.58061218261719
20
21.414274215698242
30
0
10
42.85097885131836
20
15.387093544006348
30
0
10
44.78474426269531
20
8.531058311462402
30
0
10
44.98307418823242
20
1.2450000047683716
30
0
0
LINE
5
40
330
11
100
AcDbEntity
100
AcDbLine
8
l_0
10
44.98307418823242
20
1.2450000047683716
30
0
11
39
21
1.2450000047683716
31
0
0
LINE
5
41
330
11
100
AcDbEntity
100
AcDbLine
8
l_0
10
39
20
1.2450000047683716
30
0
11
39
21
-1.2450000047683716
31
0
0
LINE
5
42
330
11
100
AcDbEntity
100
AcDbLine
8
l_0
10
39
20
-1.2450000047683716
30
0
11
44.98307418823242
21
-1.2450000047683716
31
0
0
SPLINE
5
43
330
11
100
AcDbEntity
100
AcDbSpline
8
l_0
210
0
220
0
230
1
70
8
71
3
72
8
73
4
74
0
42
1e-7
43
1e-7
44
1e-10
40
0
40
0
40
0
40
0
40
1
40
1
40
1
40
1
10
44.98307418823242
20
-1.2450000047683716
30
0
10
44.78474426269531
20
-8.531058311462402
30
0
10
42.85097885131836
20
-15.387093544006348
30
0
10
39.58061218261719
20
-21.414274215698242
30
0
0
LINE
5
44
330
11
100
AcDbEntity
100
AcDbLine
8
l_0
10
39.58061218261719
20
-21.414274215698242
30
0
11
34.397491455078125
21
-18.421798706054688
31
0
0
LINE
5
45
330
11
100
AcDbEntity
100
AcDbLine
8
l_0
10
34.397491455078125
20
-18.421798706054688
30
0
11
33.15249252319336
21
-20.578201293945312
31
0
0
LINE
5
46
330
11
100
AcDbEntity
100
AcDbLine
8
l_0
10
33.15249252319336
20
-20.578201293945312
30
0
11
38.33293533325195
21
-23.56913185119629
31
0
0
SPLINE
5
47
330
11
100
AcDbEntity
100
AcDbSpline
8
l_0
210
0
220
0
230
1
70
8
71
3
72
8
73
4
74
0
42
1e-7
43
1e-7
44
1e-10
40
0
40
0
40
0
40
0
40
1
40
1
40
1
40
1
10
38.33293533325195
20
-23.56913185119629
30
0
10
34.63447570800781
20
-29.56767463684082
30
0
10
29.56767463684082
20
-34.63447570800781
30
0
10
23.56913185119629
20
-38.33293533325195
30
0
0
LINE
5
48
330
11
100
AcDbEntity
100
AcDbLine
8
l_0
10
23.56913185119629
20
-38.33293533325195
30
0
11
20.578201293945312
21
-33.15249252319336
31
0
0
LINE
5
49
330
11
100
AcDbEntity
100
AcDbLine
8
l_0
10
20.578201293945312
20
-33.15249252319336
30
0
11
18.421798706054688
21
-34.397491455078125
31
0
0
LINE
5
4A
330
11
100
AcDbEntity
100
AcDbLine
8
l_0
10
18.421798706054688
20
-34.397491455078125
30
0
11
21.414274215698242
21
-39.58061218261719
31
0
0
SPLINE
5
4B
330
11
100
AcDbEntity
100
AcDbSpline
8
l_0
210
0
220
0
230
1
70
8
71
3
72
8
73
4
74
0
42
1e-7
43
1e-7
44
1e-10
40
0
40
0
40
0
40
0
40
1
40
1
40
1
40
1
10
21.414274215698242
20
-39.58061218261719
30
0
10
15.387093544006348
20
-42.85097885131836
30
0
10
8.531058311462402
20
-44.78474426269531
30
0
10
1.2450000047683716
20
-44.98307418823242
30
0
0
LINE
5
4C
330
11
100
AcDbEntity
100
AcDbLine
8
l_0
10
1.2450000047683716
20
-44.98307418823242
30
0
11
1.2450000047683716
21
-39
31
0
0
LINE
5
4D
330
11
100
AcDbEntity
100
AcDbLine
8
l_0
10
1.2450000047683716
20
-39
30
0
11
-1.2450000047683716
21
-39
31
0
0
LINE
5
4E
330
11
100
AcDbEntity
100
AcDbLine
8
l_0
10
-1.2450000047683716
20
-39
30
0
11
-1.2450000047683716
21
-44.98307418823242
31
0
0
SPLINE
5
4F
330
11
100
AcDbEntity
100
AcDbSpline
8
l_0
210
0
220
0
230
1
70
8
71
3
72
8
73
4
74
0
42
1e-7
43
1e-7
44
1e-10
40
0
40
0
40
0
40
0
40
1
40
1
40
1
40
1
10
-1.2450000047683716
20
-44.98307418823242
30
0
10
-8.531058311462402
20
-44.78474426269531
30
0
10
-15.387093544006348
20
-42.85097885131836
30
0
10
-21.414274215698242
20
-39.58061218261719
30
0
0
LINE
5
50
330
11
100
AcDbEntity
100
AcDbLine
8
l_0
10
-21.414274215698242
20
-39.58061218261719
30
0
11
-18.421798706054688
21
-34.397491455078125
31
0
0
LINE
5
51
330
11
100
AcDbEntity
100
AcDbLine
8
l_0
10
-18.421798706054688
20
-34.397491455078125
30
0
11
-20.578201293945312
21
-33.15249252319336
31
0
0
LINE
5
52
330
11
100
AcDbEntity
100
AcDbLine
8
l_0
10
-20.578201293945312
20
-33.15249252319336
30
0
11
-23.56913185119629
21
-38.33293533325195
31
0
0
SPLINE
5
53
330
11
100
AcDbEntity
100
AcDbSpline
8
l_0
210
0
220
0
230
1
70
8
71
3
72
8
73
4
74
0
42
1e-7
43
1e-7
44
1e-10
40
0
40
0
40
0
40
0
40
1
40
1
40
1
40
1
10
-23.56913185119629
20
-38.33293533325195
30
0
10
-29.56767463684082
20
-34.63447570800781
30
0
10
-34.63447570800781
20
-29.56767463684082
30
0
10
-38.33293533325195
20
-23.56913185119629
30
0
0
LINE
5
54
330
11
100
AcDbEntity
100
AcDbLine
8
l_0
10
-38.33293533325195
20
-23.56913185119629
30
0
11
-33.15249252319336
21
-20.578201293945312
31
0
0
LINE
5
55
330
11
100
AcDbEntity
100
AcDbLine
8
l_0
10
-33.15249252319336
20
-20.578201293945312
30
0
11
-34.397491455078125
21
-18.421798706054688
31
0
0
LINE
5
56
330
11
100
AcDbEntity
100
AcDbLine
8
l_0
10
-34.397491455078125
20
-18.421798706054688
30
0
11
-39.58061218261719
21
-21.414274215698242
31
0
0
SPLINE
5
57
330
11
100
AcDbEntity
100
AcDbSpline
8
l_0
210
0
220
0
230
1
70
8
71
3
72
8
73
4
74
0
42
1e-7
43
1e-7
44
1e-10
40
0
40
0
40
0
40
0
40
1
40
1
40
1
40
1
10
-39.58061218261719
20
-21.414274215698242
30
0
10
-42.85097885131836
20
-15.387093544006348
30
0
10
-44.78474426269531
20
-8.531058311462402
30
0
10
-44.98307418823242
20
-1.2450000047683716
30
0
0
LINE
5
58
330
11
100
AcDbEntity
100
AcDbLine
8
l_0
10
-44.98307418823242
20
-1.2450000047683716
30
0
11
-39
21
-1.2450000047683716
31
0
0
LINE
5
59
330
11
100
AcDbEntity
100
AcDbLine
8
l_0
10
-39
20
-1.2450000047683716
30
0
11
-39
21
1.2450000047683716
31
0
0
LINE
5
5A
330
11
100
AcDbEntity
100
AcDbLine
8
l_0
10
-39
20
1.2450000047683716
30
0
11
-44.98307418823242
21
1.2450000047683716
31
0
0
SPLINE
5
5B
330
11
100
AcDbEntity
100
AcDbSpline
8
l_0
210
0
220
0
230
1
70
8
71
3
72
8
73
4
74
0
42
1e-7
43
1e-7
44
1e-10
40
0
40
0
40
0
40
0
40
1
40
1
40
1
40
1
10
-44.98307418823242
20
1.2450000047683716
30
0
10
-44.78474426269531
20
8.531058311462402
30
0
10
-42.85097885131836
20
15.387093544006348
30
0
10
-39.58061218261719
20
21.414274215698242
30
0
0
LINE
5
5C
330
11
100
AcDbEntity
100
AcDbLine
8
l_0
10
-39.58061218261719
20
21.414274215698242
30
0
11
-34.397491455078125
21
18.421798706054688
31
0
0
LINE
5
5D
330
11
100
AcDbEntity
100
AcDbLine
8
l_0
10
-34.397491455078125
20
18.421798706054688
30
0
11
-33.15249252319336
21
20.578201293945312
31
0
0
LINE
5
5E
330
11
100
AcDbEntity
100
AcDbLine
8
l_0
10
-33.15249252319336
20
20.578201293945312
30
0
11
-38.33293533325195
21
23.56913185119629
31
0
0
SPLINE
5
5F
330
11
100
AcDbEntity
100
AcDbSpline
8
l_0
210
0
220
0
230
1
70
8
71
3
72
8
73
4
74
0
42
1e-7
43
1e-7
44
1e-10
40
0
40
0
40
0
40
0
40
1
40
1
40
1
40
1
10
-38.33293533325195
20
23.56913185119629
30
0
10
-34.63447570800781
20
29.56767463684082
30
0
10
-29.56767463684082
20
34.63447570800781
30
0
10
-23.56913185119629
20
38.33293533325195
30
0
0
LINE
5
60
330
11
100
AcDbEntity
100
AcDbLine
8
l_0
10
-23.56913185119629
20
38.33293533325195
30
0
11
-20.578201293945312
21
33.15249252319336
31
0
0
LINE
5
61
330
11
100
AcDbEntity
100
AcDbLine
8
l_0
10
-20.578201293945312
20
33.15249252319336
30
0
11
-18.421798706054688
21
34.397491455078125
31
0
0
LINE
5
62
330
11
100
AcDbEntity
100
AcDbLine
8
l_0
10
-18.421798706054688
20
34.397491455078125
30
0
11
-21.414274215698242
21
39.58061218261719
31
0
0
SPLINE
5
63
330
11
100
AcDbEntity
100
AcDbSpline
8
l_0
210
0
220
0
230
1
70
8
71
3
72
8
73
4
74
0
42
1e-7
43
1e-7
44
1e-10
40
0
40
0
40
0
40
0
40
1
40
1
40
1
40
1
10
-21.414274215698242
20
39.58061218261719
30
0
10
-15.387093544006348
20
42.85097885131836
30
0
10
-8.531058311462402
20
44.78474426269531
30
0
10
-1.2450000047683716
20
44.98307418823242
30
0
0
SPLINE
5
64
330
11
100
AcDbEntity
100
AcDbSpline
8
l_0
210
0
220
0
230
1
70
8
71
3
72
8
73
4
74
0
42
1e-7
43
1e-7
44
1e-10
40
0
40
0
40
0
40
0
40
1
40
1
40
1
40
1
10
30
20
0
30
0
10
30
20
-16.557450734819998
30
0
10
16.55745073482
20
-30
30
0
10
1.83697019872103e-15
20
-30
30
0
0
SPLINE
5
65
330
11
100
AcDbEntity
100
AcDbSpline
8
l_0
210
0
220
0
230
1
70
8
71
3
72
8
73
4
74
0
42
1e-7
43
1e-7
44
1e-10
40
0
40
0
40
0
40
0
40
1
40
1
40
1
40
1
10
1.83697019872103e-15
20
-30
30
0
10
-16.557450734819994
20
-30
30
0
10
-29.999999999999996
20
-16.55745073482
30
0
10
-30
20
-3.67394039744206e-15
30
0
0
SPLINE
5
66
330
11
100
AcDbEntity
100
AcDbSpline
8
l_0
210
0
220
0
230
1
70
8
71
3
72
8
73
4
74
0
42
1e-7
43
1e-7
44
1e-10
40
0
40
0
40
0
40
0
40
1
40
1
40
1
40
1
10
-30
20
-3.67394039744206e-15
30
0
10
-30.000000000000004
20
16.557450734819994
30
0
10
-16.557450734820005
20
29.999999999999996
30
0
10
-5.510910596163089e-15
20
30
30
0
0
SPLINE
5
67
330
11
100
AcDbEntity
100
AcDbSpline
8
l_0
210
0
220
0
230
1
70
8
71
3
72
8
73
4
74
0
42
1e-7
43
1e-7
44
1e-10
40
0
40
0
40
0
40
0
40
1
40
1
40
1
40
1
10
-5.510910596163089e-15
20
30
30
0
10
16.55745073481999
20
30.000000000000004
30
0
10
30
20
16.557450734819998
30
0
10
30
20
0
30
0
0
LINE
5
68
330
11
100
AcDbEntity
100
AcDbLine
8
l_0
10
4642.423763182625
20
86.77763377912987
30
0
11
4643.868094441469
21
78.58501507493476
31
0
0
LINE
5
69
330
11
100
AcDbEntity
100
AcDbLine
8
l_0
10
4643.868094441469
20
78.58501507493476
30
0
11
4651.435791437288
21
75.13030000751228
31
0
0
LINE
5
6A
330
11
100
AcDbEntity
100
AcDbLine
8
l_0
10
4651.435791437288
20
75.13030000751228
30
0
11
4644.090470937631
21
71.22500094407006
31
0
0
LINE
5
6B
330
11
100
AcDbEntity
100
AcDbLine
8
l_0
10
4644.090470937631
20
71.22500094407006
30
0
11
4643.143388640804
21
62.96012773629265
31
0
0
LINE
5
6C
330
11
100
AcDbEntity
100
AcDbLine
8
l_0
10
4643.143388640804
20
62.96012773629265
30
0
11
4637.159399654912
21
68.73913888304733
31
0
0
LINE
5
6D
330
11
100
AcDbEntity
100
AcDbLine
8
l_0
10
4637.159399654912
20
68.73913888304733
30
0
11
4629.006373609511
21
67.085881395355
31
0
0
LINE
5
6E
330
11
100
AcDbEntity
100
AcDbLine
8
l_0
10
4629.006373609511
20
67.085881395355
30
0
11
4632.65338552758
21
74.56280576885612
31
0
0
LINE
5
6F
330
11
100
AcDbEntity
100
AcDbLine
8
l_0
10
4632.65338552758
20
74.56280576885612
30
0
11
4628.561620617186
21
81.80590965708441
31
0
0
LINE
5
70
330
11
100
AcDbEntity
100
AcDbLine
8
l_0
10
4628.561620617186
20
81.80590965708441
30
0
11
4636.799586925822
21
80.64789190446595
31
0
0
LINE
5
71
330
11
100
AcDbEntity
100
AcDbLine
8
l_0
10
4636.799586925822
20
80.64789190446595
30
0
11
4642.423763182625
21
86.77763377912987
31
0
0
ENDSEC
0
SECTION
2
OBJECTS
0
DICTIONARY
5
1
330
0
100
AcDbDictionary
281
1
3
ACAD_GROUP
350
15
0
DICTIONARY
5
15
330
1
100
AcDbDictionary
281
1
0
ENDSEC
0
EOF