0
SECTION
2
HEADER
9
$INSUNITS
70
4
9
$ACADVER
1
AC1014
9
$HANDSEED
5
FFFF
0
ENDSEC
0
SECTION
2
TABLES
0
TABLE
2
VPORT
5
8
100
AcDbSymbolTable
0
ENDTAB
0
TABLE
2
LTYPE
5
5
100
AcDbSymbolTable
0
LTYPE
5
14
100
AcDbSymbolTableRecord
100
AcDbLinetypeTableRecord
2
BYBLOCK
70
0
0
LTYPE
5
15
100
AcDbSymbolTableRecord
100
AcDbLinetypeTableRecord
2
BYLAYER
70
0
0
ENDTAB
0
TABLE
2
LAYER
5
2
100
AcDbSymbolTable
70
2
0
LAYER
5
50
100
AcDbSymbolTableRecord
100
AcDbLayerTableRecord
2
0
70
0
6
CONTINUOUS
0
ENDTAB
0
TABLE
2
STYLE
5
3
100
AcDbSymbolTable
70
1
0
STYLE
5
11
100
AcDbSymbolTableRecord
100
AcDbTextStyleTableRecord
2
STANDARD
70
0
0
ENDTAB
0
TABLE
2
VIEW
5
6
100
AcDbSymbolTable
70
0
0
ENDTAB
0
TABLE
2
UCS
5
7
100
AcDbSymbolTable
70
0
0
ENDTAB
0
TABLE
2
APPID
5
9
100
AcDbSymbolTable
70
2
0
APPID
5
12
100
AcDbSymbolTableRecord
100
AcDbRegAppTableRecord
2
ACAD
70
0
0
ENDTAB
0
TABLE
2
DIMSTYLE
5
A
100
AcDbSymbolTable
70
1
0
ENDTAB
0
TABLE
2
BLOCK_RECORD
5
1
100
AcDbSymbolTable
70
1
0
BLOCK_RECORD
5
1F
100
AcDbSymbolTableRecord
100
AcDbBlockTableRecord
2
*MODEL_SPACE
0
BLOCK_RECORD
5
1B
100
AcDbSymbolTableRecord
100
AcDbBlockTableRecord
2
*PAPER_SPACE
0
ENDTAB
0
ENDSEC
0
SECTION
2
BLOCKS
0
BLOCK
5
20
100
AcDbEntity
100
AcDbBlockBegin
2
*MODEL_SPACE
0
ENDBLK
5
21
100
AcDbEntity
100
AcDbBlockEnd
0
BLOCK
5
1C
100
AcDbEntity
100
AcDbBlockBegin
2
*PAPER_SPACE
0
ENDBLK
5
1D
100
AcDbEntity
100
AcDbBlockEnd
0
ENDSEC
0
SECTION
2
ENTITIES
0
LWPOLYLINE
5
100
100
AcDbEntity
8
0
100
AcDbPolyline
90
4
70
1
43
0.0
10
-34.999999999999858
20
-755.25
10
-34.999999999999858
20
-740.75
10
-8.3299999999998562
20
-740.75
10
-8.3299999999998562
20
-755.25
0
LWPOLYLINE
5
101
100
AcDbEntity
8
0
100
AcDbPolyline
90
4
70
1
43
0.0
10
8.329999999999977
20
-755.25
10
8.3299999999999734
20
-740.75
10
34.999999999999986
20
-740.75
10
34.999999999999979
20
-755.25
0
LWPOLYLINE
5
102
100
AcDbEntity
8
0
100
AcDbPolyline
90
4
70
1
43
0.0
10
59.999999999999986
20
-714.70000000000016
10
-60
20
-714.70000000000016
10
-60
20
-712
10
59.999999999999986
20
-712
0
LWPOLYLINE
5
103
100
AcDbEntity
8
0
100
AcDbPolyline
90
4
70
1
43
0.0
10
49.999999999999986
20
-692
10
-50.000000000000014
20
-692
10
-50.000000000000014
20
-412.00000000000011
10
49.999999999999986
20
-412
0
LWPOLYLINE
5
104
100
AcDbEntity
8
0
100
AcDbPolyline
90
52
70
1
43
0.0
10
-69.999999999999858
20
-757
10
-72.999999999999858
20
-757
10
-72.999999999999858
20
-787
10
-69.999999999999858
20
-787
10
-69.999999999999858
20
-792
10
70.000000000000142
20
-792
10
69.999999999999858
20
-787
10
72.999999999999858
20
-787
10
72.999999999999858
20
-757
10
69.999999999999858
20
-757
10
69.999999999999858
20
-716.00000000000011
10
72.999999999999858
20
-716.00000000000011
10
72.999999999999858
20
-686.00000000000011
10
69.999999999999858
20
-686.00000000000011
10
69.999999999999858
20
-645
10
72.999999999999858
20
-645
10
72.999999999999858
20
-615.00000000000011
10
69.999999999999858
20
-615
10
69.999999999999858
20
-574
10
72.999999999999858
20
-574
10
72.999999999999858
20
-544
10
69.999999999999858
20
-544
10
69.999999999999858
20
-503.00000000000006
10
72.999999999999858
20
-503.00000000000006
10
72.999999999999858
20
-473.00000000000006
10
69.999999999999858
20
-473.00000000000006
10
69.999999999999858
20
-432
10
72.999999999999858
20
-432
10
72.999999999999858
20
-402
10
69.999999999999858
20
-402
10
70.000000000000142
20
-392
10
-69.999999999999858
20
-392
10
-69.999999999999858
20
-402
10
-72.999999999999858
20
-402
10
-72.999999999999858
20
-432
10
-69.999999999999858
20
-432
10
-69.999999999999858
20
-473.00000000000006
10
-72.999999999999858
20
-473.00000000000006
10
-72.999999999999858
20
-503.00000000000006
10
-69.999999999999858
20
-503.00000000000006
10
-69.999999999999858
20
-544
10
-72.999999999999858
20
-544
10
-72.999999999999858
20
-574
10
-69.999999999999858
20
-574
10
-69.999999999999858
20
-615
10
-72.999999999999858
20
-615
10
-72.999999999999858
20
-645
10
-69.999999999999858
20
-645
10
-69.999999999999858
20
-686.00000000000011
10
-72.999999999999858
20
-686.00000000000011
10
-72.999999999999858
20
-716.00000000000011
10
-69.999999999999858
20
-716.00000000000011
0
LWPOLYLINE
5
105
100
AcDbEntity
8
0
100
AcDbPolyline
90
4
70
1
43
0.0
10
-302.47495832038521
20
4.4035878000465605
10
-299.77495832038522
20
4.4035878000465605
10
-299.77495832038522
20
-115.59641219995345
10
-302.47495832038521
20
-115.59641219995345
0
LWPOLYLINE
5
106
100
AcDbEntity
8
0
100
AcDbPolyline
90
4
70
1
43
0.0
10
-322.47495832038521
20
-5.5964121999534386
10
-322.47495832038521
20
-105.59641219995345
10
-602.47495832038521
20
-105.59641219995345
10
-602.47495832038521
20
-5.5964121999534377
0
LWPOLYLINE
5
107
100
AcDbEntity
8
0
100
AcDbPolyline
90
48
70
1
43
0.0
10
-612.19995832038524
20
-125.59641219995343
10
-582.7499583203853
20
-125.59641219995343
10
-582.7499583203853
20
-128.59641219995345
10
-541.19995832038524
20
-128.59641219995345
10
-541.19995832038524
20
-125.59641219995343
10
-511.74995832038525
20
-125.59641219995343
10
-511.74995832038525
20
-128.59641219995345
10
-470.19995832038535
20
-128.59641219995345
10
-470.19995832038535
20
-125.59641219995343
10
-440.74995832038525
20
-125.59641219995343
10
-440.74995832038525
20
-128.59641219995345
10
-399.19995832038529
20
-128.59641219995345
10
-399.19995832038529
20
-125.59641219995343
10
-369.7499583203853
20
-125.59641219995343
10
-369.7499583203853
20
-128.59641219995345
10
-328.19995832038529
20
-128.59641219995345
10
-328.19995832038529
20
-125.59641219995343
10
-298.7499583203853
20
-125.59641219995343
10
-298.7499583203853
20
-128.59641219995345
10
-257.19995832038529
20
-128.59641219995345
10
-257.19995832038529
20
-125.59641219995343
10
-227.74995832038528
20
-125.59641219995343
10
-227.74995832038528
20
-128.59641219995345
10
-222.47495832038524
20
-128.59641219995345
10
-222.47495832038524
20
17.403587800046569
10
-227.74995832038528
20
17.403587800046559
10
-227.74995832038528
20
14.403587800046562
10
-257.19995832038529
20
14.403587800046562
10
-257.19995832038529
20
17.403587800046559
10
-316.4999583203853
20
17.403587800046559
10
-316.4999583203853
20
14.403587800046562
10
-345.94995832038529
20
14.403587800046562
10
-345.94995832038529
20
17.403587800046559
10
-405.2499583203853
20
17.403587800046559
10
-405.2499583203853
20
14.403587800046562
10
-434.69995832038529
20
14.403587800046562
10
-434.69995832038529
20
17.403587800046559
10
-493.9999583203853
20
17.403587800046559
10
-493.9999583203853
20
14.403587800046562
10
-523.44995832038524
20
14.403587800046562
10
-523.44995832038524
20
17.403587800046559
10
-582.7499583203853
20
17.403587800046559
10
-582.7499583203853
20
14.403587800046562
10
-612.19995832038524
20
14.403587800046562
10
-612.19995832038524
20
17.403587800046559
10
-622.47495832038521
20
17.403587800046569
10
-622.47495832038521
20
-128.59641219995345
10
-612.19995832038524
20
-128.59641219995345
0
LWPOLYLINE
5
108
100
AcDbEntity
8
0
100
AcDbPolyline
90
8
70
1
43
0.0
10
16.094187035671439
20
254.68585363509283
10
16.094187035671453
20
247.18585363509283
42
-0.41421356237309442
10
13.844187035671442
20
244.93585363509283
10
8.3441870356714389
20
244.93585363509283
42
-0.41421356237309515
10
6.0941870356714389
20
247.18585363509283
10
6.0941870356714247
20
254.68585363509283
42
-0.41421356237309515
10
8.3441870356714389
20
256.93585363509283
10
13.844187035671439
20
256.93585363509283
42
-0.41421356237309503
0
LWPOLYLINE
5
109
100
AcDbEntity
8
0
100
AcDbPolyline
90
8
70
1
43
0.0
10
3.5941870356714478
20
205.9358536350928
10
3.5941870356714523
20
207.9358536350928
42
-0.41421356237309509
10
8.5941870356714531
20
212.9358536350928
10
13.594187035671453
20
212.93585363509283
42
-0.41421356237309503
10
18.594187035671446
20
207.93585363509283
10
18.594187035671435
20
205.9358536350928
42
-0.41421356237309503
10
14.59418703567145
20
201.93585363509283
10
7.5941870356714469
20
201.93585363509283
42
-0.41421356237309503
0
LWPOLYLINE
5
110
100
AcDbEntity
8
0
100
AcDbPolyline
90
44
70
1
43
0.0
10
-58.905812964328575
20
195.9358536350928
10
81.094187035671425
20
195.9358536350928
10
81.094187035671453
20
200.93585363509283
10
84.094187035671439
20
200.93585363509283
10
84.094187035671439
20
230.93585363509283
10
81.094187035671453
20
230.93585363509283
10
81.094187035671453
20
289.68585363509283
10
84.094187035671439
20
289.68585363509283
10
84.094187035671439
20
319.68585363509283
10
81.094187035671453
20
319.68585363509283
10
81.094187035671453
20
378.43585363509283
10
84.094187035671439
20
378.43585363509283
10
84.094187035671439
20
408.43585363509283
10
81.094187035671453
20
408.43585363509283
10
81.094187035671453
20
467.18585363509283
10
84.094187035671439
20
467.18585363509283
10
84.094187035671439
20
497.18585363509283
10
81.094187035671453
20
497.18585363509283
10
81.094187035671453
20
555.93585363509283
10
84.094187035671439
20
555.93585363509283
10
84.094187035671439
20
585.93585363509283
10
81.094187035671453
20
585.93585363509283
10
81.094187035671425
20
595.93585363509283
10
-58.905812964328575
20
595.93585363509283
10
-58.905812964328575
20
585.93585363509283
10
-61.905812964328575
20
585.93585363509283
10
-61.905812964328575
20
555.93585363509283
10
-58.905812964328575
20
555.93585363509283
10
-58.905812964328575
20
497.18585363509283
10
-61.905812964328575
20
497.18585363509283
10
-61.905812964328575
20
467.18585363509283
10
-58.905812964328575
20
467.18585363509283
10
-58.905812964328575
20
408.43585363509283
10
-61.905812964328575
20
408.43585363509283
10
-61.905812964328575
20
378.43585363509283
10
-58.905812964328575
20
378.43585363509283
10
-58.905812964328575
20
319.68585363509283
10
-61.905812964328575
20
319.68585363509283
10
-61.905812964328575
20
289.68585363509283
10
-58.905812964328575
20
289.68585363509283
10
-58.905812964328575
20
230.93585363509283
10
-61.905812964328575
20
230.93585363509283
10
-61.905812964328575
20
200.93585363509283
10
-58.905812964328575
20
200.93585363509283
0
LWPOLYLINE
5
111
100
AcDbEntity
8
0
100
AcDbPolyline
90
4
70
1
43
0.0
10
61.094187035671425
20
295.93585363509283
10
-38.905812964328575
20
295.93585363509283
10
-38.905812964328575
20
575.93585363509283
10
61.094187035671425
20
575.93585363509283
0
LWPOLYLINE
5
112
100
AcDbEntity
8
0
100
AcDbPolyline
90
4
70
1
43
0.0
10
71.094187035671425
20
273.23585363509278
10
-48.905812964328575
20
273.23585363509278
10
-48.905812964328575
20
275.93585363509283
10
71.094187035671425
20
275.93585363509283
0
LWPOLYLINE
5
113
100
AcDbEntity
8
0
100
AcDbPolyline
90
4
70
1
43
0.0
10
89.500277315345031
20
21.356778465164332
10
89.500277315345031
20
141.35677846516435
10
92.200277315345033
20
141.35677846516435
10
92.200277315345033
20
21.356778465164332
0
LWPOLYLINE
5
114
100
AcDbEntity
8
0
100
AcDbPolyline
90
4
70
1
43
0.0
10
112.20027731534503
20
131.35677846516435
10
392.20027731534509
20
131.35677846516435
10
392.20027731534509
20
31.356778465164332
10
112.20027731534503
20
31.356778465164332
0
LWPOLYLINE
5
115
100
AcDbEntity
8
0
100
AcDbPolyline
90
48
70
1
43
0.0
10
17.475277315345057
20
11.356778465164341
10
46.925277315345056
20
11.356778465164341
10
46.925277315345056
20
8.3567784651643429
10
88.475277315345068
20
8.3567784651643411
10
88.475277315345068
20
11.356778465164341
10
117.92527731534507
20
11.356778465164341
10
117.92527731534507
20
8.3567784651643429
10
159.4752773153451
20
8.3567784651643411
10
159.4752773153451
20
11.356778465164341
10
188.92527731534511
20
11.356778465164341
10
188.92527731534511
20
8.3567784651643429
10
230.47527731534507
20
8.3567784651643411
10
230.47527731534507
20
11.356778465164341
10
259.92527731534506
20
11.356778465164341
10
259.92527731534506
20
8.3567784651643429
10
301.47527731534507
20
8.3567784651643411
10
301.47527731534507
20
11.356778465164341
10
330.92527731534506
20
11.356778465164341
10
330.92527731534506
20
8.3567784651643429
10
372.47527731534512
20
8.3567784651643411
10
372.47527731534512
20
11.356778465164341
10
401.92527731534506
20
11.356778465164341
10
401.92527731534506
20
8.3567784651643429
10
412.20027731534509
20
8.3567784651643322
10
412.20027731534509
20
154.35677846516433
10
401.92527731534506
20
154.35677846516435
10
401.92527731534506
20
151.35677846516435
10
372.47527731534512
20
151.35677846516435
10
372.47527731534512
20
154.35677846516435
10
313.17527731534506
20
154.35677846516435
10
313.17527731534506
20
151.35677846516435
10
283.72527731534507
20
151.35677846516435
10
283.72527731534507
20
154.35677846516435
10
224.42527731534508
20
154.35677846516435
10
224.42527731534508
20
151.35677846516435
10
194.97527731534507
20
151.35677846516435
10
194.97527731534507
20
154.35677846516435
10
135.67527731534506
20
154.35677846516435
10
135.67527731534506
20
151.35677846516435
10
106.22527731534505
20
151.35677846516435
10
106.22527731534505
20
154.35677846516435
10
46.925277315345056
20
154.35677846516435
10
46.925277315345056
20
151.35677846516435
10
17.475277315345057
20
151.35677846516435
10
17.475277315345057
20
154.35677846516435
10
12.200277315345042
20
154.35677846516435
10
12.200277315345042
20
8.3567784651643429
10
17.475277315345057
20
8.3567784651643411
0
ENDSEC
0
SECTION
2
OBJECTS
0
DICTIONARY
5
C
100
AcDbDictionary
3
ACAD_GROUP
350
D
3
ACAD_MLINESTYLE
350
17
0
DICTIONARY
5
D
100
AcDbDictionary
0
DICTIONARY
5
1A
330
C
100
AcDbDictionary
0
DICTIONARY
5
17
100
AcDbDictionary
0
ENDSEC
0
EOF
