0
SECTION
2
HEADER
9
$INSUNITS
70
4
9
$ACADVER
1
AC1014
9
$HANDSEED
5
FFFF
0
ENDSEC
0
SECTION
2
TABLES
0
TABLE
2
VPORT
5
8
100
AcDbSymbolTable
0
ENDTAB
0
TABLE
2
LTYPE
5
5
100
AcDbSymbolTable
0
LTYPE
5
14
100
AcDbSymbolTableRecord
100
AcDbLinetypeTableRecord
2
BYBLOCK
70
0
0
LTYPE
5
15
100
AcDbSymbolTableRecord
100
AcDbLinetypeTableRecord
2
BYLAYER
70
0
0
ENDTAB
0
TABLE
2
LAYER
5
2
100
AcDbSymbolTable
70
2
0
LAYER
5
50
100
AcDbSymbolTableRecord
100
AcDbLayerTableRecord
2
0
70
0
6
CONTINUOUS
0
ENDTAB
0
TABLE
2
STYLE
5
3
100
AcDbSymbolTable
70
1
0
STYLE
5
11
100
AcDbSymbolTableRecord
100
AcDbTextStyleTableRecord
2
STANDARD
70
0
0
ENDTAB
0
TABLE
2
VIEW
5
6
100
AcDbSymbolTable
70
0
0
ENDTAB
0
TABLE
2
UCS
5
7
100
AcDbSymbolTable
70
0
0
ENDTAB
0
TABLE
2
APPID
5
9
100
AcDbSymbolTable
70
2
0
APPID
5
12
100
AcDbSymbolTableRecord
100
AcDbRegAppTableRecord
2
ACAD
70
0
0
ENDTAB
0
TABLE
2
DIMSTYLE
5
A
100
AcDbSymbolTable
70
1
0
ENDTAB
0
TABLE
2
BLOCK_RECORD
5
1
100
AcDbSymbolTable
70
1
0
BLOCK_RECORD
5
1F
100
AcDbSymbolTableRecord
100
AcDbBlockTableRecord
2
*MODEL_SPACE
0
BLOCK_RECORD
5
1B
100
AcDbSymbolTableRecord
100
AcDbBlockTableRecord
2
*PAPER_SPACE
0
ENDTAB
0
ENDSEC
0
SECTION
2
BLOCKS
0
BLOCK
5
20
100
AcDbEntity
100
AcDbBlockBegin
2
*MODEL_SPACE
0
ENDBLK
5
21
100
AcDbEntity
100
AcDbBlockEnd
0
BLOCK
5
1C
100
AcDbEntity
100
AcDbBlockBegin
2
*PAPER_SPACE
0
ENDBLK
5
1D
100
AcDbEntity
100
AcDbBlockEnd
0
ENDSEC
0
SECTION
2
ENTITIES
0
LWPOLYLINE
5
100
100
AcDbEntity
8
0
100
AcDbPolyline
90
22
70
1
43
0.0
10
-978.00000000000307
20
-590
10
-978.00000000000307
20
-578
10
-892.00000000000318
20
-578
10
-892.00000000000318
20
-590
10
-692.00000000000318
20
-590
10
-692.00000000000318
20
-556
10
-680.00000000000318
20
-556
10
-680.00000000000296
20
-406
10
-692.00000000000318
20
-406
10
-692.00000000000318
20
-361
42
0.27574819721132593
10
-742.00000000000318
20
-444.7687191683255
10
-742.00000000000318
20
-490
42
-0.41421356237309503
10
-792.00000000000318
20
-540
10
-1078.0000000000032
20
-540
42
-0.41421356237309503
10
-1128.0000000000032
20
-490
10
-1128.0000000000032
20
-444.7687191683255
42
0.27574819721132593
10
-1178.0000000000032
20
-361
10
-1178.0000000000032
20
-406
10
-1190.0000000000032
20
-406
10
-1190.0000000000032
20
-556
10
-1178.0000000000032
20
-556
10
-1178.0000000000032
20
-590
0
LWPOLYLINE
5
101
100
AcDbEntity
8
0
100
AcDbPolyline
90
22
70
1
43
0.0
10
-419.00000124409735
20
-578
10
-333.00000124409735
20
-578
10
-333.00000124409735
20
-590
10
-133.00000124409738
20
-590
10
-133.00000124409738
20
-556
10
-121.00000124409739
20
-556
10
-121.00000124409739
20
-406
10
-133.00000124409738
20
-406
10
-133.00000124409735
20
-361
42
0.27574819721132604
10
-183.00000124409738
20
-444.7687191683255
10
-183.00000124409738
20
-490
42
-0.41421356237309503
10
-233.00000124409738
20
-540
10
-519.00000124409746
20
-540
42
-0.41421356237309503
10
-569.00000124409746
20
-490
10
-569.00000124409746
20
-444.7687191683255
42
0.27574819721132593
10
-619.00000124409746
20
-361
10
-619.00000124409746
20
-406
10
-631.00000124409735
20
-406
10
-631.00000124409735
20
-556
10
-619.00000124409746
20
-556
10
-619.00000124409746
20
-590
10
-419.00000124409735
20
-590
0
LWPOLYLINE
5
102
100
AcDbEntity
8
0
100
AcDbPolyline
90
4
70
1
43
0.0
10
603.99999875590242
20
-504.00000009750624
10
603.99999875590242
20
-516.00000009750624
10
453.99999875590242
20
-516.00000009750624
10
453.99999875590242
20
-504.00000009750636
0
LWPOLYLINE
5
103
100
AcDbEntity
8
0
100
AcDbPolyline
90
4
70
1
43
0.0
10
77.999998755902737
20
-276.00000009750647
10
-72.000001244097263
20
-276.00000009750647
10
-72.000001244097263
20
-264.00000009750647
10
77.999998755902737
20
-264.00000009750647
0
LWPOLYLINE
5
104
100
AcDbEntity
8
0
100
AcDbPolyline
90
4
70
1
43
0.0
10
453.99999875590242
20
-384.00000009750636
10
603.99999875590242
20
-384.00000009750636
10
603.99999875590242
20
-396.00000009750636
10
453.99999875590242
20
-396.0000000975063
0
LWPOLYLINE
5
105
100
AcDbEntity
8
0
100
AcDbPolyline
90
4
70
1
43
0.0
10
-72.000001244097263
20
-396.00000009750653
10
-72.000001244097263
20
-384.00000009750647
10
77.999998755902737
20
-384.00000009750647
10
77.999998755902737
20
-396.00000009750653
0
LWPOLYLINE
5
106
100
AcDbEntity
8
0
100
AcDbPolyline
90
38
70
1
43
0.0
10
625.99999875590265
20
-550.00000009750636
10
637.99999875590265
20
-550.00000009750636
10
637.99999875590277
20
-470.00000009750664
10
625.9999987559022
20
-470.00000009750636
10
625.99999875590242
20
-430.00000009750659
10
637.99999875590231
20
-430.00000009750664
10
637.99999875590231
20
-350.00000009750664
10
625.99999875590254
20
-350.00000009750659
10
625.99999875590265
20
-310.00000009750647
10
637.99999875590265
20
-310.00000009750664
10
637.99999875590277
20
-230.0000000975065
10
625.99999875590265
20
-230.0000000975065
10
625.99999875590265
20
-190.0000000975065
10
480.99999875590288
20
-190.00000009750633
42
0.41421356237309503
10
475.99999875590271
20
-195.00000009750642
10
475.99999875590265
20
-316.41015702689106
10
402.41015568528758
20
-390.00000009750613
10
55.99999417151281
20
-190.00000009750653
10
-94.000001244097433
20
-190.00000009750633
10
-94.000001244097433
20
-230.0000000975065
10
-106.0000012440976
20
-230.0000000975065
10
-106.00000124409746
20
-310.0000000975063
10
-94.000001244097433
20
-310.00000009750647
10
-94.000001244097291
20
-350.00000009750642
10
-106.00000124409718
20
-350.00000009750647
10
-106.00000124409718
20
-430.00000009750647
10
-94.000001244097149
20
-430.00000009750647
10
-94.000001244097007
20
-470.00000009750647
10
-106.00000124409746
20
-470.00000009750647
10
-106.00000124409732
20
-550.00000009750636
10
-94.000001244097433
20
-550.00000009750647
10
-94.000001244097433
20
-590.00000009751102
10
50.999998755902709
20
-590.00000009751091
42
0.41421356237309503
10
55.999998755902638
20
-585.00000009751102
10
55.99999875590278
20
-463.58983522772581
10
129.58984182651739
20
-389.99999215710972
10
476.00000334029284
20
-589.99999215710977
10
625.99999875590265
20
-590.00000009750636
0
LWPOLYLINE
5
107
100
AcDbEntity
8
0
100
AcDbPolyline
90
8
70
1
43
0.0
10
1168.0000000000402
20
-479.00000009750534
10
1168
20
-445.00000009750642
10
1180
20
-445.00000009750642
10
1180
20
-525.00000009750647
10
1168
20
-525.00000009750647
10
1168
20
-491.00000009750522
10
968.00000000000011
20
-491.00000009750653
10
968.00000000000011
20
-479.00000009750647
0
LWPOLYLINE
5
108
100
AcDbEntity
8
0
100
AcDbPolyline
90
8
70
1
43
0.0
10
682
20
-445.00000009750642
10
681.99999999995975
20
-479.00000009750534
10
882
20
-479.00000009750647
10
882
20
-491.00000009750653
10
682
20
-491.00000009750522
10
682
20
-525.00000009750647
10
670
20
-525.00000009750647
10
670
20
-445.00000009750642
0
LWPOLYLINE
5
109
100
AcDbEntity
8
0
100
AcDbPolyline
90
4
70
1
43
0.0
10
670
20
-285.00000002579731
10
670
20
-205.00000002579736
10
682
20
-205.00000002579736
10
682
20
-285.00000002579736
0
LWPOLYLINE
5
110
100
AcDbEntity
8
0
100
AcDbPolyline
90
8
70
1
43
0.0
10
968
20
-371.00000002579748
10
968
20
-359.00000002579702
10
1168
20
-359.00000002579748
10
1168
20
-325.00000002579731
10
1180
20
-325.00000002579731
10
1180
20
-405.00000002579731
10
1168
20
-405.00000002579731
10
1168
20
-371.00000002579748
0
LWPOLYLINE
5
111
100
AcDbEntity
8
0
100
AcDbPolyline
90
4
70
1
43
0.0
10
1168
20
-285.00000002579736
10
1168
20
-205.00000002579736
10
1180
20
-205.00000002579736
10
1180
20
-285.00000002579731
0
LWPOLYLINE
5
112
100
AcDbEntity
8
0
100
AcDbPolyline
90
8
70
1
43
0.0
10
682
20
-405.00000002579731
10
670
20
-405.00000002579731
10
670
20
-325.00000002579731
10
682
20
-325.00000002579731
10
682
20
-359.00000002579748
10
882
20
-359.00000002579702
10
882
20
-371.00000002579748
10
682
20
-371.00000002579748
0
LWPOLYLINE
5
113
100
AcDbEntity
8
0
100
AcDbPolyline
90
8
70
1
43
0.0
10
1194.9999999922713
20
-590.00000009750602
42
0.41421356236531576
10
1199.9999999922713
20
-585.00000009763892
10
1200.0000000039884
20
-145.0000000259306
42
0.41421356238088886
10
1195.0000000039886
20
-140.00000002579742
10
654.99999875590242
20
-140.00000002579748
42
0.41421356237308671
10
649.99999875590265
20
-145.00000002579742
10
649.99999875590277
20
-585.00000009750659
42
0.41421356237308671
10
654.99999875590242
20
-590.00000009750647
0
LWPOLYLINE
5
114
100
AcDbEntity
8
0
100
AcDbPolyline
90
8
70
1
43
0.0
10
881.99999999999989
20
211.00000004591155
10
682
20
211.00000004591041
10
682
20
177.00000004591152
10
670
20
177.00000004591152
10
670
20
257.00000004591152
10
682
20
257.00000004591152
10
682
20
223.0000000459103
10
881.99999999999989
20
223.00000004591158
0
LWPOLYLINE
5
115
100
AcDbEntity
8
0
100
AcDbPolyline
90
4
70
1
43
0.0
10
1168
20
-63.000000025797469
10
1168
20
16.999999974202424
10
1180
20
16.999999974202353
10
1180
20
-63.000000025797469
0
LWPOLYLINE
5
116
100
AcDbEntity
8
0
100
AcDbPolyline
90
8
70
1
43
0.0
10
968
20
90.999999974202112
10
968
20
102.99999997420257
10
1168
20
102.99999997420257
10
1168
20
136.99999997420247
10
1180
20
136.99999997420247
10
1180
20
56.999999974202495
10
1168
20
56.999999974202481
10
1168
20
90.999999974202538
0
LWPOLYLINE
5
117
100
AcDbEntity
8
0
100
AcDbPolyline
90
8
70
1
43
0.0
10
682
20
90.999999974202538
10
682
20
56.999999974202495
10
670
20
56.999999974202481
10
670
20
136.99999997420241
10
682
20
136.99999997420244
10
682
20
102.99999997420257
10
882
20
102.99999997420257
10
882
20
90.999999974202112
0
LWPOLYLINE
5
118
100
AcDbEntity
8
0
100
AcDbPolyline
90
4
70
1
43
0.0
10
670
20
16.99999997420246
10
682
20
16.999999974202531
10
682
20
-63.000000025797469
10
670
20
-63.000000025797469
0
LWPOLYLINE
5
119
100
AcDbEntity
8
0
100
AcDbPolyline
90
8
70
1
43
0.0
10
1168
20
177.00000004591152
10
1168
20
211.00000004591041
10
968.00000000000011
20
211.00000004591155
10
968.00000000000011
20
223.00000004591158
10
1168
20
223.0000000459103
10
1168
20
257.00000004591152
10
1180
20
257.00000004591152
10
1180
20
177.00000004591152
0
LWPOLYLINE
5
120
100
AcDbEntity
8
0
100
AcDbPolyline
90
8
70
1
43
0.0
10
649.99999875590265
20
-123.00000002579748
42
0.41421356237309709
10
654.99999875590265
20
-128.0000000257975
10
1195.0000000039884
20
-128.00000002579748
42
0.41421356238089613
10
1200.0000000039884
20
-123.00000002566429
10
1199.9999999922647
20
317.00000004604379
42
0.41421356236530121
10
1194.9999999922711
20
322.00000004590436
10
654.99999875590242
20
322.00000004591146
42
0.41421356237309709
10
649.99999875590265
20
317.00000004591163
0
LWPOLYLINE
5
121
100
AcDbEntity
8
0
100
AcDbPolyline
90
4
70
1
43
0.0
10
603.99999875590242
20
135.99999990249381
10
453.99999875590242
20
135.99999990249387
10
453.9999987559022
20
147.99999990249376
10
603.99999875590242
20
147.99999990249378
0
LWPOLYLINE
5
122
100
AcDbEntity
8
0
100
AcDbPolyline
90
4
70
1
43
0.0
10
-72.000001244097263
20
27.999999902493968
10
77.999998755902737
20
27.999999902493968
10
77.999998755902737
20
15.99999990249394
10
-72.000001244097263
20
15.99999990249394
0
LWPOLYLINE
5
123
100
AcDbEntity
8
0
100
AcDbPolyline
90
4
70
1
43
0.0
10
603.99999875590174
20
15.999999902493798
10
453.99999875590169
20
15.999999902493798
10
453.99999875590174
20
27.999999902493773
10
603.99999875590174
20
27.999999902493791
0
LWPOLYLINE
5
124
100
AcDbEntity
8
0
100
AcDbPolyline
90
4
70
1
43
0.0
10
-72.000001244097263
20
-104.00000009750606
10
-72.000001244097263
20
-92.000000097506103
10
77.999998755902737
20
-92.000000097506103
10
77.999998755902737
20
-104.00000009750606
0
LWPOLYLINE
5
125
100
AcDbEntity
8
0
100
AcDbPolyline
90
38
70
1
43
0.0
10
55.999998755857234
20
95.589835032667992
10
55.999998755853966
20
216.99999990249748
42
0.4142135623730841
10
50.999998755854079
20
221.99999990249728
10
-94.000001244097291
20
221.99999990249847
10
-94.000001244097433
20
181.99999990249395
10
-106.00000124409718
20
181.99999990249387
10
-106.00000124409732
20
101.99999990249404
10
-94.000001244096865
20
101.99999990249404
10
-94.000001244097007
20
61.999999902494032
10
-106.00000124409704
20
61.999999902494039
10
-106.00000124409704
20
-18.000000097505957
10
-94.000001244097291
20
-18.000000097506064
10
-94.000001244097291
20
-58.00000009750601
10
-106.00000124409746
20
-58.000000097506188
10
-106.00000124409746
20
-138.00000009750605
10
-94.000001244097433
20
-138.00000009750605
10
-94.000001244097575
20
-178.00000009750622
10
55.999994171512739
20
-178.00000009750602
10
402.41015568528775
20
21.999999902493563
10
475.99999875590288
20
-51.58984316812159
10
475.99999875590271
20
-173.00000036788612
42
0.41421356291924638
10
480.99999876522622
20
-178.00000036788623
10
625.99999875590265
20
-178.00000009750619
10
625.99999875590265
20
-138.00000009750619
10
637.99999875590265
20
-138.00000009750619
10
637.99999875590265
20
-58.000000097506401
10
625.99999875590254
20
-58.000000097506188
10
625.99999875590254
20
-18.000000097506224
10
637.99999875590231
20
-18.000000097506206
10
637.9999987559022
20
61.999999902493798
10
625.99999875590242
20
61.999999902493776
10
625.99999875590242
20
101.9999999024938
10
637.99999875590277
20
101.9999999024938
10
637.99999875590265
20
181.99999990249376
10
625.99999875590277
20
181.99999990249376
10
625.99999875590265
20
221.99999990249376
10
475.99999875590271
20
221.99999990249381
10
129.58984182651747
20
21.999991962097312
0
LWPOLYLINE
5
126
100
AcDbEntity
8
0
100
AcDbPolyline
90
22
70
1
43
0.0
10
371.99999999999983
20
340.00000004590424
10
371.99999999999983
20
352.0000000459043
10
457.99999999999983
20
352.0000000459043
10
457.99999999999983
20
340.00000004590424
10
657.99999999999977
20
340.00000004590424
10
657.99999999999977
20
374.00000004590424
10
669.99999999999989
20
374.00000004590424
10
669.99999999999989
20
524.00000004590424
10
657.99999999999977
20
524.00000004590424
10
657.99999999999977
20
569.00000004590424
42
0.27574819721132598
10
607.99999999999977
20
485.23128087757874
10
607.99999999999977
20
440.00000004590424
42
-0.41421356237309503
10
557.99999999999977
20
390.00000004590424
10
271.99999999999983
20
390.00000004590424
42
-0.41421356237309503
10
221.99999999999983
20
440.00000004590424
10
221.99999999999986
20
485.23128087757874
42
0.27574819721132615
10
171.99999999999983
20
569.00000004590424
10
171.99999999999983
20
524.00000004590424
10
159.99999999999983
20
524.00000004590424
10
159.99999999999983
20
374.00000004590424
10
171.99999999999983
20
374.00000004590424
10
171.99999999999983
20
340.00000004590424
0
LWPOLYLINE
5
127
100
AcDbEntity
8
0
100
AcDbPolyline
90
22
70
1
43
0.0
10
902.00000000000023
20
340.00000004590424
10
902.00000000000023
20
352.0000000459043
10
988.00000000000011
20
352.0000000459043
10
988.00000000000011
20
340.00000004590424
10
1188
20
340.00000004590424
10
1188
20
374.00000004590424
10
1200
20
374.00000004590424
10
1200
20
524.00000004590424
10
1188
20
524.00000004590424
10
1188
20
569.00000004590424
42
0.27574819721132593
10
1138
20
485.23128087757874
10
1138
20
440.00000004590424
42
-0.41421356237309503
10
1088
20
390.00000004590424
10
802
20
390.00000004590424
42
-0.41421356237309503
10
752
20
440.00000004590424
10
752.00000000000023
20
485.23128087757874
42
0.27574819721132643
10
702
20
569.00000004590436
10
702
20
524.00000004590424
10
690
20
524.00000004590424
10
690
20
374.00000004590424
10
702
20
374.00000004590424
10
702
20
340.00000004590424
0
ENDSEC
0
SECTION
2
OBJECTS
0
DICTIONARY
5
C
100
AcDbDictionary
3
ACAD_GROUP
350
D
3
ACAD_MLINESTYLE
350
17
0
DICTIONARY
5
D
100
AcDbDictionary
0
DICTIONARY
5
1A
330
C
100
AcDbDictionary
0
DICTIONARY
5
17
100
AcDbDictionary
0
ENDSEC
0
EOF
